  0
SECTION
  2
HEADER
  9
$ACADVER
  1
AC1015
  9
$ACADMAINTVER
 70
    20
  9
$DWGCODEPAGE
  3
ANSI_932
  9
$INSBASE
 10
0.0
 20
0.0
 30
0.0
  9
$EXTMIN
 10
-19142.97609646318
 20
4756.755313357791
 30
0.0
  9
$EXTMAX
 10
38986.48483688767
 20
47729.70153267496
 30
0.0
  9
$LIMMIN
 10
0.0
 20
0.0
  9
$LIMMAX
 10
42000.0
 20
29700.0
  9
$ORTHOMODE
 70
     0
  9
$REGENMODE
 70
     1
  9
$FILLMODE
 70
     1
  9
$QTEXTMODE
 70
     0
  9
$MIRRTEXT
 70
     0
  9
$LTSCALE
 40
100.0
  9
$ATTMODE
 70
     1
  9
$TEXTSIZE
 40
0.2
  9
$TRACEWID
 40
0.05
  9
$TEXTSTYLE
  7
STANDARD
  9
$CLAYER
  8
0
  9
$CELTYPE
  6
CONTINUOUS
  9
$CECOLOR
 62
   256
  9
$CELTSCALE
 40
1.0
  9
$DISPSILH
 70
     0
  9
$DIMSCALE
 40
40.0
  9
$DIMASZ
 40
0.18
  9
$DIMEXO
 40
0.0625
  9
$DIMDLI
 40
0.38
  9
$DIMRND
 40
0.0
  9
$DIMDLE
 40
0.0
  9
$DIMEXE
 40
0.18
  9
$DIMTP
 40
0.0
  9
$DIMTM
 40
0.0
  9
$DIMTXT
 40
0.18
  9
$DIMCEN
 40
0.09
  9
$DIMTSZ
 40
0.0
  9
$DIMTOL
 70
     0
  9
$DIMLIM
 70
     0
  9
$DIMTIH
 70
     1
  9
$DIMTOH
 70
     1
  9
$DIMSE1
 70
     0
  9
$DIMSE2
 70
     0
  9
$DIMTAD
 70
     0
  9
$DIMZIN
 70
     0
  9
$DIMBLK
  1

  9
$DIMASO
 70
     1
  9
$DIMSHO
 70
     1
  9
$DIMPOST
  1

  9
$DIMAPOST
  1

  9
$DIMALT
 70
     0
  9
$DIMALTD
 70
     2
  9
$DIMALTF
 40
25.4
  9
$DIMLFAC
 40
1.0
  9
$DIMTOFL
 70
     0
  9
$DIMTVP
 40
0.0
  9
$DIMTIX
 70
     0
  9
$DIMSOXD
 70
     0
  9
$DIMSAH
 70
     0
  9
$DIMBLK1
  1

  9
$DIMBLK2
  1

  9
$DIMSTYLE
  2
Standard
  9
$DIMCLRD
 70
     0
  9
$DIMCLRE
 70
     0
  9
$DIMCLRT
 70
     0
  9
$DIMTFAC
 40
1.0
  9
$DIMGAP
 40
0.09
  9
$DIMJUST
 70
     0
  9
$DIMSD1
 70
     0
  9
$DIMSD2
 70
     0
  9
$DIMTOLJ
 70
     1
  9
$DIMTZIN
 70
     0
  9
$DIMALTZ
 70
     0
  9
$DIMALTTZ
 70
     0
  9
$DIMUPT
 70
     0
  9
$DIMDEC
 70
     4
  9
$DIMTDEC
 70
     4
  9
$DIMALTU
 70
     2
  9
$DIMALTTD
 70
     2
  9
$DIMTXSTY
  7
STANDARD
  9
$DIMAUNIT
 70
     0
  9
$DIMADEC
 70
     0
  9
$DIMALTRND
 40
0.0
  9
$DIMAZIN
 70
     0
  9
$DIMDSEP
 70
    46
  9
$DIMATFIT
 70
     3
  9
$DIMFRAC
 70
     0
  9
$DIMLDRBLK
  1

  9
$DIMLUNIT
 70
     2
  9
$DIMLWD
 70
    -2
  9
$DIMLWE
 70
    -2
  9
$DIMTMOVE
 70
     0
  9
$LUNITS
 70
     2
  9
$LUPREC
 70
     4
  9
$SKETCHINC
 40
0.1
  9
$FILLETRAD
 40
0.0
  9
$AUNITS
 70
     0
  9
$AUPREC
 70
     0
  9
$MENU
  1
.
  9
$ELEVATION
 40
0.0
  9
$PELEVATION
 40
0.0
  9
$THICKNESS
 40
0.0
  9
$LIMCHECK
 70
     0
  9
$CHAMFERA
 40
0.0
  9
$CHAMFERB
 40
0.0
  9
$CHAMFERC
 40
0.0
  9
$CHAMFERD
 40
0.0
  9
$SKPOLY
 70
     0
  9
$TDCREATE
 40
2454575.690387361
  9
$TDUCREATE
 40
2454575.315387361
  9
$TDUPDATE
 40
2454575.698317952
  9
$TDUUPDATE
 40
2454575.323317952
  9
$TDINDWG
 40
0.0019957986
  9
$TDUSRTIMER
 40
0.0019956250
  9
$USRTIMER
 70
     1
  9
$ANGBASE
 50
0.0
  9
$ANGDIR
 70
     0
  9
$PDMODE
 70
     0
  9
$PDSIZE
 40
0.0
  9
$PLINEWID
 40
0.0
  9
$SPLFRAME
 70
     0
  9
$SPLINETYPE
 70
     6
  9
$SPLINESEGS
 70
     8
  9
$HANDSEED
  5
A4D
  9
$SURFTAB1
 70
     6
  9
$SURFTAB2
 70
     6
  9
$SURFTYPE
 70
     6
  9
$SURFU
 70
     6
  9
$SURFV
 70
     6
  9
$UCSBASE
  2

  9
$UCSNAME
  2

  9
$UCSORG
 10
0.0
 20
0.0
 30
0.0
  9
$UCSXDIR
 10
1.0
 20
0.0
 30
0.0
  9
$UCSYDIR
 10
0.0
 20
1.0
 30
0.0
  9
$UCSORTHOREF
  2

  9
$UCSORTHOVIEW
 70
     0
  9
$UCSORGTOP
 10
0.0
 20
0.0
 30
0.0
  9
$UCSORGBOTTOM
 10
0.0
 20
0.0
 30
0.0
  9
$UCSORGLEFT
 10
0.0
 20
0.0
 30
0.0
  9
$UCSORGRIGHT
 10
0.0
 20
0.0
 30
0.0
  9
$UCSORGFRONT
 10
0.0
 20
0.0
 30
0.0
  9
$UCSORGBACK
 10
0.0
 20
0.0
 30
0.0
  9
$PUCSBASE
  2

  9
$PUCSNAME
  2

  9
$PUCSORG
 10
0.0
 20
0.0
 30
0.0
  9
$PUCSXDIR
 10
1.0
 20
0.0
 30
0.0
  9
$PUCSYDIR
 10
0.0
 20
1.0
 30
0.0
  9
$PUCSORTHOREF
  2

  9
$PUCSORTHOVIEW
 70
     0
  9
$PUCSORGTOP
 10
0.0
 20
0.0
 30
0.0
  9
$PUCSORGBOTTOM
 10
0.0
 20
0.0
 30
0.0
  9
$PUCSORGLEFT
 10
0.0
 20
0.0
 30
0.0
  9
$PUCSORGRIGHT
 10
0.0
 20
0.0
 30
0.0
  9
$PUCSORGFRONT
 10
0.0
 20
0.0
 30
0.0
  9
$PUCSORGBACK
 10
0.0
 20
0.0
 30
0.0
  9
$USERI1
 70
     0
  9
$USERI2
 70
     0
  9
$USERI3
 70
     0
  9
$USERI4
 70
     0
  9
$USERI5
 70
     0
  9
$USERR1
 40
0.0
  9
$USERR2
 40
0.0
  9
$USERR3
 40
0.0
  9
$USERR4
 40
0.0
  9
$USERR5
 40
0.0
  9
$WORLDVIEW
 70
     1
  9
$SHADEDGE
 70
     3
  9
$SHADEDIF
 70
    70
  9
$TILEMODE
 70
     1
  9
$MAXACTVP
 70
    64
  9
$PINSBASE
 10
0.0
 20
0.0
 30
0.0
  9
$PLIMCHECK
 70
     0
  9
$PEXTMIN
 10
1.000000000000000E+20
 20
1.000000000000000E+20
 30
1.000000000000000E+20
  9
$PEXTMAX
 10
-1.000000000000000E+20
 20
-1.000000000000000E+20
 30
-1.000000000000000E+20
  9
$PLIMMIN
 10
0.0
 20
0.0
  9
$PLIMMAX
 10
12.0
 20
9.0
  9
$UNITMODE
 70
     0
  9
$VISRETAIN
 70
     1
  9
$PLINEGEN
 70
     0
  9
$PSLTSCALE
 70
     1
  9
$TREEDEPTH
 70
  3020
  9
$CMLSTYLE
  2
Standard
  9
$CMLJUST
 70
     0
  9
$CMLSCALE
 40
1.0
  9
$PROXYGRAPHICS
 70
     1
  9
$MEASUREMENT
 70
     0
  9
$CELWEIGHT
370
    -1
  9
$ENDCAPS
280
     0
  9
$JOINSTYLE
280
     0
  9
$LWDISPLAY
290
     0
  9
$INSUNITS
 70
     2
  9
$HYPERLINKBASE
  1

  9
$STYLESHEET
  1

  9
$XEDIT
290
     1
  9
$CEPSNTYPE
380
     0
  9
$PSTYLEMODE
290
     1
  9
$FINGERPRINTGUID
  2
{B1630201-484D-43BF-9C8E-C4A9349522CE}
  9
$VERSIONGUID
  2
{13A39730-9596-44B3-80B7-0156A970433D}
  9
$EXTNAMES
290
     1
  9
$PSVPSCALE
 40
0.0
  9
$OLESTARTUP
290
     0
  0
ENDSEC
  0
SECTION
  2
CLASSES
  0
CLASS
  1
ACDBDICTIONARYWDFLT
  2
AcDbDictionaryWithDefault
  3
ObjectDBX Classes
 90
        0
280
     0
281
     0
  0
CLASS
  1
TABLESTYLE
  2
AcDbTableStyle
  3
ObjectDBX Classes
 90
     2047
280
     0
281
     0
  0
CLASS
  1
DMMAPMANAGER
  2
AcMapDMMapManager
  3
AcMapDisplayManagement
 90
     1024
280
     0
281
     0
  0
CLASS
  1
DMSTYLELIBRARY
  2
AcMapDMStyleLibrary
  3
AcMapDisplayManagement
 90
     1024
280
     0
281
     0
  0
CLASS
  1
DMMAP
  2
AcMapDMMap
  3
AcMapDisplayManagement
 90
     1024
280
     0
281
     0
  0
CLASS
  1
DMBASEELEMENT
  2
AcMapDMBaseElement
  3
AcMapDisplayManagement
 90
     1024
280
     0
281
     0
  0
CLASS
  1
DMDEFAULTSTYLE
  2
AcMapDMDefaultStyle
  3
AcMapDisplayManagement
 90
     1024
280
     0
281
     0
  0
CLASS
  1
DMSTYLEREFERENCE
  2
AcMapDMStyleReference
  3
AcMapDisplayManagement
 90
     1024
280
     0
281
     0
  0
CLASS
  1
DMSTYLECATEGORY
  2
AcMapDMStyleCategory
  3
AcMapDisplayManagement
 90
     1024
280
     0
281
     0
  0
CLASS
  1
AECC_TREE_NODE
  2
AeccDbTreeNode
  3
AeccvBase10|Product Desc: Autodesk Civil 3D |Company: Autodesk,Inc. |WEB Address: www.autodesk.com
 90
     1023
280
     0
281
     0
  0
CLASS
  1
AECC_CLASS_NODE
  2
AeccDbClassNode
  3
AeccLand10|Product Desc: Autodesk Civil 3D |Company: Autodesk,Inc. |WEB Address: www.autodesk.com
 90
     1023
280
     0
281
     0
  0
CLASS
  1
AECC_ROOT_SETTINGS_NODE
  2
AeccDbRootSettingsNode
  3
AeccvBase10|Product Desc: Autodesk Civil 3D |Company: Autodesk,Inc. |WEB Address: www.autodesk.com
 90
     1023
280
     0
281
     0
  0
CLASS
  1
AEC_VARS_DWG_SETUP
  2
AecDbVarsDwgSetup
  3
AecBase40|Product Desc: Autodesk Architectural Desktop 2005 |Company: Autodesk,Inc. |WEB Address: www.autodesk.com
 90
      129
280
     0
281
     0
  0
CLASS
  1
AECC_SETTINGS_NODE
  2
AeccDbSettingsNode
  3
AeccvBase10|Product Desc: Autodesk Civil 3D |Company: Autodesk,Inc. |WEB Address: www.autodesk.com
 90
     1023
280
     0
281
     0
  0
CLASS
  1
AECC_PROFILE_VIEW_STYLE
  2
AeccDbGraphStyleProfile
  3
AeccLand10|Product Desc: Autodesk Civil 3D |Company: Autodesk,Inc. |WEB Address: www.autodesk.com
 90
      129
280
     0
281
     0
  0
CLASS
  1
AECC_PROFILE_VIEW_BAND_STYLE_SET
  2
AeccDbGraphProfileBandStyleSet
  3
AeccLand10|Product Desc: Autodesk Civil 3D |Company: Autodesk,Inc. |WEB Address: www.autodesk.com
 90
      129
280
     0
281
     0
  0
CLASS
  1
AECC_PROFILE_VIEW_DATA_BAND_STYLE
  2
AeccDbGraphStyleProfileDataBands
  3
AeccLand10|Product Desc: Autodesk Civil 3D |Company: Autodesk,Inc. |WEB Address: www.autodesk.com
 90
      129
280
     0
281
     0
  0
CLASS
  1
AECC_LABEL_NODE
  2
AeccDbLabelNode
  3
AeccLand10|Product Desc: Autodesk Civil 3D |Company: Autodesk,Inc. |WEB Address: www.autodesk.com
 90
     1023
280
     0
281
     0
  0
CLASS
  1
AECC_LABEL_COLLECTOR_STYLE
  2
AeccDbLabelStyleCollector
  3
AeccLand10|Product Desc: Autodesk Civil 3D |Company: Autodesk,Inc. |WEB Address: www.autodesk.com
 90
     1023
280
     0
281
     0
  0
CLASS
  1
AECC_LABEL_TEXT_STYLE
  2
AeccDbLabelStyleText
  3
AeccLand10|Product Desc: Autodesk Civil 3D |Company: Autodesk,Inc. |WEB Address: www.autodesk.com
 90
     1023
280
     0
281
     0
  0
CLASS
  1
AECC_PROFILE_VIEW_HORIZONTAL_GEOMETRY_BAND_STYLE
  2
AeccDbGraphStyleHorGeometryBands
  3
AeccLand10|Product Desc: Autodesk Civil 3D |Company: Autodesk,Inc. |WEB Address: www.autodesk.com
 90
      129
280
     0
281
     0
  0
CLASS
  1
AECC_PROFILE_VIEW_VERTICAL_GEOMETRY_BAND_STYLE
  2
AeccDbGraphStyleVertGeometryBands
  3
AeccLand10|Product Desc: Autodesk Civil 3D |Company: Autodesk,Inc. |WEB Address: www.autodesk.com
 90
      129
280
     0
281
     0
  0
CLASS
  1
AECC_LABEL_RADIAL_LINE_STYLE
  2
AeccDbLabelStyleRadialLine
  3
AeccLand10|Product Desc: Autodesk Civil 3D |Company: Autodesk,Inc. |WEB Address: www.autodesk.com
 90
     1023
280
     0
281
     0
  0
CLASS
  1
AECC_POINT_STYLE
  2
AeccDbPointStyle
  3
AeccLand10|Product Desc: Autodesk Civil 3D |Company: Autodesk,Inc. |WEB Address: www.autodesk.com
 90
      895
280
     0
281
     0
  0
CLASS
  1
AECC_PROFILE_LABEL_SET
  2
AeccDbVAlignStnLabelsDlgTemplate
  3
AeccLand10|Product Desc: Autodesk Civil 3D |Company: Autodesk,Inc. |WEB Address: www.autodesk.com
 90
     1023
280
     0
281
     0
  0
CLASS
  1
AECC_SECTION_VIEW_STYLE
  2
AeccDbGraphStyleCrossSection
  3
AeccLand10|Product Desc: Autodesk Civil 3D |Company: Autodesk,Inc. |WEB Address: www.autodesk.com
 90
      129
280
     0
281
     0
  0
CLASS
  1
AECC_SECTION_VIEW_BAND_STYLE_SET
  2
AeccDbGraphSectionBandStyleSet
  3
AeccLand10|Product Desc: Autodesk Civil 3D |Company: Autodesk,Inc. |WEB Address: www.autodesk.com
 90
      129
280
     0
281
     0
  0
CLASS
  1
AECC_SECTION_VIEW_DATA_BAND_STYLE
  2
AeccDbGraphStyleSectionDataBands
  3
AeccLand10|Product Desc: Autodesk Civil 3D |Company: Autodesk,Inc. |WEB Address: www.autodesk.com
 90
      129
280
     0
281
     0
  0
CLASS
  1
AECC_SECTION_LABEL_SET
  2
AeccDbSectionLabelsDlgTemplate
  3
AeccLand10|Product Desc: Autodesk Civil 3D |Company: Autodesk,Inc. |WEB Address: www.autodesk.com
 90
     1023
280
     0
281
     0
  0
CLASS
  1
AECC_ALIGNMENT_STYLE
  2
AeccDbAlignmentStyle
  3
AeccLand10|Product Desc: Autodesk Civil 3D |Company: Autodesk,Inc. |WEB Address: www.autodesk.com
 90
     1023
280
     0
281
     0
  0
CLASS
  1
AECC_LABEL_VECTOR_ARROW_STYLE
  2
AeccDbLabelStyleVectorArrow
  3
AeccLand10|Product Desc: Autodesk Civil 3D |Company: Autodesk,Inc. |WEB Address: www.autodesk.com
 90
     1023
280
     0
281
     0
  0
CLASS
  1
AECC_ALIGNMENT_LABEL_SET
  2
AeccDbAlignStnLabelsDlgTemplate
  3
AeccLand10|Product Desc: Autodesk Civil 3D |Company: Autodesk,Inc. |WEB Address: www.autodesk.com
 90
     1023
280
     0
281
     0
  0
CLASS
  1
AECC_SURFACE_STYLE
  2
AeccDbSurfaceStyle
  3
AeccLand10|Product Desc: Autodesk Civil 3D |Company: Autodesk,Inc. |WEB Address: www.autodesk.com
 90
      129
280
     0
281
     0
  0
CLASS
  1
AECC_LEGEND_TABLE_STYLE
  2
AeccDbLegendScheduleTableStyle
  3
AeccLand10|Product Desc: Autodesk Civil 3D |Company: Autodesk,Inc. |WEB Address: www.autodesk.com
 90
     1023
280
     0
281
     0
  0
CLASS
  1
AECC_SECTION_STYLE
  2
AeccDbSectionStyle
  3
AeccLand10|Product Desc: Autodesk Civil 3D |Company: Autodesk,Inc. |WEB Address: www.autodesk.com
 90
     1023
280
     0
281
     0
  0
CLASS
  1
AECC_GRADING_STYLE
  2
AeccDbGradingStyle
  3
AeccLand10|Product Desc: Autodesk Civil 3D |Company: Autodesk,Inc. |WEB Address: www.autodesk.com
 90
     1023
280
     0
281
     0
  0
CLASS
  1
AECC_GRADING_CRITERIA
  2
AeccDbGradingCriteria
  3
AeccLand10|Product Desc: Autodesk Civil 3D |Company: Autodesk,Inc. |WEB Address: www.autodesk.com
 90
     1023
280
     0
281
     0
  0
CLASS
  1
AECC_PARCEL_STYLE
  2
AeccDbParcelStyle
  3
AeccLand10|Product Desc: Autodesk Civil 3D |Company: Autodesk,Inc. |WEB Address: www.autodesk.com
 90
      129
280
     0
281
     0
  0
CLASS
  1
AECC_SAMPLE_LINE_GROUP_STYLE
  2
AeccDbSampleLineGroupStyle
  3
AeccLand10|Product Desc: Autodesk Civil 3D |Company: Autodesk,Inc. |WEB Address: www.autodesk.com
 90
      129
280
     0
281
     0
  0
CLASS
  1
AECC_SHEET_STYLE
  2
AeccDbSheetStyle
  3
AeccLand10|Product Desc: Autodesk Civil 3D |Company: Autodesk,Inc. |WEB Address: www.autodesk.com
 90
      129
280
     0
281
     0
  0
CLASS
  1
AECC_SAMPLE_LINE_STYLE
  2
AeccDbSampleLineStyle
  3
AeccLand10|Product Desc: Autodesk Civil 3D |Company: Autodesk,Inc. |WEB Address: www.autodesk.com
 90
     1023
280
     0
281
     0
  0
CLASS
  1
AECC_PROFILE_STYLE
  2
AeccDbVAlignmentStyle
  3
AeccLand10|Product Desc: Autodesk Civil 3D |Company: Autodesk,Inc. |WEB Address: www.autodesk.com
 90
     1023
280
     0
281
     0
  0
CLASS
  1
AECC_STATION_FORMAT_STYLE
  2
AeccDbStationFormatStyle
  3
AeccLand10|Product Desc: Autodesk Civil 3D |Company: Autodesk,Inc. |WEB Address: www.autodesk.com
 90
     1023
280
     0
281
     0
  0
CLASS
  1
AECC_TABLE_STYLE
  2
AeccDbScheduleTableStyle
  3
AeccLand10|Product Desc: Autodesk Civil 3D |Company: Autodesk,Inc. |WEB Address: www.autodesk.com
 90
     1023
280
     0
281
     0
  0
CLASS
  1
AECC_GRADING_CRITERIA_SET
  2
AeccDbGradingCriteriaSet
  3
AeccLand10|Product Desc: Autodesk Civil 3D |Company: Autodesk,Inc. |WEB Address: www.autodesk.com
 90
     1023
280
     0
281
     0
  0
CLASS
  1
AECC_FORMAT_MANAGER_OBJECT
  2
AeccDbFormatManagerObject
  3
AeccLand10|Product Desc: Autodesk Civil 3D |Company: Autodesk,Inc. |WEB Address: www.autodesk.com
 90
     1023
280
     0
281
     0
  0
CLASS
  1
AECC_POINT_DESCRIPTION_KEY_SET_NODE
  2
AeccDbPointDescKeySetsNode
  3
AeccvBase10|Product Desc: Autodesk Civil 3D |Company: Autodesk,Inc. |WEB Address: www.autodesk.com
 90
     1023
280
     0
281
     0
  0
CLASS
  1
DICTIONARYVAR
  2
AcDbDictionaryVar
  3
ObjectDBX Classes
 90
        0
280
     0
281
     0
  0
CLASS
  1
ACDBPLACEHOLDER
  2
AcDbPlaceHolder
  3
ObjectDBX Classes
 90
        0
280
     0
281
     0
  0
CLASS
  1
LAYOUT
  2
AcDbLayout
  3
ObjectDBX Classes
 90
        0
280
     0
281
     0
  0
ENDSEC
  0
SECTION
  2
TABLES
  0
TABLE
  2
VPORT
  5
8
330
0
100
AcDbSymbolTable
 70
     2
  0
VPORT
  5
A47
330
8
100
AcDbSymbolTableRecord
100
AcDbViewportTableRecord
  2
*Active
 70
     0
 10
0.0
 20
0.0
 11
1.0
 21
1.0
 12
25887.44068140243
 22
21286.80531876709
 13
0.0
 23
0.0
 14
1.0
 24
1.0
 15
0.0
 25
0.0
 16
0.0
 26
0.0
 36
1.0
 17
0.0
 27
0.0
 37
0.0
 40
29565.72144602426
 41
1.937399678972712
 42
50.0
 43
0.0
 44
0.0
 50
0.0
 51
0.0
 71
     0
 72
   100
 73
     1
 74
     1
 75
     0
 76
     0
 77
     0
 78
     0
281
     0
 65
     1
110
0.0
120
0.0
130
0.0
111
1.0
121
0.0
131
0.0
112
0.0
122
1.0
132
0.0
 79
     0
146
0.0
  0
ENDTAB
  0
TABLE
  2
LTYPE
  5
5
330
0
100
AcDbSymbolTable
 70
    35
  0
LTYPE
  5
13
330
5
100
AcDbSymbolTableRecord
100
AcDbLinetypeTableRecord
  2
ByBlock
 70
     0
  3

 72
    65
 73
     0
 40
0.0
  0
LTYPE
  5
14
330
5
100
AcDbSymbolTableRecord
100
AcDbLinetypeTableRecord
  2
ByLayer
 70
     0
  3

 72
    65
 73
     0
 40
0.0
  0
LTYPE
  5
15
330
5
100
AcDbSymbolTableRecord
100
AcDbLinetypeTableRecord
  2
CONTINUOUS
 70
     0
  3
実線
 72
    65
 73
     0
 40
0.0
  0
LTYPE
  5
26
330
5
100
AcDbSymbolTableRecord
100
AcDbLinetypeTableRecord
  2
DASHED1
 70
     0
  3
--  --  --  --  --  --  --  --  
 72
    65
 73
     2
 40
2.5
 49
1.25
 74
     0
 49
-1.25
 74
     0
  0
LTYPE
  5
27
330
5
100
AcDbSymbolTableRecord
100
AcDbLinetypeTableRecord
  2
DASHED2
 70
     0
  3
----    ----    ----    ----    
 72
    65
 73
     2
 40
5.0
 49
2.5
 74
     0
 49
-2.5
 74
     0
  0
LTYPE
  5
28
330
5
100
AcDbSymbolTableRecord
100
AcDbLinetypeTableRecord
  2
DASHED3
 70
     0
  3
------  ------  ------  ------  
 72
    65
 73
     2
 40
5.0
 49
3.75
 74
     0
 49
-1.25
 74
     0
  0
LTYPE
  5
29
330
5
100
AcDbSymbolTableRecord
100
AcDbLinetypeTableRecord
  2
CENTER1
 70
     0
  3
----- - ----- - ----- - ----- - 
 72
    65
 73
     4
 40
10.0
 49
6.25
 74
     0
 49
-1.25
 74
     0
 49
1.25
 74
     0
 49
-1.25
 74
     0
  0
LTYPE
  5
2A
330
5
100
AcDbSymbolTableRecord
100
AcDbLinetypeTableRecord
  2
CENTER2
 70
     0
  3
----------  --  ----------  --  
 72
    65
 73
     4
 40
20.0
 49
12.5
 74
     0
 49
-2.5
 74
     0
 49
2.5
 74
     0
 49
-2.5
 74
     0
  0
LTYPE
  5
2B
330
5
100
AcDbSymbolTableRecord
100
AcDbLinetypeTableRecord
  2
PHANTOM1
 70
     0
  3
--- - - --- - - --- - - --- - - 
 72
    65
 73
     6
 40
10.0
 49
3.25
 74
     0
 49
-1.25
 74
     0
 49
1.25
 74
     0
 49
-1.25
 74
     0
 49
1.25
 74
     0
 49
-1.25
 74
     0
  0
LTYPE
  5
2C
330
5
100
AcDbSymbolTableRecord
100
AcDbLinetypeTableRecord
  2
PHANTOM2
 70
     0
  3
--------  -  -  --------  -  -  
 72
    65
 73
     6
 40
20.0
 49
10.0
 74
     0
 49
-2.5
 74
     0
 49
1.25
 74
     0
 49
-2.5
 74
     0
 49
1.25
 74
     0
 49
-2.5
 74
     0
  0
LTYPE
  5
2D
330
5
100
AcDbSymbolTableRecord
100
AcDbLinetypeTableRecord
  2
DOT
 70
     0
  3
-   -   -   -   -   -   -   -   
 72
    65
 73
     2
 40
2.5
 49
0.625
 74
     0
 49
-1.875
 74
     0
  0
LTYPE
  5
2E
330
5
100
AcDbSymbolTableRecord
100
AcDbLinetypeTableRecord
  2
DUMMY
 70
     0
  3
ダミー
 72
    65
 73
     0
 40
0.0
  0
LTYPE
  5
2F
330
5
100
AcDbSymbolTableRecord
100
AcDbLinetypeTableRecord
  2
RAND1
 70
     0
  3
ランダム線1
 72
    65
 73
     4
 40
10.0
 49
1.0
 74
     0
 49
-2.0
 74
     0
 49
3.0
 74
     0
 49
-4.0
 74
     0
  0
LTYPE
  5
30
330
5
100
AcDbSymbolTableRecord
100
AcDbLinetypeTableRecord
  2
RAND2
 70
     0
  3
ランダム線2
 72
    65
 73
     4
 40
14.0
 49
2.0
 74
     0
 49
-3.0
 74
     0
 49
4.0
 74
     0
 49
-5.0
 74
     0
  0
LTYPE
  5
31
330
5
100
AcDbSymbolTableRecord
100
AcDbLinetypeTableRecord
  2
RAND3
 70
     0
  3
ランダム線3
 72
    65
 73
     4
 40
18.0
 49
3.0
 74
     0
 49
-4.0
 74
     0
 49
5.0
 74
     0
 49
-6.0
 74
     0
  0
LTYPE
  5
32
330
5
100
AcDbSymbolTableRecord
100
AcDbLinetypeTableRecord
  2
RAND4
 70
     0
  3
ランダム線4
 72
    65
 73
     4
 40
22.0
 49
4.0
 74
     0
 49
-5.0
 74
     0
 49
6.0
 74
     0
 49
-7.0
 74
     0
  0
LTYPE
  5
33
330
5
100
AcDbSymbolTableRecord
100
AcDbLinetypeTableRecord
  2
RAND5
 70
     0
  3
ランダム線5
 72
    65
 73
     4
 40
26.0
 49
5.0
 74
     0
 49
-6.0
 74
     0
 49
7.0
 74
     0
 49
-8.0
 74
     0
  0
LTYPE
  5
34
330
5
100
AcDbSymbolTableRecord
100
AcDbLinetypeTableRecord
  2
LONG1
 70
     0
  3
----------  --  ----------  --  
 72
    65
 73
     4
 40
40.0
 49
32.5
 74
     0
 49
-2.5
 74
     0
 49
2.5
 74
     0
 49
-2.5
 74
     0
  0
LTYPE
  5
35
330
5
100
AcDbSymbolTableRecord
100
AcDbLinetypeTableRecord
  2
LONG2
 70
     0
  3
--------  -  -  --------  -  -  
 72
    65
 73
     6
 40
40.0
 49
30.0
 74
     0
 49
-2.5
 74
     0
 49
1.25
 74
     0
 49
-2.5
 74
     0
 49
1.25
 74
     0
 49
-2.5
 74
     0
  0
LTYPE
  5
36
330
5
100
AcDbSymbolTableRecord
100
AcDbLinetypeTableRecord
  2
LONG3
 70
     0
  3
+++++++++++++++..+++++++++++++++
 72
    65
 73
     2
 40
40.0
 49
37.5
 74
     0
 49
-2.5
 74
     0
  0
LTYPE
  5
37
330
5
100
AcDbSymbolTableRecord
100
AcDbLinetypeTableRecord
  2
LONG4
 70
     0
  3
+++++++++++++++..+++++++++++++++
 72
    65
 73
     2
 40
80.0
 49
75.0
 74
     0
 49
-5.0
 74
     0
  0
LTYPE
  5
38
330
5
100
AcDbSymbolTableRecord
100
AcDbLinetypeTableRecord
  2
LONG5
 70
     0
  3
----------  --  ----------  --  
 72
    65
 73
     4
 40
60.0
 49
37.5
 74
     0
 49
-7.5
 74
     0
 49
7.5
 74
     0
 49
-7.5
 74
     0
  0
LTYPE
  5
39
330
5
100
AcDbSymbolTableRecord
100
AcDbLinetypeTableRecord
  2
DASHED
 70
     0
  3
-------   -------------   ------
 72
    65
 73
     2
 40
7.5
 49
6.0
 74
     0
 49
-1.5
 74
     0
  0
LTYPE
  5
3A
330
5
100
AcDbSymbolTableRecord
100
AcDbLinetypeTableRecord
  2
DASHED_SPACED
 70
     0
  3
----        --------        ----
 72
    65
 73
     2
 40
12.0
 49
6.0
 74
     0
 49
-6.0
 74
     0
  0
LTYPE
  5
3B
330
5
100
AcDbSymbolTableRecord
100
AcDbLinetypeTableRecord
  2
LONG_DASHED_DOTTED
 70
     0
  3
------------- --- --------------
 72
    65
 73
     4
 40
15.25
 49
12.0
 74
     0
 49
-1.5
 74
     0
 49
0.25
 74
     0
 49
-1.5
 74
     0
  0
LTYPE
  5
3C
330
5
100
AcDbSymbolTableRecord
100
AcDbLinetypeTableRecord
  2
LONG_DASHED_DOUBLE-DOTTED
 70
     0
  3
----------- --- --- ------------
 72
    65
 73
     6
 40
17.0
 49
12.0
 74
     0
 49
-1.5
 74
     0
 49
0.25
 74
     0
 49
-1.5
 74
     0
 49
0.25
 74
     0
 49
-1.5
 74
     0
  0
LTYPE
  5
3D
330
5
100
AcDbSymbolTableRecord
100
AcDbLinetypeTableRecord
  2
LONG_DASHED_TRIPLICATE-DOTTED
 70
     0
  3
--------- --- --- --- ----------
 72
    65
 73
     8
 40
18.75
 49
12.0
 74
     0
 49
-1.5
 74
     0
 49
0.25
 74
     0
 49
-1.5
 74
     0
 49
0.25
 74
     0
 49
-1.5
 74
     0
 49
0.25
 74
     0
 49
-1.5
 74
     0
  0
LTYPE
  5
3E
330
5
100
AcDbSymbolTableRecord
100
AcDbLinetypeTableRecord
  2
DOTTED
 70
     0
  3
   -       -       -       -    
 72
    65
 73
     2
 40
1.75
 49
0.25
 74
     0
 49
-1.5
 74
     0
  0
LTYPE
  5
3F
330
5
100
AcDbSymbolTableRecord
100
AcDbLinetypeTableRecord
  2
CHAIN
 70
     0
  3
-------------- -- --------------
 72
    65
 73
     4
 40
18.5
 49
12.0
 74
     0
 49
-1.5
 74
     0
 49
3.5
 74
     0
 49
-1.5
 74
     0
  0
LTYPE
  5
40
330
5
100
AcDbSymbolTableRecord
100
AcDbLinetypeTableRecord
  2
CHAIN_DOUBLE_DASH
 70
     0
  3
------------ -- -- -------------
 72
    65
 73
     6
 40
23.5
 49
12.0
 74
     0
 49
-1.5
 74
     0
 49
3.5
 74
     0
 49
-1.5
 74
     0
 49
3.5
 74
     0
 49
-1.5
 74
     0
  0
LTYPE
  5
41
330
5
100
AcDbSymbolTableRecord
100
AcDbLinetypeTableRecord
  2
DASHED_DOTTED
 70
     0
  3
-----------     -     ----------
 72
    65
 73
     4
 40
9.25
 49
6.0
 74
     0
 49
-1.5
 74
     0
 49
0.25
 74
     0
 49
-1.5
 74
     0
  0
LTYPE
  5
42
330
5
100
AcDbSymbolTableRecord
100
AcDbLinetypeTableRecord
  2
DOUBLE-DASHED_DOTTED
 70
     0
  3
------   -----------   -   -----
 72
    65
 73
     6
 40
16.75
 49
6.0
 74
     0
 49
-1.5
 74
     0
 49
6.0
 74
     0
 49
-1.5
 74
     0
 49
0.25
 74
     0
 49
-1.5
 74
     0
  0
LTYPE
  5
43
330
5
100
AcDbSymbolTableRecord
100
AcDbLinetypeTableRecord
  2
DASHED_DOUBLE-DOTTED
 70
     0
  3
---------    -    -    ---------
 72
    65
 73
     6
 40
11.0
 49
6.0
 74
     0
 49
-1.5
 74
     0
 49
0.25
 74
     0
 49
-1.5
 74
     0
 49
0.25
 74
     0
 49
-1.5
 74
     0
  0
LTYPE
  5
44
330
5
100
AcDbSymbolTableRecord
100
AcDbLinetypeTableRecord
  2
DOUBLE-DASHED_DOUBLE-DOTTED
 70
     0
  3
-----   ---------   -   -   ----
 72
    65
 73
     8
 40
18.5
 49
6.0
 74
     0
 49
-1.5
 74
     0
 49
6.0
 74
     0
 49
-1.5
 74
     0
 49
0.25
 74
     0
 49
-1.5
 74
     0
 49
0.25
 74
     0
 49
-1.5
 74
     0
  0
LTYPE
  5
45
330
5
100
AcDbSymbolTableRecord
100
AcDbLinetypeTableRecord
  2
DASHED_TRIPLICATE-DOTTED
 70
     0
  3
-------    -    -    -    ------
 72
    65
 73
     8
 40
12.75
 49
6.0
 74
     0
 49
-1.5
 74
     0
 49
0.25
 74
     0
 49
-1.5
 74
     0
 49
0.25
 74
     0
 49
-1.5
 74
     0
 49
0.25
 74
     0
 49
-1.5
 74
     0
  0
LTYPE
  5
46
330
5
100
AcDbSymbolTableRecord
100
AcDbLinetypeTableRecord
  2
DOUBLE-DASHED_TRIPLICATE-DOTTED
 70
     0
  3
-----  ---------  -  -  -  -----
 72
    65
 73
    10
 40
20.25
 49
6.0
 74
     0
 49
-1.5
 74
     0
 49
6.0
 74
     0
 49
-1.5
 74
     0
 49
0.25
 74
     0
 49
-1.5
 74
     0
 49
0.25
 74
     0
 49
-1.5
 74
     0
 49
0.25
 74
     0
 49
-1.5
 74
     0
  0
LTYPE
  5
47
330
5
100
AcDbSymbolTableRecord
100
AcDbLinetypeTableRecord
  2
UNDEFINED
 70
     0
  3
--------------------------------
 72
    65
 73
     0
 40
0.0
  0
ENDTAB
  0
TABLE
  2
LAYER
  5
2
330
0
100
AcDbSymbolTable
 70
     9
  0
LAYER
  5
10
330
2
100
AcDbSymbolTableRecord
100
AcDbLayerTableRecord
  2
0
 70
     0
 62
     7
  6
CONTINUOUS
370
    -3
390
F
  0
LAYER
  5
49
330
2
100
AcDbSymbolTableRecord
100
AcDbLayerTableRecord
  2
_0-0_パイプ
 70
     0
 62
     7
  6
CONTINUOUS
370
    -3
390
F
  0
LAYER
  5
4A
330
2
100
AcDbSymbolTableRecord
100
AcDbLayerTableRecord
  2
_0-1_ＧＬ
 70
     0
 62
     7
  6
CONTINUOUS
370
    -3
390
F
  0
LAYER
  5
4B
330
2
100
AcDbSymbolTableRecord
100
AcDbLayerTableRecord
  2
_0-2_メッセン
 70
     0
 62
     7
  6
CONTINUOUS
370
    -3
390
F
  0
LAYER
  5
4C
330
2
100
AcDbSymbolTableRecord
100
AcDbLayerTableRecord
  2
_0-3_寸法
 70
     0
 62
     7
  6
CONTINUOUS
370
    -3
390
F
  0
LAYER
  5
4D
330
2
100
AcDbSymbolTableRecord
100
AcDbLayerTableRecord
  2
_0-4_ハッチ
 70
     0
 62
     7
  6
CONTINUOUS
370
    -3
390
F
  0
LAYER
  5
4E
330
2
100
AcDbSymbolTableRecord
100
AcDbLayerTableRecord
  2
_0-5_枠
 70
     0
 62
     7
  6
CONTINUOUS
370
    -3
390
F
  0
LAYER
  5
4F
330
2
100
AcDbSymbolTableRecord
100
AcDbLayerTableRecord
  2
_0-6_仕上
 70
     0
 62
     7
  6
CONTINUOUS
370
    -3
390
F
  0
LAYER
  5
50
330
2
100
AcDbSymbolTableRecord
100
AcDbLayerTableRecord
  2
ADD_LINE
 70
     0
 62
     7
  6
CONTINUOUS
370
    -3
390
F
  0
ENDTAB
  0
TABLE
  2
STYLE
  5
3
330
0
100
AcDbSymbolTable
 70
     2
  0
STYLE
  5
11
330
3
100
AcDbSymbolTableRecord
100
AcDbTextStyleTableRecord
  2
STANDARD
 70
     0
 40
0.0
 41
1.0
 50
0.0
 71
     0
 42
0.2
  3
MS Gothic.ttf
  4

1001
ACAD
1000
MS Gothic
1071
    32817
  0
STYLE
  5
48
330
3
100
AcDbSymbolTableRecord
100
AcDbTextStyleTableRecord
  2
TATEGAKI
 70
     4
 40
0.0
 41
1.0
 50
0.0
 71
     0
 42
1.0
  3
txt
  4
bigfont.shx
  0
ENDTAB
  0
TABLE
  2
VIEW
  5
6
330
0
100
AcDbSymbolTable
 70
     0
  0
ENDTAB
  0
TABLE
  2
UCS
  5
7
330
0
100
AcDbSymbolTable
 70
     0
  0
ENDTAB
  0
TABLE
  2
APPID
  5
9
330
0
100
AcDbSymbolTable
 70
     3
  0
APPID
  5
12
330
9
100
AcDbSymbolTableRecord
100
AcDbRegAppTableRecord
  2
ACAD
 70
     0
  0
APPID
  5
75A
330
9
100
AcDbSymbolTableRecord
100
AcDbRegAppTableRecord
  2
DCO15
 70
     0
  0
APPID
  5
75C
330
9
100
AcDbSymbolTableRecord
100
AcDbRegAppTableRecord
  2
ADE
 70
     0
  0
ENDTAB
  0
TABLE
  2
DIMSTYLE
  5
A
330
0
100
AcDbSymbolTable
 70
     1
100
AcDbDimStyleTable
 71
     0
  0
DIMSTYLE
105
46F
330
A
100
AcDbSymbolTableRecord
100
AcDbDimStyleTableRecord
  2
Standard
 70
     0
340
11
  0
ENDTAB
  0
TABLE
  2
BLOCK_RECORD
  5
1
330
0
100
AcDbSymbolTable
 70
     0
  0
BLOCK_RECORD
  5
22
330
1
100
AcDbSymbolTableRecord
100
AcDbBlockTableRecord
  2
*Model_Space
340
25
  0
BLOCK_RECORD
  5
1E
330
1
100
AcDbSymbolTableRecord
100
AcDbBlockTableRecord
  2
*Paper_Space
340
21
  0
ENDTAB
  0
ENDSEC
  0
SECTION
  2
BLOCKS
  0
BLOCK
  5
23
330
22
100
AcDbEntity
  8
0
100
AcDbBlockBegin
  2
*Model_Space
 70
     0
 10
0.0
 20
0.0
 30
0.0
  3
*Model_Space
  1

  0
ENDBLK
  5
24
330
22
100
AcDbEntity
  8
0
100
AcDbBlockEnd
  0
BLOCK
  5
1F
330
1E
100
AcDbEntity
 67
     1
  8
0
100
AcDbBlockBegin
  2
*Paper_Space
 70
     0
 10
0.0
 20
0.0
 30
0.0
  3
*Paper_Space
  1

  0
ENDBLK
  5
20
330
1E
100
AcDbEntity
 67
     1
  8
0
100
AcDbBlockEnd
  0
ENDSEC
  0
SECTION
  2
ENTITIES
  0
LINE
  5
54
330
22
100
AcDbEntity
  8
_0-0_パイプ
  6
Continuous
 62
     7
100
AcDbLine
 10
35805.18320444469
 20
12218.35673885439
 30
0.0
 11
36168.18732184333
 21
12218.35673885439
 31
0.0
  0
LINE
  5
55
330
22
100
AcDbEntity
  8
_0-0_パイプ
  6
Continuous
 62
     7
100
AcDbLine
 10
35761.68328362542
 20
14793.35842969318
 30
0.0
 11
35761.68328362542
 21
14843.35859465305
 31
0.0
  0
LINE
  5
56
330
22
100
AcDbEntity
  8
_0-0_パイプ
  6
Continuous
 62
     7
100
AcDbLine
 10
35822.31593776394
 20
14793.35842969318
 30
0.0
 11
35805.18320444469
 21
12218.35673885439
 31
0.0
  0
LINE
  5
57
330
22
100
AcDbEntity
  8
ADD_LINE
  6
DOT
 62
     7
100
AcDbLine
 10
35822.65245592274
 20
14843.35859465305
 30
0.0
 11
35822.65245592274
 21
14793.35842969318
 31
0.0
  0
LINE
  5
58
330
22
100
AcDbEntity
  8
ADD_LINE
  6
DOT
 62
     7
100
AcDbLine
 10
36150.71807036529
 20
14843.35859465305
 30
0.0
 11
36150.71807036529
 21
14793.35842969318
 31
0.0
  0
LINE
  5
59
330
22
100
AcDbEntity
  8
_0-0_パイプ
  6
Continuous
 62
     7
100
AcDbLine
 10
35736.68691274281
 20
15363.35833071725
 30
0.0
 11
35736.68691274281
 21
15463.35866063701
 31
0.0
  0
LINE
  5
5A
330
22
100
AcDbEntity
  8
_0-0_パイプ
  6
Continuous
 62
     7
100
AcDbLine
 10
36236.68856234164
 20
15363.35833071725
 30
0.0
 11
35736.68691274281
 21
15363.35833071725
 31
0.0
  0
LINE
  5
5B
330
22
100
AcDbEntity
  8
_0-0_パイプ
  6
Continuous
 62
     7
100
AcDbLine
 10
35736.68691274281
 20
15463.35866063701
 30
0.0
 11
36236.68856234164
 21
15463.35866063701
 31
0.0
  0
LINE
  5
5C
330
22
100
AcDbEntity
  8
_0-0_パイプ
  6
Continuous
 62
     7
100
AcDbLine
 10
36236.68856234164
 20
15463.35866063701
 30
0.0
 11
36236.68856234164
 21
15363.35833071725
 31
0.0
  0
LINE
  5
5D
330
22
100
AcDbEntity
  8
_0-0_パイプ
  6
Continuous
 62
     7
100
AcDbLine
 10
36146.56108134501
 20
15468.35694505424
 30
0.0
 11
36115.62120592274
 21
20118.35743993389
 31
0.0
  0
LINE
  5
5E
330
22
100
AcDbEntity
  8
_0-0_パイプ
  6
Continuous
 62
     7
100
AcDbLine
 10
36150.71807036529
 20
14843.35859465305
 30
0.0
 11
36146.00681614232
 21
15550.88802349596
 31
0.0
  0
LINE
  5
5F
330
22
100
AcDbEntity
  8
_0-0_パイプ
  6
Continuous
 62
     7
100
AcDbLine
 10
35892.35130516259
 20
25218.35818225335
 30
0.0
 11
35891.22297957136
 21
25048.35217771366
 31
0.0
  0
LINE
  5
60
330
22
100
AcDbEntity
  8
_0-0_パイプ
  6
Continuous
 62
     7
100
AcDbLine
 10
36082.1524955131
 20
25048.35217771366
 30
0.0
 11
36081.01922112543
 21
25218.35818225335
 31
0.0
  0
LINE
  5
61
330
22
100
AcDbEntity
  8
_0-0_パイプ
  6
Continuous
 62
     7
100
AcDbLine
 10
35892.35130516259
 20
25218.35818225335
 30
0.0
 11
36081.01922112543
 21
25218.35818225335
 31
0.0
  0
LINE
  5
62
330
22
100
AcDbEntity
  8
_0-0_パイプ
  6
Continuous
 62
     7
100
AcDbLine
 10
35890.55984084671
 20
25048.35712651012
 30
0.0
 11
35857.74932036529
 21
20118.35743993389
 31
0.0
  0
LINE
  5
63
330
22
100
AcDbEntity
  8
_0-0_パイプ
  6
Continuous
 62
     7
100
AcDbLine
 10
35834.49987463049
 20
24968.35983185218
 30
0.0
 11
36134.49591559333
 21
24968.35983185218
 31
0.0
  0
LINE
  5
64
330
22
100
AcDbEntity
  8
_0-0_パイプ
  6
Continuous
 62
     7
100
AcDbLine
 10
36009.47941960516
 20
24918.36214129051
 30
0.0
 11
36134.49591559333
 21
24918.36214129051
 31
0.0
  0
LINE
  5
65
330
22
100
AcDbEntity
  8
_0-0_パイプ
  6
Continuous
 62
     7
100
AcDbLine
 10
36134.49591559333
 20
24968.35983185218
 30
0.0
 11
36134.49591559333
 21
24918.36214129051
 31
0.0
  0
LINE
  5
66
330
22
100
AcDbEntity
  8
_0-0_パイプ
  6
Continuous
 62
     7
100
AcDbLine
 10
35786.68460330449
 20
20148.3595184284
 30
0.0
 11
35786.68460330449
 21
20248.35984834816
 31
0.0
  0
LINE
  5
67
330
22
100
AcDbEntity
  8
_0-0_パイプ
  6
Continuous
 62
     7
100
AcDbLine
 10
35786.68460330449
 20
20248.35984834816
 30
0.0
 11
36186.68592298353
 21
20248.35984834816
 31
0.0
  0
LINE
  5
68
330
22
100
AcDbEntity
  8
_0-0_パイプ
  6
Continuous
 62
     7
100
AcDbLine
 10
36186.68592298353
 20
20248.35984834816
 30
0.0
 11
36186.68592298353
 21
20148.3595184284
 31
0.0
  0
LINE
  5
69
330
22
100
AcDbEntity
  8
_0-0_パイプ
  6
Continuous
 62
     7
100
AcDbLine
 10
36186.68592298353
 20
20148.3595184284
 30
0.0
 11
35786.68460330449
 21
20148.3595184284
 31
0.0
  0
LINE
  5
6A
330
22
100
AcDbEntity
  8
_0-0_パイプ
  6
Continuous
 62
     7
100
AcDbLine
 10
36115.62120592274
 20
20118.35743993389
 30
0.0
 11
36082.82058303421
 21
25048.35712651012
 31
0.0
  0
LINE
  5
6B
330
22
100
AcDbEntity
  8
_0-0_パイプ
  6
Continuous
 62
     7
100
AcDbLine
 10
35834.49987463049
 20
24918.36214129051
 30
0.0
 11
35834.49987463049
 21
24968.35983185218
 31
0.0
  0
LINE
  5
6C
330
22
100
AcDbEntity
  8
_0-0_パイプ
  6
Continuous
 62
     7
100
AcDbLine
 10
35834.49987463049
 20
24918.36214129051
 30
0.0
 11
36007.58897936024
 21
24918.36214129051
 31
0.0
  0
LINE
  5
6D
330
22
100
AcDbEntity
  8
_0-4_ハッチ
  6
DASHED1
 62
     5
100
AcDbLine
 10
35736.68691274281
 20
15463.35866063701
 30
0.0
 11
35786.68460330449
 21
20148.3595184284
 31
0.0
  0
LINE
  5
6E
330
22
100
AcDbEntity
  8
_0-4_ハッチ
  6
DASHED1
 62
     5
100
AcDbLine
 10
35786.68460330449
 20
20248.35984834816
 30
0.0
 11
35834.49987463049
 21
24918.36214129051
 31
0.0
  0
LINE
  5
6F
330
22
100
AcDbEntity
  8
_0-1_ＧＬ
  6
Continuous
 62
     3
100
AcDbLine
 10
33986.49061048353
 20
15218.35859465305
 30
0.0
 11
35825.14664933489
 21
15218.35859465305
 31
0.0
  0
LINE
  5
70
330
22
100
AcDbEntity
  8
_0-1_ＧＬ
  6
Continuous
 62
     3
100
AcDbLine
 10
36148.22387695313
 20
15218.35859465305
 30
0.0
 11
37986.48401208826
 21
15218.35859465305
 31
0.0
  0
LINE
  5
71
330
22
100
AcDbEntity
  8
_0-0_パイプ
  6
Continuous
 62
     7
100
AcDbLine
 10
35857.74932036529
 20
20118.35743993389
 30
0.0
 11
35822.65245592274
 21
14843.35859465305
 31
0.0
  0
LINE
  5
72
330
22
100
AcDbEntity
  8
_0-0_パイプ
  6
Continuous
 62
     7
100
AcDbLine
 10
35761.68328362542
 20
14843.35859465305
 30
0.0
 11
36150.71807036529
 21
14843.35859465305
 31
0.0
  0
LINE
  5
73
330
22
100
AcDbEntity
  8
_0-0_パイプ
  6
Continuous
 62
     7
100
AcDbLine
 10
36151.05458852406
 20
14793.35842969318
 30
0.0
 11
35761.68328362542
 21
14793.35842969318
 31
0.0
  0
LINE
  5
74
330
22
100
AcDbEntity
  8
_0-0_パイプ
  6
Continuous
 62
     7
100
AcDbLine
 10
36168.18732184333
 20
12218.35673885439
 30
0.0
 11
36150.71807036529
 21
14843.35859465305
 31
0.0
  0
LINE
  5
75
330
22
100
AcDbEntity
  8
_0-0_パイプ
  6
Continuous
 62
     7
100
AcDbLine
 10
36200.22583007813
 20
14918.35760489377
 30
0.0
 11
36201.22053816511
 21
14768.35711001412
 31
0.0
  0
LINE
  5
76
330
22
100
AcDbEntity
  8
_0-0_パイプ
  6
Continuous
 62
     7
100
AcDbLine
 10
36201.22053816511
 20
14768.35711001412
 30
0.0
 11
36351.22350744299
 21
14768.35711001412
 31
0.0
  0
LINE
  5
77
330
22
100
AcDbEntity
  8
_0-0_パイプ
  6
Continuous
 62
     7
100
AcDbLine
 10
36351.56002560178
 20
14718.35694505424
 30
0.0
 11
36351.22350744299
 21
14768.35711001412
 31
0.0
  0
LINE
  5
78
330
22
100
AcDbEntity
  8
_0-0_パイプ
  6
Continuous
 62
     7
100
AcDbLine
 10
36151.54946816935
 20
14718.35694505424
 30
0.0
 11
36351.56002560178
 21
14718.35694505424
 31
0.0
  0
LINE
  5
79
330
22
100
AcDbEntity
  8
_0-0_パイプ
  6
Continuous
 62
     7
100
AcDbLine
 10
36150.22319072001
 20
14918.35760489377
 30
0.0
 11
36200.22583007813
 21
14918.35760489377
 31
0.0
  0
LINE
  5
7A
330
22
100
AcDbEntity
  8
_0-1_ＧＬ
  6
Continuous
 62
     3
100
AcDbLine
 10
35186.48962072424
 20
15218.35859465305
 30
0.0
 11
35586.49094040329
 21
14818.357274974
 31
0.0
  0
LINE
  5
7B
330
22
100
AcDbEntity
  8
_0-1_ＧＬ
  6
Continuous
 62
     3
100
AcDbLine
 10
35186.48962072424
 20
15218.35859465305
 30
0.0
 11
34786.49324984164
 21
14818.357274974
 31
0.0
  0
LINE
  5
7C
330
22
100
AcDbEntity
  8
_0-1_ＧＬ
  6
Continuous
 62
     3
100
AcDbLine
 10
34786.49324984164
 20
14818.357274974
 30
0.0
 11
34386.49193016259
 21
15218.35859465305
 31
0.0
  0
LINE
  5
7D
330
22
100
AcDbEntity
  8
_0-1_ＧＬ
  6
Continuous
 62
     3
100
AcDbLine
 10
34471.10150311444
 20
15125.85074256269
 30
0.0
 11
34163.60803552576
 21
14818.357274974
 31
0.0
  0
LINE
  5
7E
330
22
100
AcDbEntity
  8
_0-1_ＧＬ
  6
Continuous
 62
     3
100
AcDbLine
 10
34574.71445444469
 20
15025.94196537729
 30
0.0
 11
34367.12728964316
 21
14818.357274974
 31
0.0
  0
LINE
  5
7F
330
22
100
AcDbEntity
  8
_0-1_ＧＬ
  6
Continuous
 62
     3
100
AcDbLine
 10
34678.32245697846
 20
14926.03318819191
 30
0.0
 11
34570.64654376056
 21
14818.357274974
 31
0.0
  0
LINE
  5
80
330
22
100
AcDbEntity
  8
_0-1_ＧＬ
  6
Continuous
 62
     3
100
AcDbLine
 10
35286.48995064401
 20
15118.35826473329
 30
0.0
 11
34986.49390968116
 21
14818.357274974
 31
0.0
  0
LINE
  5
81
330
22
100
AcDbEntity
  8
_0-1_ＧＬ
  6
Continuous
 62
     3
100
AcDbLine
 10
35386.49028056377
 20
15018.35793481353
 30
0.0
 11
35186.48962072424
 21
14818.357274974
 31
0.0
  0
LINE
  5
82
330
22
100
AcDbEntity
  8
_0-1_ＧＬ
  6
Continuous
 62
     3
100
AcDbLine
 10
35486.49061048353
 20
14918.35760489377
 30
0.0
 11
35386.48533176732
 21
14818.357274974
 31
0.0
  0
LINE
  5
83
330
22
100
AcDbEntity
  8
_0-1_ＧＬ
  6
Continuous
 62
     3
100
AcDbLine
 10
35086.48929080449
 20
15118.35826473329
 30
0.0
 11
34986.49390968116
 21
15218.35859465305
 31
0.0
  0
LINE
  5
84
330
22
100
AcDbEntity
  8
_0-1_ＧＬ
  6
Continuous
 62
     3
100
AcDbLine
 10
34986.49390968116
 20
15018.35793481353
 30
0.0
 11
34786.49324984164
 21
15218.35859465305
 31
0.0
  0
LINE
  5
85
330
22
100
AcDbEntity
  8
_0-1_ＧＬ
  6
Continuous
 62
     3
100
AcDbLine
 10
34886.48863096495
 20
14918.35760489377
 30
0.0
 11
34586.49259000211
 21
15218.35859465305
 31
0.0
  0
LINE
  5
86
330
22
100
AcDbEntity
  8
_0-1_ＧＬ
  6
Continuous
 62
     3
100
AcDbLine
 10
34386.49193016259
 20
15218.35859465305
 30
0.0
 11
34086.48599160684
 21
14918.35760489377
 31
0.0
  0
LINE
  5
87
330
22
100
AcDbEntity
  8
_0-1_ＧＬ
  6
Continuous
 62
     3
100
AcDbLine
 10
34186.49127032306
 20
15018.35793481353
 30
0.0
 11
33986.49061048353
 21
15218.35859465305
 31
0.0
  0
LINE
  5
88
330
22
100
AcDbEntity
  8
_0-1_ＧＬ
  6
Continuous
 62
     3
100
AcDbLine
 10
34286.48665144637
 20
15118.35826473329
 30
0.0
 11
34186.49127032306
 21
15218.35859465305
 31
0.0
  0
LINE
  5
89
330
22
100
AcDbEntity
  8
_0-6_仕上
  6
Continuous
 62
     4
100
AcDbLine
 10
36236.68856234164
 20
15463.35866063701
 30
0.0
 11
36236.68856234164
 21
15563.35899055676
 31
0.0
  0
LINE
  5
8A
330
22
100
AcDbEntity
  8
_0-6_仕上
  6
Continuous
 62
     4
100
AcDbLine
 10
36636.68988202069
 20
16156.17779202426
 30
0.0
 11
37636.69318121833
 21
16156.17779202426
 31
0.0
  0
LINE
  5
8B
330
22
100
AcDbEntity
  8
_0-6_仕上
  6
Continuous
 62
     4
100
AcDbLine
 10
36236.68856234164
 20
15463.35866063701
 30
0.0
 11
36636.68988202069
 21
16156.17779202426
 31
0.0
  0
LINE
  5
8C
330
22
100
AcDbEntity
  8
_0-6_仕上
  6
Continuous
 62
     4
100
AcDbLine
 10
36186.68592298353
 20
20248.35984834816
 30
0.0
 11
36186.68592298353
 21
20348.36017826793
 31
0.0
  0
LINE
  5
8D
330
22
100
AcDbEntity
  8
_0-6_仕上
  6
Continuous
 62
     4
100
AcDbLine
 10
36586.68724266258
 20
20941.18145413363
 30
0.0
 11
37586.68559306377
 21
20941.18145413363
 31
0.0
  0
LINE
  5
8E
330
22
100
AcDbEntity
  8
_0-6_仕上
  6
Continuous
 62
     4
100
AcDbLine
 10
36186.68592298353
 20
20248.35984834816
 30
0.0
 11
36586.68724266258
 21
20941.18145413363
 31
0.0
  0
LINE
  5
8F
330
22
100
AcDbEntity
  8
_0-6_仕上
  6
Continuous
 62
     4
100
AcDbLine
 10
36134.49591559333
 20
24968.35983185218
 30
0.0
 11
36134.49591559333
 21
25068.36016177193
 31
0.0
  0
LINE
  5
90
330
22
100
AcDbEntity
  8
_0-6_仕上
  6
Continuous
 62
     4
100
AcDbLine
 10
36534.4972352724
 20
25661.17648884119
 30
0.0
 11
37534.50053447001
 21
25661.17648884119
 31
0.0
  0
LINE
  5
91
330
22
100
AcDbEntity
  8
_0-6_仕上
  6
Continuous
 62
     4
100
AcDbLine
 10
36134.49591559333
 20
24968.35983185218
 30
0.0
 11
36534.4972352724
 21
25661.17648884119
 31
0.0
  0
LINE
  5
92
330
22
100
AcDbEntity
  8
_0-0_パイプ
  6
CENTER1
 62
     4
100
AcDbLine
 10
35986.4873112859
 20
25318.35851217312
 30
0.0
 11
35986.4873112859
 21
10339.56410497294
 31
0.0
  0
TEXT
  5
93
330
22
100
AcDbEntity
  8
_0-6_仕上
 62
     7
100
AcDbText
 10
36712.37199113176
 20
16222.00420803988
 30
0.0
 40
300.0
  1
ﾊﾞﾝﾄﾞ
100
AcDbText
  0
TEXT
  5
94
330
22
100
AcDbEntity
  8
_0-6_仕上
 62
     7
100
AcDbText
 10
36662.3644029772
 20
21007.00787014926
 30
0.0
 40
300.0
  1
ﾊﾞﾝﾄﾞ
100
AcDbText
  0
TEXT
  5
95
330
22
100
AcDbEntity
  8
_0-6_仕上
 62
     7
100
AcDbText
 10
36610.17934438345
 20
25727.00537925505
 30
0.0
 40
300.0
  1
ﾊﾞﾝﾄﾞ
100
AcDbText
  0
LINE
  5
96
330
22
100
AcDbEntity
  8
_0-5_枠
  6
Continuous
 62
     2
100
AcDbLine
 10
36486.48401208826
 20
28756.75593195735
 30
0.0
 11
36486.48401208826
 21
29756.75675675677
 31
0.0
  0
LINE
  5
97
330
22
100
AcDbEntity
  8
_0-5_枠
  6
Continuous
 62
     2
100
AcDbLine
 10
36486.48401208826
 20
28756.75593195735
 30
0.0
 11
38986.48483688767
 21
28756.75593195735
 31
0.0
  0
LINE
  5
98
330
22
100
AcDbEntity
  8
_0-5_枠
  6
Continuous
 62
     2
100
AcDbLine
 10
1986.483702788481
 20
29756.75675675677
 30
0.0
 11
38986.48483688767
 21
29756.75675675677
 31
0.0
  0
LINE
  5
99
330
22
100
AcDbEntity
  8
_0-5_枠
  6
Continuous
 62
     2
100
AcDbLine
 10
1986.483702788481
 20
4756.755313357791
 30
0.0
 11
1986.483702788481
 21
29756.75675675677
 31
0.0
  0
LINE
  5
9A
330
22
100
AcDbEntity
  8
_0-5_枠
  6
Continuous
 62
     2
100
AcDbLine
 10
38986.48483688767
 20
4756.755313357791
 30
0.0
 11
1986.483702788481
 21
4756.755313357791
 31
0.0
  0
LINE
  5
9B
330
22
100
AcDbEntity
  8
_0-5_枠
  6
Continuous
 62
     2
100
AcDbLine
 10
38986.48483688767
 20
29756.75675675677
 30
0.0
 11
38986.48483688767
 21
4756.755313357791
 31
0.0
  0
TEXT
  5
9C
330
22
100
AcDbEntity
  8
_0-5_枠
 62
     7
100
AcDbText
 10
37031.56144425676
 20
29023.61730627112
 30
0.0
 40
400.0
  1
１０Ｍ
100
AcDbText
  0
LINE
  5
9D
330
22
100
AcDbEntity
  8
_0-0_パイプ
  6
Continuous
 62
     7
100
AcDbLine
 10
7105.151411853
 20
12218.35673885439
 30
0.0
 11
7468.153054853424
 21
12218.35673885439
 31
0.0
  0
LINE
  5
9E
330
22
100
AcDbEntity
  8
_0-0_パイプ
  6
Continuous
 62
     7
100
AcDbLine
 10
7061.65149103374
 20
14793.35842969318
 30
0.0
 11
7061.65149103374
 21
14843.35859465305
 31
0.0
  0
LINE
  5
9F
330
22
100
AcDbEntity
  8
_0-0_パイプ
  6
Continuous
 62
     7
100
AcDbLine
 10
7061.65149103374
 20
14843.35859465305
 30
0.0
 11
7511.650501274451
 21
14843.35859465305
 31
0.0
  0
LINE
  5
A0
330
22
100
AcDbEntity
  8
_0-0_パイプ
  6
Continuous
 62
     7
100
AcDbLine
 10
7511.650501274451
 20
14843.35859465305
 30
0.0
 11
7511.650501274451
 21
14793.35842969318
 31
0.0
  0
LINE
  5
A1
330
22
100
AcDbEntity
  8
_0-0_パイプ
  6
Continuous
 62
     7
100
AcDbLine
 10
7511.650501274451
 20
14793.35842969318
 30
0.0
 11
7061.65149103374
 21
14793.35842969318
 31
0.0
  0
LINE
  5
A2
330
22
100
AcDbEntity
  8
_0-0_パイプ
  6
Continuous
 62
     7
100
AcDbLine
 10
7122.286619570478
 20
14793.35842969318
 30
0.0
 11
7105.151411853
 21
12218.35673885439
 31
0.0
  0
LINE
  5
A3
330
22
100
AcDbEntity
  8
_0-0_パイプ
  6
Continuous
 62
     7
100
AcDbLine
 10
7468.153054853424
 20
12218.35673885439
 30
0.0
 11
7451.017847135938
 21
14793.35842969318
 31
0.0
  0
LINE
  5
A4
330
22
100
AcDbEntity
  8
_0-0_パイプ
  6
Continuous
 62
     7
100
AcDbLine
 10
7125.280641424365
 20
15243.35743993388
 30
0.0
 11
7122.618188932813
 21
14843.35859465305
 31
0.0
  0
LINE
  5
A5
330
22
100
AcDbEntity
  8
_0-0_パイプ
  6
Continuous
 62
     7
100
AcDbLine
 10
7136.452549416346
 20
24918.36214129051
 30
0.0
 11
7136.452549416346
 21
25018.35752241383
 31
0.0
  0
LINE
  5
A6
330
22
100
AcDbEntity
  8
_0-0_パイプ
  6
Continuous
 62
     7
100
AcDbLine
 10
7136.452549416346
 20
25018.35752241383
 30
0.0
 11
7436.453539175635
 21
25018.35752241383
 31
0.0
  0
LINE
  5
A7
330
22
100
AcDbEntity
  8
_0-0_パイプ
  6
Continuous
 62
     7
100
AcDbLine
 10
6622.45322905106
 20
14918.35760489377
 30
0.0
 11
7122.452404251646
 21
14918.35760489377
 31
0.0
  0
LINE
  5
A8
330
22
100
AcDbEntity
  8
_0-0_パイプ
  6
Continuous
 62
     7
100
AcDbLine
 10
7121.786791128755
 20
14718.35694505424
 30
0.0
 11
6622.45322905106
 21
14718.35694505424
 31
0.0
  0
LINE
  5
A9
330
22
100
AcDbEntity
  8
_0-0_パイプ
  6
Continuous
 62
     7
100
AcDbLine
 10
6622.45322905106
 20
14718.35694505424
 30
0.0
 11
6622.45322905106
 21
14918.35760489377
 31
0.0
  0
LINE
  5
AA
330
22
100
AcDbEntity
  8
_0-0_パイプ
  6
Continuous
 62
     7
100
AcDbLine
 10
7450.186449331886
 20
14918.35760489377
 30
0.0
 11
7950.851237655365
 21
14918.35760489377
 31
0.0
  0
LINE
  5
AB
330
22
100
AcDbEntity
  8
_0-0_パイプ
  6
Continuous
 62
     7
100
AcDbLine
 10
7950.851237655365
 20
14918.35760489377
 30
0.0
 11
7950.851237655365
 21
14718.35694505424
 31
0.0
  0
LINE
  5
AC
330
22
100
AcDbEntity
  8
_0-0_パイプ
  6
Continuous
 62
     7
100
AcDbLine
 10
7950.851237655365
 20
14718.35694505424
 30
0.0
 11
7451.517675577662
 21
14718.35694505424
 31
0.0
  0
LINE
  5
AD
330
22
100
AcDbEntity
  8
_0-1_ＧＬ
  6
Continuous
 62
     3
100
AcDbLine
 10
5725.112712264741
 20
15218.35859465305
 30
0.0
 11
6125.114031943793
 21
14818.357274974
 31
0.0
  0
LINE
  5
AE
330
22
100
AcDbEntity
  8
_0-1_ＧＬ
  6
Continuous
 62
     3
100
AcDbLine
 10
5725.112712264741
 20
15218.35859465305
 30
0.0
 11
5325.113866983912
 21
14818.357274974
 31
0.0
  0
LINE
  5
AF
330
22
100
AcDbEntity
  8
_0-1_ＧＬ
  6
Continuous
 62
     3
100
AcDbLine
 10
5325.113866983912
 20
14818.357274974
 30
0.0
 11
4925.112547304856
 21
15218.35859465305
 31
0.0
  0
LINE
  5
B0
330
22
100
AcDbEntity
  8
_0-1_ＧＬ
  6
Continuous
 62
     3
100
AcDbLine
 10
5009.724594654944
 20
15125.85074256269
 30
0.0
 11
4702.231127066261
 21
14818.357274974
 31
0.0
  0
LINE
  5
B1
330
22
100
AcDbEntity
  8
_0-1_ＧＬ
  6
Continuous
 62
     3
100
AcDbLine
 10
5113.335071586954
 20
15025.94196537729
 30
0.0
 11
4905.750381183657
 21
14818.357274974
 31
0.0
  0
LINE
  5
B2
330
22
100
AcDbEntity
  8
_0-1_ＧＬ
  6
Continuous
 62
     3
100
AcDbLine
 10
5216.943074120734
 20
14926.03318819191
 30
0.0
 11
5109.269635301058
 21
14818.357274974
 31
0.0
  0
LINE
  5
B3
330
22
100
AcDbEntity
  8
_0-1_ＧＬ
  6
Continuous
 62
     3
100
AcDbLine
 10
5825.113042184501
 20
15118.35826473329
 30
0.0
 11
5525.114526823438
 21
14818.357274974
 31
0.0
  0
LINE
  5
B4
330
22
100
AcDbEntity
  8
_0-1_ＧＬ
  6
Continuous
 62
     3
100
AcDbLine
 10
5925.113372104267
 20
15018.35793481353
 30
0.0
 11
5725.112712264741
 21
14818.357274974
 31
0.0
  0
LINE
  5
B5
330
22
100
AcDbEntity
  8
_0-1_ＧＬ
  6
Continuous
 62
     3
100
AcDbLine
 10
6025.111227625802
 20
14918.35760489377
 30
0.0
 11
5925.110897706037
 21
14818.357274974
 31
0.0
  0
LINE
  5
B6
330
22
100
AcDbEntity
  8
_0-1_ＧＬ
  6
Continuous
 62
     3
100
AcDbLine
 10
5625.112382344974
 20
15118.35826473329
 30
0.0
 11
5525.114526823438
 21
15218.35859465305
 31
0.0
  0
LINE
  5
B7
330
22
100
AcDbEntity
  8
_0-1_ＧＬ
  6
Continuous
 62
     3
100
AcDbLine
 10
5525.114526823438
 20
15018.35793481353
 30
0.0
 11
5325.113866983912
 21
15218.35859465305
 31
0.0
  0
LINE
  5
B8
330
22
100
AcDbEntity
  8
_0-1_ＧＬ
  6
Continuous
 62
     3
100
AcDbLine
 10
5425.114196903674
 20
14918.35760489377
 30
0.0
 11
5125.113207144386
 21
15218.35859465305
 31
0.0
  0
LINE
  5
B9
330
22
100
AcDbEntity
  8
_0-1_ＧＬ
  6
Continuous
 62
     3
100
AcDbLine
 10
4925.112547304856
 20
15218.35859465305
 30
0.0
 11
4625.111557545568
 21
14918.35760489377
 31
0.0
  0
LINE
  5
BA
330
22
100
AcDbEntity
  8
_0-1_ＧＬ
  6
Continuous
 62
     3
100
AcDbLine
 10
4725.111887465327
 20
15018.35793481353
 30
0.0
 11
4525.111227625802
 21
15218.35859465305
 31
0.0
  0
LINE
  5
BB
330
22
100
AcDbEntity
  8
_0-1_ＧＬ
  6
Continuous
 62
     3
100
AcDbLine
 10
4825.112217385095
 20
15118.35826473329
 30
0.0
 11
4725.111887465327
 21
15218.35859465305
 31
0.0
  0
LINE
  5
BC
330
22
100
AcDbEntity
  8
_0-0_パイプ
  6
Continuous
 62
     7
100
AcDbLine
 10
7136.452549416346
 20
24968.35983185218
 30
0.0
 11
7436.453539175635
 21
24968.35983185218
 31
0.0
  0
LINE
  5
BD
330
22
100
AcDbEntity
  8
_0-0_パイプ
  6
Continuous
 62
     7
100
AcDbLine
 10
7436.453539175635
 20
25018.35752241383
 30
0.0
 11
7436.453539175635
 21
24918.36214129051
 31
0.0
  0
LINE
  5
BE
330
22
100
AcDbEntity
  8
_0-0_パイプ
  6
Continuous
 62
     7
100
AcDbLine
 10
7261.434403829349
 20
24958.35831422126
 30
0.0
 11
7311.437043187459
 21
24958.35831422126
 31
0.0
  0
LINE
  5
BF
330
22
100
AcDbEntity
  8
_0-0_パイプ
  6
Continuous
 62
     7
100
AcDbLine
 10
7311.437043187459
 20
24858.3579843015
 30
0.0
 11
7261.434403829349
 21
24858.3579843015
 31
0.0
  0
LINE
  5
C0
330
22
100
AcDbEntity
  8
_0-0_パイプ
  6
Continuous
 62
     7
100
AcDbLine
 10
7136.452549416346
 20
24918.36214129051
 30
0.0
 11
7261.434403829349
 21
24918.36214129051
 31
0.0
  0
LINE
  5
C1
330
22
100
AcDbEntity
  8
_0-0_パイプ
  6
Continuous
 62
     7
100
AcDbLine
 10
7311.437043187459
 20
24918.36214129051
 30
0.0
 11
7436.453539175635
 21
24918.36214129051
 31
0.0
  0
LINE
  5
C2
330
22
100
AcDbEntity
  8
_0-0_パイプ
  6
Continuous
 62
     7
100
AcDbLine
 10
7086.652810712798
 20
20148.3595184284
 30
0.0
 11
7086.652810712798
 21
20248.35984834816
 31
0.0
  0
LINE
  5
C3
330
22
100
AcDbEntity
  8
_0-0_パイプ
  6
Continuous
 62
     7
100
AcDbLine
 10
7086.652810712798
 20
20248.35984834816
 30
0.0
 11
7486.651655993625
 21
20248.35984834816
 31
0.0
  0
LINE
  5
C4
330
22
100
AcDbEntity
  8
_0-0_パイプ
  6
Continuous
 62
     7
100
AcDbLine
 10
7486.651655993625
 20
20248.35984834816
 30
0.0
 11
7486.651655993625
 21
20148.3595184284
 31
0.0
  0
LINE
  5
C5
330
22
100
AcDbEntity
  8
_0-0_パイプ
  6
Continuous
 62
     7
100
AcDbLine
 10
7486.651655993625
 20
20148.3595184284
 30
0.0
 11
7086.652810712798
 21
20148.3595184284
 31
0.0
  0
LINE
  5
C6
330
22
100
AcDbEntity
  8
_0-0_パイプ
  6
Continuous
 62
     7
100
AcDbLine
 10
7249.151491033742
 20
20073.36050818769
 30
0.0
 11
7249.151491033742
 21
20223.36100306733
 31
0.0
  0
LINE
  5
C7
330
22
100
AcDbEntity
  8
_0-0_パイプ
  6
Continuous
 62
     7
100
AcDbLine
 10
7249.151491033742
 20
20223.36100306733
 30
0.0
 11
7324.152975672676
 21
20223.36100306733
 31
0.0
  0
LINE
  5
C8
330
22
100
AcDbEntity
  8
_0-0_パイプ
  6
Continuous
 62
     7
100
AcDbLine
 10
7324.152975672676
 20
20223.36100306733
 30
0.0
 11
7324.152975672676
 21
20073.36050818769
 31
0.0
  0
LINE
  5
C9
330
22
100
AcDbEntity
  8
_0-0_パイプ
  6
Continuous
 62
     7
100
AcDbLine
 10
7324.152975672676
 20
20073.36050818769
 30
0.0
 11
7249.151491033742
 21
20073.36050818769
 31
0.0
  0
LINE
  5
CA
330
22
100
AcDbEntity
  8
_0-0_パイプ
  6
Continuous
 62
     7
100
AcDbLine
 10
7324.152975672676
 20
20103.36011228397
 30
0.0
 11
7301.650798202242
 21
20103.36011228397
 31
0.0
  0
LINE
  5
CB
330
22
100
AcDbEntity
  8
_0-0_パイプ
  6
Continuous
 62
     7
100
AcDbLine
 10
7271.651194105955
 20
20103.36011228397
 30
0.0
 11
7249.151491033742
 21
20103.36011228397
 31
0.0
  0
LINE
  5
CC
330
22
100
AcDbEntity
  8
_0-0_パイプ
  6
Continuous
 62
     7
100
AcDbLine
 10
7249.151491033742
 20
15288.35684607831
 30
0.0
 11
7249.151491033742
 21
15438.35734095796
 31
0.0
  0
LINE
  5
CD
330
22
100
AcDbEntity
  8
_0-0_パイプ
  6
Continuous
 62
     7
100
AcDbLine
 10
7249.151491033742
 20
15438.35734095796
 30
0.0
 11
7324.152975672676
 21
15438.35734095796
 31
0.0
  0
LINE
  5
CE
330
22
100
AcDbEntity
  8
_0-0_パイプ
  6
Continuous
 62
     7
100
AcDbLine
 10
7324.152975672676
 20
15438.35734095796
 30
0.0
 11
7324.152975672676
 21
15288.35684607831
 31
0.0
  0
LINE
  5
CF
330
22
100
AcDbEntity
  8
_0-0_パイプ
  6
Continuous
 62
     7
100
AcDbLine
 10
7324.152975672676
 20
15288.35684607831
 30
0.0
 11
7249.151491033742
 21
15288.35684607831
 31
0.0
  0
LINE
  5
D0
330
22
100
AcDbEntity
  8
_0-0_パイプ
  6
Continuous
 62
     7
100
AcDbLine
 10
7324.152975672676
 20
15318.35645017459
 30
0.0
 11
7301.653272600464
 21
15318.35645017459
 31
0.0
  0
LINE
  5
D1
330
22
100
AcDbEntity
  8
_0-0_パイプ
  6
Continuous
 62
     7
100
AcDbLine
 10
7271.653668504185
 20
15318.35645017459
 30
0.0
 11
7249.151491033742
 21
15318.35645017459
 31
0.0
  0
LINE
  5
D2
330
22
100
AcDbEntity
  8
_0-0_パイプ
  6
Continuous
 62
     7
100
AcDbLine
 10
7036.652645752913
 20
15363.35833071725
 30
0.0
 11
7036.652645752913
 21
15463.35866063701
 31
0.0
  0
LINE
  5
D3
330
22
100
AcDbEntity
  8
_0-0_パイプ
  6
Continuous
 62
     7
100
AcDbLine
 10
7536.651820953506
 20
15363.35833071725
 30
0.0
 11
7036.652645752913
 21
15363.35833071725
 31
0.0
  0
LINE
  5
D4
330
22
100
AcDbEntity
  8
_0-0_パイプ
  6
Continuous
 62
     7
100
AcDbLine
 10
7036.652645752913
 20
15463.35866063701
 30
0.0
 11
7536.651820953506
 21
15463.35866063701
 31
0.0
  0
LINE
  5
D5
330
22
100
AcDbEntity
  8
_0-0_パイプ
  6
Continuous
 62
     7
100
AcDbLine
 10
7436.453539175635
 20
25018.35752241383
 30
0.0
 11
7485.694063880027
 21
25027.03771139187
 31
0.0
  0
LINE
  5
D6
330
22
100
AcDbEntity
  8
_0-0_パイプ
  6
Continuous
 62
     7
100
AcDbLine
 10
7486.451229737288
 20
24943.35851217312
 30
0.0
 11
7486.451229737288
 21
25043.35884209288
 31
0.0
  0
LINE
  5
D7
330
22
100
AcDbEntity
  8
_0-0_パイプ
  6
Continuous
 62
     7
100
AcDbLine
 10
7436.453539175635
 20
24968.35983185218
 30
0.0
 11
7485.694063880027
 21
24959.67469407769
 31
0.0
  0
LINE
  5
D8
330
22
100
AcDbEntity
  8
_0-0_パイプ
  6
Continuous
 62
     7
100
AcDbLine
 10
7486.451229737288
 20
25043.35884209288
 30
0.0
 11
7686.451889576819
 21
25043.35884209288
 31
0.0
  0
LINE
  5
D9
330
22
100
AcDbEntity
  8
_0-0_パイプ
  6
Continuous
 62
     7
100
AcDbLine
 10
7686.451889576819
 20
24943.35851217312
 30
0.0
 11
7686.451889576819
 21
25043.35884209288
 31
0.0
  0
LINE
  5
DA
330
22
100
AcDbEntity
  8
_0-0_パイプ
  6
Continuous
 62
     7
100
AcDbLine
 10
7686.451889576819
 20
24943.35851217312
 30
0.0
 11
7486.451229737288
 21
24943.35851217312
 31
0.0
  0
LINE
  5
DB
330
22
100
AcDbEntity
  8
_0-0_パイプ
  6
Continuous
 62
     7
100
AcDbLine
 10
7536.651820953506
 20
15463.35866063701
 30
0.0
 11
7536.651820953506
 21
15363.35833071725
 31
0.0
  0
LINE
  5
DC
330
22
100
AcDbEntity
  8
_0-0_パイプ
  6
Continuous
 62
     7
100
AcDbLine
 10
7261.434403829349
 20
24888.35758839778
 30
0.0
 11
7276.458949859757
 21
24888.35758839778
 31
0.0
  0
LINE
  5
DD
330
22
100
AcDbEntity
  8
_0-0_パイプ
  6
Continuous
 62
     7
100
AcDbLine
 10
7686.451889576819
 20
25038.3556088792
 30
0.0
 11
13886.45254941634
 21
25038.3556088792
 31
0.0
  0
LINE
  5
DE
330
22
100
AcDbEntity
  8
_0-0_パイプ
  6
Continuous
 62
     7
100
AcDbLine
 10
7686.451889576819
 20
24948.35679659034
 30
0.0
 11
13886.45254941634
 21
24948.35679659034
 31
0.0
  0
LINE
  5
DF
330
22
100
AcDbEntity
  8
_0-0_パイプ
  6
Continuous
 62
     7
100
AcDbLine
 10
14105.15223665241
 20
12218.35673885439
 30
0.0
 11
14468.1514052546
 21
12218.35673885439
 31
0.0
  0
LINE
  5
E0
330
22
100
AcDbEntity
  8
_0-0_パイプ
  6
Continuous
 62
     7
100
AcDbLine
 10
14061.64984143492
 20
14793.35842969318
 30
0.0
 11
14061.64984143492
 21
14843.35859465305
 31
0.0
  0
LINE
  5
E1
330
22
100
AcDbEntity
  8
_0-0_パイプ
  6
Continuous
 62
     7
100
AcDbLine
 10
14061.64984143492
 20
14843.35859465305
 30
0.0
 11
14511.65132607386
 21
14843.35859465305
 31
0.0
  0
LINE
  5
E2
330
22
100
AcDbEntity
  8
_0-0_パイプ
  6
Continuous
 62
     7
100
AcDbLine
 10
14511.65132607386
 20
14843.35859465305
 30
0.0
 11
14511.65132607386
 21
14793.35842969318
 31
0.0
  0
LINE
  5
E3
330
22
100
AcDbEntity
  8
_0-0_パイプ
  6
Continuous
 62
     7
100
AcDbLine
 10
14511.65132607386
 20
14793.35842969318
 30
0.0
 11
14061.64984143492
 21
14793.35842969318
 31
0.0
  0
LINE
  5
E4
330
22
100
AcDbEntity
  8
_0-0_パイプ
  6
Continuous
 62
     7
100
AcDbLine
 10
14122.28496997166
 20
14793.35842969318
 30
0.0
 11
14105.15223665241
 21
12218.35673885439
 31
0.0
  0
LINE
  5
E5
330
22
100
AcDbEntity
  8
_0-0_パイプ
  6
Continuous
 62
     7
100
AcDbLine
 10
14468.1514052546
 20
12218.35673885439
 30
0.0
 11
14451.01867193535
 21
14793.35842969318
 31
0.0
  0
LINE
  5
E6
330
22
100
AcDbEntity
  8
ADD_LINE
  6
DOT
 62
     7
100
AcDbLine
 10
14122.61901373222
 20
14843.35859465305
 30
0.0
 11
14122.61901373222
 21
14793.35842969318
 31
0.0
  0
LINE
  5
E7
330
22
100
AcDbEntity
  8
ADD_LINE
  6
DOT
 62
     7
100
AcDbLine
 10
14450.68462817479
 20
14843.35859465305
 30
0.0
 11
14450.68462817479
 21
14793.35842969318
 31
0.0
  0
LINE
  5
E8
330
22
100
AcDbEntity
  8
_0-0_パイプ
  6
Continuous
 62
     7
100
AcDbLine
 10
14125.28146622377
 20
15243.35743993388
 30
0.0
 11
14122.61901373222
 21
14843.35859465305
 31
0.0
  0
LINE
  5
E9
330
22
100
AcDbEntity
  8
_0-0_パイプ
  6
Continuous
 62
     7
100
AcDbLine
 10
13622.45157945224
 20
14918.35760489377
 30
0.0
 11
14122.45075465283
 21
14918.35760489377
 31
0.0
  0
LINE
  5
EA
330
22
100
AcDbEntity
  8
_0-0_パイプ
  6
Continuous
 62
     7
100
AcDbLine
 10
14121.78761592817
 20
14718.35694505424
 30
0.0
 11
13622.45157945224
 21
14718.35694505424
 31
0.0
  0
LINE
  5
EB
330
22
100
AcDbEntity
  8
_0-0_パイプ
  6
Continuous
 62
     7
100
AcDbLine
 10
13622.45157945224
 20
14718.35694505424
 30
0.0
 11
13622.45157945224
 21
14918.35760489377
 31
0.0
  0
LINE
  5
EC
330
22
100
AcDbEntity
  8
_0-0_パイプ
  6
Continuous
 62
     7
100
AcDbLine
 10
14450.18727413129
 20
14918.35760489377
 30
0.0
 11
14950.85206245476
 21
14918.35760489377
 31
0.0
  0
LINE
  5
ED
330
22
100
AcDbEntity
  8
_0-0_パイプ
  6
Continuous
 62
     7
100
AcDbLine
 10
14950.85206245476
 20
14918.35760489377
 30
0.0
 11
14950.85206245476
 21
14718.35694505424
 31
0.0
  0
LINE
  5
EE
330
22
100
AcDbEntity
  8
_0-0_パイプ
  6
Continuous
 62
     7
100
AcDbLine
 10
14950.85206245476
 20
14718.35694505424
 30
0.0
 11
14451.51850037706
 21
14718.35694505424
 31
0.0
  0
LINE
  5
EF
330
22
100
AcDbEntity
  8
_0-0_パイプ
  6
Continuous
 62
     7
100
AcDbLine
 10
14248.52134428543
 20
15288.35684607831
 30
0.0
 11
14248.52134428543
 21
15438.35734095796
 31
0.0
  0
LINE
  5
F0
330
22
100
AcDbEntity
  8
_0-0_パイプ
  6
Continuous
 62
     7
100
AcDbLine
 10
14248.52134428543
 20
15438.35734095796
 30
0.0
 11
14323.52035452614
 21
15438.35734095796
 31
0.0
  0
LINE
  5
F1
330
22
100
AcDbEntity
  8
_0-0_パイプ
  6
Continuous
 62
     7
100
AcDbLine
 10
14323.52035452614
 20
15438.35734095796
 30
0.0
 11
14323.52035452614
 21
15288.35684607831
 31
0.0
  0
LINE
  5
F2
330
22
100
AcDbEntity
  8
_0-0_パイプ
  6
Continuous
 62
     7
100
AcDbLine
 10
14323.52035452614
 20
15288.35684607831
 30
0.0
 11
14248.52134428543
 21
15288.35684607831
 31
0.0
  0
LINE
  5
F3
330
22
100
AcDbEntity
  8
_0-0_パイプ
  6
Continuous
 62
     7
100
AcDbLine
 10
14323.52035452614
 20
15318.35645017459
 30
0.0
 11
14301.0181770557
 21
15318.35645017459
 31
0.0
  0
LINE
  5
F4
330
22
100
AcDbEntity
  8
_0-0_パイプ
  6
Continuous
 62
     7
100
AcDbLine
 10
14271.01857295942
 20
15318.35645017459
 30
0.0
 11
14248.52134428543
 21
15318.35645017459
 31
0.0
  0
LINE
  5
F5
330
22
100
AcDbEntity
  8
_0-0_パイプ
  6
Continuous
 62
     7
100
AcDbLine
 10
14036.02002460638
 20
15363.35833071725
 30
0.0
 11
14036.02002460638
 21
15463.35866063701
 31
0.0
  0
LINE
  5
F6
330
22
100
AcDbEntity
  8
_0-0_パイプ
  6
Continuous
 62
     7
100
AcDbLine
 10
14536.01919980697
 20
15363.35833071725
 30
0.0
 11
14036.02002460638
 21
15363.35833071725
 31
0.0
  0
LINE
  5
F7
330
22
100
AcDbEntity
  8
_0-0_パイプ
  6
Continuous
 62
     7
100
AcDbLine
 10
14036.02002460638
 20
15463.35866063701
 30
0.0
 11
14536.01919980697
 21
15463.35866063701
 31
0.0
  0
LINE
  5
F8
330
22
100
AcDbEntity
  8
_0-0_パイプ
  6
Continuous
 62
     7
100
AcDbLine
 10
14536.01919980697
 20
15463.35866063701
 30
0.0
 11
14536.01919980697
 21
15363.35833071725
 31
0.0
  0
LINE
  5
F9
330
22
100
AcDbEntity
  8
_0-0_パイプ
  6
Continuous
 62
     7
100
AcDbLine
 10
14446.52763915452
 20
15468.35694505424
 30
0.0
 11
14415.58776373222
 21
20118.35743993389
 31
0.0
  0
LINE
  5
FA
330
22
100
AcDbEntity
  8
_0-0_パイプ
  6
Continuous
 62
     7
100
AcDbLine
 10
14450.68462817479
 20
14843.35859465305
 30
0.0
 11
14445.97584835004
 21
15550.88802349596
 31
0.0
  0
LINE
  5
FB
330
22
100
AcDbEntity
  8
_0-0_パイプ
  6
Continuous
 62
     7
100
AcDbLine
 10
14157.71835257301
 20
20118.35743993389
 30
0.0
 11
14124.37831087116
 21
15107.86434185533
 31
0.0
  0
LINE
  5
FC
330
22
100
AcDbEntity
  8
_0-0_パイプ
  6
Continuous
 62
     7
100
AcDbLine
 10
14136.45089981752
 20
25018.35752241383
 30
0.0
 11
14087.21037511314
 21
25027.03771139187
 31
0.0
  0
LINE
  5
FD
330
22
100
AcDbEntity
  8
_0-0_パイプ
  6
Continuous
 62
     7
100
AcDbLine
 10
14086.45073485764
 20
24943.35851217312
 30
0.0
 11
14086.45073485764
 21
25043.35884209288
 31
0.0
  0
LINE
  5
FE
330
22
100
AcDbEntity
  8
_0-0_パイプ
  6
Continuous
 62
     7
100
AcDbLine
 10
14136.45089981752
 20
24968.35983185218
 30
0.0
 11
14087.21037511314
 21
24959.67469407769
 31
0.0
  0
LINE
  5
FF
330
22
100
AcDbEntity
  8
_0-0_パイプ
  6
Continuous
 62
     7
100
AcDbLine
 10
14086.45073485764
 20
25043.35884209288
 30
0.0
 11
13886.45254941634
 21
25043.35884209288
 31
0.0
  0
LINE
  5
100
330
22
100
AcDbEntity
  8
_0-0_パイプ
  6
Continuous
 62
     7
100
AcDbLine
 10
13886.45254941634
 20
24943.35851217312
 30
0.0
 11
13886.45254941634
 21
25043.35884209288
 31
0.0
  0
LINE
  5
101
330
22
100
AcDbEntity
  8
_0-0_パイプ
  6
Continuous
 62
     7
100
AcDbLine
 10
13886.45254941634
 20
24943.35851217312
 30
0.0
 11
14086.45073485764
 21
24943.35851217312
 31
0.0
  0
LINE
  5
102
330
22
100
AcDbEntity
  8
_0-0_パイプ
  6
Continuous
 62
     7
100
AcDbLine
 10
7450.686277773603
 20
14843.35859465305
 30
0.0
 11
7446.524339956886
 21
15468.35694505424
 31
0.0
  0
LINE
  5
103
330
22
100
AcDbEntity
  8
_0-0_パイプ
  6
Continuous
 62
     7
100
AcDbLine
 10
21191.65307464861
 20
25218.35818225335
 30
0.0
 11
21381.65221685722
 21
25218.35818225335
 31
0.0
  0
LINE
  5
104
330
22
100
AcDbEntity
  8
_0-0_パイプ
  6
Continuous
 62
     7
100
AcDbLine
 10
21105.15306145182
 20
12218.35673885439
 30
0.0
 11
21468.15223005401
 21
12218.35673885439
 31
0.0
  0
LINE
  5
105
330
22
100
AcDbEntity
  8
_0-0_パイプ
  6
Continuous
 62
     7
100
AcDbLine
 10
21061.65066623433
 20
14793.35842969318
 30
0.0
 11
21061.65066623433
 21
14843.35859465305
 31
0.0
  0
LINE
  5
106
330
22
100
AcDbEntity
  8
_0-0_パイプ
  6
Continuous
 62
     7
100
AcDbLine
 10
21061.65066623433
 20
14843.35859465305
 30
0.0
 11
21511.65215087328
 21
14843.35859465305
 31
0.0
  0
LINE
  5
107
330
22
100
AcDbEntity
  8
_0-0_パイプ
  6
Continuous
 62
     7
100
AcDbLine
 10
21511.65215087328
 20
14843.35859465305
 30
0.0
 11
21511.65215087328
 21
14793.35842969318
 31
0.0
  0
LINE
  5
108
330
22
100
AcDbEntity
  8
_0-0_パイプ
  6
Continuous
 62
     7
100
AcDbLine
 10
21511.65215087328
 20
14793.35842969318
 30
0.0
 11
21061.65066623433
 21
14793.35842969318
 31
0.0
  0
LINE
  5
109
330
22
100
AcDbEntity
  8
_0-0_パイプ
  6
Continuous
 62
     7
100
AcDbLine
 10
21122.28579477108
 20
14793.35842969318
 30
0.0
 11
21105.15306145182
 21
12218.35673885439
 31
0.0
  0
LINE
  5
10A
330
22
100
AcDbEntity
  8
_0-0_パイプ
  6
Continuous
 62
     7
100
AcDbLine
 10
21468.15223005401
 20
12218.35673885439
 30
0.0
 11
21451.01949673476
 21
14793.35842969318
 31
0.0
  0
LINE
  5
10B
330
22
100
AcDbEntity
  8
ADD_LINE
  6
DOT
 62
     7
100
AcDbLine
 10
21122.61983853163
 20
14843.35859465305
 30
0.0
 11
21122.61983853163
 21
14793.35842969318
 31
0.0
  0
LINE
  5
10C
330
22
100
AcDbEntity
  8
ADD_LINE
  6
DOT
 62
     7
100
AcDbLine
 10
21450.68792737242
 20
14843.35859465305
 30
0.0
 11
21450.68792737242
 21
14793.35842969318
 31
0.0
  0
LINE
  5
10D
330
22
100
AcDbEntity
  8
_0-0_パイプ
  6
Continuous
 62
     7
100
AcDbLine
 10
21125.28229102319
 20
15243.35743993388
 30
0.0
 11
21122.61983853163
 21
14843.35859465305
 31
0.0
  0
LINE
  5
10E
330
22
100
AcDbEntity
  8
_0-0_パイプ
  6
Continuous
 62
     7
100
AcDbLine
 10
20622.45240425165
 20
14918.35760489377
 30
0.0
 11
21122.45157945224
 21
14918.35760489377
 31
0.0
  0
LINE
  5
10F
330
22
100
AcDbEntity
  8
_0-0_パイプ
  6
Continuous
 62
     7
100
AcDbLine
 10
21121.78844072758
 20
14718.35694505424
 30
0.0
 11
20622.45240425165
 21
14718.35694505424
 31
0.0
  0
LINE
  5
110
330
22
100
AcDbEntity
  8
_0-0_パイプ
  6
Continuous
 62
     7
100
AcDbLine
 10
20622.45240425165
 20
14718.35694505424
 30
0.0
 11
20622.45240425165
 21
14918.35760489377
 31
0.0
  0
LINE
  5
111
330
22
100
AcDbEntity
  8
_0-0_パイプ
  6
Continuous
 62
     7
100
AcDbLine
 10
21450.1880989307
 20
14918.35760489377
 30
0.0
 11
21950.85288725418
 21
14918.35760489377
 31
0.0
  0
LINE
  5
112
330
22
100
AcDbEntity
  8
_0-0_パイプ
  6
Continuous
 62
     7
100
AcDbLine
 10
21950.85288725418
 20
14918.35760489377
 30
0.0
 11
21950.85288725418
 21
14718.35694505424
 31
0.0
  0
LINE
  5
113
330
22
100
AcDbEntity
  8
_0-0_パイプ
  6
Continuous
 62
     7
100
AcDbLine
 10
21950.85288725418
 20
14718.35694505424
 30
0.0
 11
21451.51932517648
 21
14718.35694505424
 31
0.0
  0
LINE
  5
114
330
22
100
AcDbEntity
  8
_0-0_パイプ
  6
Continuous
 62
     7
100
AcDbLine
 10
21249.15314063256
 20
15288.35684607831
 30
0.0
 11
21249.15314063256
 21
15438.35734095796
 31
0.0
  0
LINE
  5
115
330
22
100
AcDbEntity
  8
_0-0_パイプ
  6
Continuous
 62
     7
100
AcDbLine
 10
21249.15314063256
 20
15438.35734095796
 30
0.0
 11
21324.15215087328
 21
15438.35734095796
 31
0.0
  0
LINE
  5
116
330
22
100
AcDbEntity
  8
_0-0_パイプ
  6
Continuous
 62
     7
100
AcDbLine
 10
21324.15215087328
 20
15438.35734095796
 30
0.0
 11
21324.15215087328
 21
15288.35684607831
 31
0.0
  0
LINE
  5
117
330
22
100
AcDbEntity
  8
_0-0_パイプ
  6
Continuous
 62
     7
100
AcDbLine
 10
21324.15215087328
 20
15288.35684607831
 30
0.0
 11
21249.15314063256
 21
15288.35684607831
 31
0.0
  0
LINE
  5
118
330
22
100
AcDbEntity
  8
_0-0_パイプ
  6
Continuous
 62
     7
100
AcDbLine
 10
21324.15215087328
 20
15318.35645017459
 30
0.0
 11
21301.65244780106
 21
15318.35645017459
 31
0.0
  0
LINE
  5
119
330
22
100
AcDbEntity
  8
_0-0_パイプ
  6
Continuous
 62
     7
100
AcDbLine
 10
21271.65284370477
 20
15318.35645017459
 30
0.0
 11
21249.15314063256
 21
15318.35645017459
 31
0.0
  0
LINE
  5
11A
330
22
100
AcDbEntity
  8
_0-0_パイプ
  6
Continuous
 62
     7
100
AcDbLine
 10
21036.65429535173
 20
15363.35833071725
 30
0.0
 11
21036.65429535173
 21
15463.35866063701
 31
0.0
  0
LINE
  5
11B
330
22
100
AcDbEntity
  8
_0-0_パイプ
  6
Continuous
 62
     7
100
AcDbLine
 10
21536.65347055232
 20
15363.35833071725
 30
0.0
 11
21036.65429535173
 21
15363.35833071725
 31
0.0
  0
LINE
  5
11C
330
22
100
AcDbEntity
  8
_0-0_パイプ
  6
Continuous
 62
     7
100
AcDbLine
 10
21036.65429535173
 20
15463.35866063701
 30
0.0
 11
21536.65347055232
 21
15463.35866063701
 31
0.0
  0
LINE
  5
11D
330
22
100
AcDbEntity
  8
_0-0_パイプ
  6
Continuous
 62
     7
100
AcDbLine
 10
21536.65347055232
 20
15463.35866063701
 30
0.0
 11
21536.65347055232
 21
15363.35833071725
 31
0.0
  0
LINE
  5
11E
330
22
100
AcDbEntity
  8
_0-0_パイプ
  6
Continuous
 62
     7
100
AcDbLine
 10
28105.151411853
 20
12218.35673885439
 30
0.0
 11
28468.1505804552
 21
12218.35673885439
 31
0.0
  0
LINE
  5
11F
330
22
100
AcDbEntity
  8
_0-0_パイプ
  6
Continuous
 62
     7
100
AcDbLine
 10
28061.65149103374
 20
14793.35842969318
 30
0.0
 11
28061.65149103374
 21
14843.35859465305
 31
0.0
  0
LINE
  5
120
330
22
100
AcDbEntity
  8
_0-0_パイプ
  6
Continuous
 62
     7
100
AcDbLine
 10
28061.65149103374
 20
14843.35859465305
 30
0.0
 11
28511.65050127445
 21
14843.35859465305
 31
0.0
  0
LINE
  5
121
330
22
100
AcDbEntity
  8
_0-0_パイプ
  6
Continuous
 62
     7
100
AcDbLine
 10
28511.65050127445
 20
14843.35859465305
 30
0.0
 11
28511.65050127445
 21
14793.35842969318
 31
0.0
  0
LINE
  5
122
330
22
100
AcDbEntity
  8
_0-0_パイプ
  6
Continuous
 62
     7
100
AcDbLine
 10
28511.65050127445
 20
14793.35842969318
 30
0.0
 11
28061.65149103374
 21
14793.35842969318
 31
0.0
  0
LINE
  5
123
330
22
100
AcDbEntity
  8
_0-0_パイプ
  6
Continuous
 62
     7
100
AcDbLine
 10
28122.28414517226
 20
14793.35842969318
 30
0.0
 11
28105.151411853
 21
12218.35673885439
 31
0.0
  0
LINE
  5
124
330
22
100
AcDbEntity
  8
_0-0_パイプ
  6
Continuous
 62
     7
100
AcDbLine
 10
28468.1505804552
 20
12218.35673885439
 30
0.0
 11
28451.01784713594
 21
14793.35842969318
 31
0.0
  0
LINE
  5
125
330
22
100
AcDbEntity
  8
ADD_LINE
  6
DOT
 62
     7
100
AcDbLine
 10
28122.62066333104
 20
14843.35859465305
 30
0.0
 11
28122.62066333104
 21
14793.35842969318
 31
0.0
  0
LINE
  5
126
330
22
100
AcDbEntity
  8
ADD_LINE
  6
DOT
 62
     7
100
AcDbLine
 10
28450.68627777362
 20
14843.35859465305
 30
0.0
 11
28450.68627777362
 21
14793.35842969318
 31
0.0
  0
LINE
  5
127
330
22
100
AcDbEntity
  8
_0-0_パイプ
  6
Continuous
 62
     7
100
AcDbLine
 10
28125.28064142437
 20
15243.35743993388
 30
0.0
 11
28122.62066333104
 21
14843.35859465305
 31
0.0
  0
LINE
  5
128
330
22
100
AcDbEntity
  8
_0-0_パイプ
  6
Continuous
 62
     7
100
AcDbLine
 10
27622.45075465282
 20
14918.35760489377
 30
0.0
 11
28122.45240425165
 21
14918.35760489377
 31
0.0
  0
LINE
  5
129
330
22
100
AcDbEntity
  8
_0-0_パイプ
  6
Continuous
 62
     7
100
AcDbLine
 10
28121.78679112876
 20
14718.35694505424
 30
0.0
 11
27622.45075465282
 21
14718.35694505424
 31
0.0
  0
LINE
  5
12A
330
22
100
AcDbEntity
  8
_0-0_パイプ
  6
Continuous
 62
     7
100
AcDbLine
 10
27622.45075465282
 20
14718.35694505424
 30
0.0
 11
27622.45075465282
 21
14918.35760489377
 31
0.0
  0
LINE
  5
12B
330
22
100
AcDbEntity
  8
_0-0_パイプ
  6
Continuous
 62
     7
100
AcDbLine
 10
28450.18644933189
 20
14918.35760489377
 30
0.0
 11
28950.85123765537
 21
14918.35760489377
 31
0.0
  0
LINE
  5
12C
330
22
100
AcDbEntity
  8
_0-0_パイプ
  6
Continuous
 62
     7
100
AcDbLine
 10
28950.85123765537
 20
14918.35760489377
 30
0.0
 11
28950.85123765537
 21
14718.35694505424
 31
0.0
  0
LINE
  5
12D
330
22
100
AcDbEntity
  8
_0-0_パイプ
  6
Continuous
 62
     7
100
AcDbLine
 10
28950.85123765537
 20
14718.35694505424
 30
0.0
 11
28451.51767557767
 21
14718.35694505424
 31
0.0
  0
LINE
  5
12E
330
22
100
AcDbEntity
  8
_0-0_パイプ
  6
Continuous
 62
     7
100
AcDbLine
 10
28190.52309945858
 20
25048.35712651012
 30
0.0
 11
28158.3831408965
 21
20218.35529545543
 31
0.0
  0
LINE
  5
12F
330
22
100
AcDbEntity
  8
_0-0_パイプ
  6
Continuous
 62
     7
100
AcDbLine
 10
28414.92132580992
 20
20218.35529545543
 30
0.0
 11
28382.78384164608
 21
25048.35712651012
 31
0.0
  0
LINE
  5
130
330
22
100
AcDbEntity
  8
_0-0_パイプ
  6
Continuous
 62
     7
100
AcDbLine
 10
28450.68627777362
 20
14843.35859465305
 30
0.0
 11
28445.97502355064
 21
15550.88802349596
 31
0.0
  0
LINE
  5
131
330
22
100
AcDbEntity
  8
_0-0_パイプ
  6
Continuous
 62
     7
100
AcDbLine
 10
21450.68792737242
 20
14843.35859465305
 30
0.0
 11
21446.5259895557
 21
15468.35694505424
 31
0.0
  0
LINE
  5
132
330
22
100
AcDbEntity
  8
ADD_LINE
  6
DOT
 62
     2
100
AcDbLine
 10
21448.19125956204
 20
15413.35849567713
 30
0.0
 11
21536.65347055232
 21
15413.35849567713
 31
0.0
  0
LINE
  5
133
330
22
100
AcDbEntity
  8
_0-0_パイプ
  6
Continuous
 62
     7
100
AcDbLine
 10
14192.31786297209
 20
25218.35818225335
 30
0.0
 11
14191.18706298264
 21
25048.35217771366
 31
0.0
  0
LINE
  5
134
330
22
100
AcDbEntity
  8
_0-0_パイプ
  6
Continuous
 62
     7
100
AcDbLine
 10
14382.11905332259
 20
25048.35217771366
 30
0.0
 11
14380.98577893492
 21
25218.35818225335
 31
0.0
  0
LINE
  5
135
330
22
100
AcDbEntity
  8
_0-0_パイプ
  6
Continuous
 62
     7
100
AcDbLine
 10
14192.31786297209
 20
25218.35818225335
 30
0.0
 11
14380.98577893492
 21
25218.35818225335
 31
0.0
  0
LINE
  5
136
330
22
100
AcDbEntity
  8
_0-0_パイプ
  6
Continuous
 62
     7
100
AcDbLine
 10
28192.31703817268
 20
25218.35818225335
 30
0.0
 11
28191.18623818324
 21
25048.35217771366
 31
0.0
  0
LINE
  5
137
330
22
100
AcDbEntity
  8
_0-0_パイプ
  6
Continuous
 62
     7
100
AcDbLine
 10
28382.11822852318
 20
25048.35217771366
 30
0.0
 11
28380.98247973729
 21
25218.35818225335
 31
0.0
  0
LINE
  5
138
330
22
100
AcDbEntity
  8
_0-0_パイプ
  6
Continuous
 62
     7
100
AcDbLine
 10
28192.31703817268
 20
25218.35818225335
 30
0.0
 11
28380.98495413552
 21
25218.35818225335
 31
0.0
  0
LINE
  5
139
330
22
100
AcDbEntity
  8
_0-0_パイプ
  6
Continuous
 62
     7
100
AcDbLine
 10
21414.92297540875
 20
20218.35529545543
 30
0.0
 11
21381.65221685722
 21
25218.35818225335
 31
0.0
  0
LINE
  5
13A
330
22
100
AcDbEntity
  8
_0-0_パイプ
  6
Continuous
 62
     7
100
AcDbLine
 10
21191.65307464861
 20
25218.35818225335
 30
0.0
 11
21158.38479049532
 21
20218.35529545543
 31
0.0
  0
LINE
  5
13B
330
22
100
AcDbEntity
  8
_0-0_パイプ
  6
Continuous
 62
     7
100
AcDbLine
 10
7158.558823170569
 20
20244.79176610576
 30
0.0
 11
7124.37748607175
 21
15107.86434185533
 31
0.0
  0
LINE
  5
13C
330
22
100
AcDbEntity
  8
_0-0_パイプ
  6
Continuous
 62
     7
100
AcDbLine
 10
14190.52144985975
 20
25048.35712651012
 30
0.0
 11
14157.2383193171
 21
20046.41431150272
 31
0.0
  0
LINE
  5
13D
330
22
100
AcDbEntity
  8
_0-0_パイプ
  6
Continuous
 62
     7
100
AcDbLine
 10
14416.06779698814
 20
20046.10006292797
 30
0.0
 11
14382.78219204725
 21
25048.35712651012
 31
0.0
  0
LINE
  5
13E
330
22
100
AcDbEntity
  8
_0-0_パイプ
  6
Continuous
 62
     7
100
AcDbLine
 10
21158.38479049532
 20
20218.35529545543
 30
0.0
 11
21124.37913567057
 21
15107.86434185533
 31
0.0
  0
LINE
  5
13F
330
22
100
AcDbEntity
  8
_0-0_パイプ
  6
Continuous
 62
     7
100
AcDbLine
 10
21446.52846395393
 20
15468.35694505424
 30
0.0
 11
21414.92050101052
 21
20218.35529545543
 31
0.0
  0
LINE
  5
140
330
22
100
AcDbEntity
  8
_0-0_パイプ
  6
Continuous
 62
     7
100
AcDbLine
 10
28158.3831408965
 20
20218.35529545543
 30
0.0
 11
28124.37748607175
 21
15107.86434185533
 31
0.0
  0
LINE
  5
141
330
22
100
AcDbEntity
  8
_0-0_パイプ
  6
Continuous
 62
     7
100
AcDbLine
 10
28446.52928875334
 20
15468.35694505424
 30
0.0
 11
28414.92132580992
 21
20218.35776985365
 31
0.0
  0
LINE
  5
142
330
22
100
AcDbEntity
  8
_0-0_パイプ
  6
Continuous
 62
     7
100
AcDbLine
 10
28249.15149103373
 20
15288.35684607831
 30
0.0
 11
28249.15149103373
 21
15438.35734095796
 31
0.0
  0
LINE
  5
143
330
22
100
AcDbEntity
  8
_0-0_パイプ
  6
Continuous
 62
     7
100
AcDbLine
 10
28249.15149103373
 20
15438.35734095796
 30
0.0
 11
28324.15050127445
 21
15438.35734095796
 31
0.0
  0
LINE
  5
144
330
22
100
AcDbEntity
  8
_0-0_パイプ
  6
Continuous
 62
     7
100
AcDbLine
 10
28324.15050127445
 20
15438.35734095796
 30
0.0
 11
28324.15050127445
 21
15288.35684607831
 31
0.0
  0
LINE
  5
145
330
22
100
AcDbEntity
  8
_0-0_パイプ
  6
Continuous
 62
     7
100
AcDbLine
 10
28324.15050127445
 20
15288.35684607831
 30
0.0
 11
28249.15149103373
 21
15288.35684607831
 31
0.0
  0
LINE
  5
146
330
22
100
AcDbEntity
  8
_0-0_パイプ
  6
Continuous
 62
     7
100
AcDbLine
 10
28324.15050127445
 20
15318.35645017459
 30
0.0
 11
28301.65327260046
 21
15318.35645017459
 31
0.0
  0
LINE
  5
147
330
22
100
AcDbEntity
  8
_0-0_パイプ
  6
Continuous
 62
     7
100
AcDbLine
 10
28271.65366850418
 20
15318.35645017459
 30
0.0
 11
28249.15149103373
 21
15318.35645017459
 31
0.0
  0
LINE
  5
148
330
22
100
AcDbEntity
  8
_0-0_パイプ
  6
Continuous
 62
     7
100
AcDbLine
 10
28036.6501713547
 20
15363.35833071725
 30
0.0
 11
28036.6501713547
 21
15463.35866063701
 31
0.0
  0
LINE
  5
149
330
22
100
AcDbEntity
  8
_0-0_パイプ
  6
Continuous
 62
     7
100
AcDbLine
 10
28536.65182095351
 20
15363.35833071725
 30
0.0
 11
28036.6501713547
 21
15363.35833071725
 31
0.0
  0
LINE
  5
14A
330
22
100
AcDbEntity
  8
_0-0_パイプ
  6
Continuous
 62
     7
100
AcDbLine
 10
28036.6501713547
 20
15463.35866063701
 30
0.0
 11
28536.65182095351
 21
15463.35866063701
 31
0.0
  0
LINE
  5
14B
330
22
100
AcDbEntity
  8
_0-0_パイプ
  6
Continuous
 62
     7
100
AcDbLine
 10
28536.65182095351
 20
15463.35866063701
 30
0.0
 11
28536.65182095351
 21
15363.35833071725
 31
0.0
  0
LINE
  5
14C
330
22
100
AcDbEntity
  8
ADD_LINE
  6
DOT
 62
     2
100
AcDbLine
 10
28448.19208436144
 20
15413.35849567713
 30
0.0
 11
28536.65182095351
 21
15413.35849567713
 31
0.0
  0
LINE
  5
14D
330
22
100
AcDbEntity
  8
_0-0_パイプ
  6
Continuous
 62
     7
100
AcDbLine
 10
7261.434403829349
 20
24858.3579843015
 30
0.0
 11
7261.434403829349
 21
24958.35831422126
 31
0.0
  0
LINE
  5
14E
330
22
100
AcDbEntity
  8
_0-0_パイプ
  6
Continuous
 62
     7
100
AcDbLine
 10
7311.437043187459
 20
24958.35831422126
 30
0.0
 11
7311.437043187459
 21
24858.3579843015
 31
0.0
  0
LINE
  5
14F
330
22
100
AcDbEntity
  8
_0-0_パイプ
  6
Continuous
 62
     7
100
AcDbLine
 10
7446.529288753334
 20
15468.35694505424
 30
0.0
 11
7414.921325809922
 21
20218.35529545543
 31
0.0
  0
LINE
  5
150
330
22
100
AcDbEntity
  8
_0-0_パイプ
  6
Continuous
 62
     7
100
AcDbLine
 10
14136.45337421575
 20
24918.36214129051
 30
0.0
 11
14136.45337421575
 21
25018.35752241383
 31
0.0
  0
LINE
  5
151
330
22
100
AcDbEntity
  8
_0-0_パイプ
  6
Continuous
 62
     7
100
AcDbLine
 10
14136.45337421575
 20
25018.35752241383
 30
0.0
 11
14436.45188957682
 21
25018.35752241383
 31
0.0
  0
LINE
  5
152
330
22
100
AcDbEntity
  8
_0-0_パイプ
  6
Continuous
 62
     7
100
AcDbLine
 10
14136.45337421575
 20
24968.35983185218
 30
0.0
 11
14436.45188957682
 21
24968.35983185218
 31
0.0
  0
LINE
  5
153
330
22
100
AcDbEntity
  8
_0-0_パイプ
  6
Continuous
 62
     7
100
AcDbLine
 10
14436.45188957682
 20
25018.35752241383
 30
0.0
 11
14436.45188957682
 21
24918.36214129051
 31
0.0
  0
LINE
  5
154
330
22
100
AcDbEntity
  8
_0-0_パイプ
  6
Continuous
 62
     7
100
AcDbLine
 10
14261.43522862876
 20
24958.35831422126
 30
0.0
 11
14311.43539358864
 21
24958.35831422126
 31
0.0
  0
LINE
  5
155
330
22
100
AcDbEntity
  8
_0-0_パイプ
  6
Continuous
 62
     7
100
AcDbLine
 10
14311.43539358864
 20
24858.3579843015
 30
0.0
 11
14261.43522862876
 21
24858.3579843015
 31
0.0
  0
LINE
  5
156
330
22
100
AcDbEntity
  8
_0-0_パイプ
  6
Continuous
 62
     7
100
AcDbLine
 10
14136.45337421575
 20
24918.36214129051
 30
0.0
 11
14261.43522862876
 21
24918.36214129051
 31
0.0
  0
LINE
  5
157
330
22
100
AcDbEntity
  8
_0-0_パイプ
  6
Continuous
 62
     7
100
AcDbLine
 10
14311.43539358864
 20
24918.36214129051
 30
0.0
 11
14436.45188957682
 21
24918.36214129051
 31
0.0
  0
LINE
  5
158
330
22
100
AcDbEntity
  8
_0-0_パイプ
  6
Continuous
 62
     7
100
AcDbLine
 10
14261.43522862876
 20
24888.35758839778
 30
0.0
 11
14276.45977465917
 21
24888.35758839778
 31
0.0
  0
LINE
  5
159
330
22
100
AcDbEntity
  8
_0-0_パイプ
  6
Continuous
 62
     7
100
AcDbLine
 10
14296.4454891334
 20
24888.35758839778
 30
0.0
 11
14311.47003516381
 21
24888.35758839778
 31
0.0
  0
LINE
  5
15A
330
22
100
AcDbEntity
  8
_0-0_パイプ
  6
Continuous
 62
     7
100
AcDbLine
 10
14261.43522862876
 20
24858.3579843015
 30
0.0
 11
14261.43522862876
 21
24958.35831422126
 31
0.0
  0
LINE
  5
15B
330
22
100
AcDbEntity
  8
_0-0_パイプ
  6
Continuous
 62
     7
100
AcDbLine
 10
14311.43539358864
 20
24958.35831422126
 30
0.0
 11
14311.43539358864
 21
24858.3579843015
 31
0.0
  0
LINE
  5
15C
330
22
100
AcDbEntity
  8
_0-0_パイプ
  6
Continuous
 62
     7
100
AcDbLine
 10
21135.78858589228
 20
24968.35983185218
 30
0.0
 11
21435.78710125334
 21
24968.35983185218
 31
0.0
  0
LINE
  5
15D
330
22
100
AcDbEntity
  8
_0-0_パイプ
  6
Continuous
 62
     7
100
AcDbLine
 10
21135.78858589228
 20
24918.36214129051
 30
0.0
 11
21135.78858589228
 21
24968.35983185218
 31
0.0
  0
LINE
  5
15E
330
22
100
AcDbEntity
  8
_0-0_パイプ
  6
Continuous
 62
     7
100
AcDbLine
 10
21260.77044030528
 20
24958.35831422126
 30
0.0
 11
21310.77307966338
 21
24958.35831422126
 31
0.0
  0
LINE
  5
15F
330
22
100
AcDbEntity
  8
_0-0_パイプ
  6
Continuous
 62
     7
100
AcDbLine
 10
21310.77307966338
 20
24858.3579843015
 30
0.0
 11
21260.77044030528
 21
24858.3579843015
 31
0.0
  0
LINE
  5
160
330
22
100
AcDbEntity
  8
_0-0_パイプ
  6
Continuous
 62
     7
100
AcDbLine
 10
21135.78858589228
 20
24918.36214129051
 30
0.0
 11
21260.77044030528
 21
24918.36214129051
 31
0.0
  0
LINE
  5
161
330
22
100
AcDbEntity
  8
_0-0_パイプ
  6
Continuous
 62
     7
100
AcDbLine
 10
21310.77307966338
 20
24918.36214129051
 30
0.0
 11
21435.78710125334
 21
24918.36214129051
 31
0.0
  0
LINE
  5
162
330
22
100
AcDbEntity
  8
_0-0_パイプ
  6
Continuous
 62
     7
100
AcDbLine
 10
21260.77044030528
 20
24888.35758839778
 30
0.0
 11
21275.79498633568
 21
24888.35758839778
 31
0.0
  0
LINE
  5
163
330
22
100
AcDbEntity
  8
_0-0_パイプ
  6
Continuous
 62
     7
100
AcDbLine
 10
21295.78317520815
 20
24888.35758839778
 30
0.0
 11
21310.80772123856
 21
24888.35758839778
 31
0.0
  0
LINE
  5
164
330
22
100
AcDbEntity
  8
ADD_LINE
  6
DOT
 62
     7
100
AcDbLine
 10
21275.79498633568
 20
24888.35758839778
 30
0.0
 11
21295.78317520815
 21
24888.35758839778
 31
0.0
  0
LINE
  5
165
330
22
100
AcDbEntity
  8
_0-0_パイプ
  6
Continuous
 62
     7
100
AcDbLine
 10
21260.77044030528
 20
24858.3579843015
 30
0.0
 11
21260.77044030528
 21
24958.35831422126
 31
0.0
  0
LINE
  5
166
330
22
100
AcDbEntity
  8
_0-0_パイプ
  6
Continuous
 62
     7
100
AcDbLine
 10
21310.77307966338
 20
24958.35831422126
 30
0.0
 11
21310.77307966338
 21
24858.3579843015
 31
0.0
  0
LINE
  5
167
330
22
100
AcDbEntity
  8
_0-0_パイプ
  6
Continuous
 62
     7
100
AcDbLine
 10
21435.78710125334
 20
24968.35983185218
 30
0.0
 11
21435.78710125334
 21
24918.36214129051
 31
0.0
  0
LINE
  5
168
330
22
100
AcDbEntity
  8
_0-0_パイプ
  6
Continuous
 62
     7
100
AcDbLine
 10
28135.12627196703
 20
24968.35983185218
 30
0.0
 11
28435.12478732808
 21
24968.35983185218
 31
0.0
  0
LINE
  5
169
330
22
100
AcDbEntity
  8
_0-0_パイプ
  6
Continuous
 62
     7
100
AcDbLine
 10
28135.12627196703
 20
24918.36214129051
 30
0.0
 11
28135.12627196703
 21
24968.35983185218
 31
0.0
  0
LINE
  5
16A
330
22
100
AcDbEntity
  8
_0-0_パイプ
  6
Continuous
 62
     7
100
AcDbLine
 10
28261.43687822758
 20
24958.35831422126
 30
0.0
 11
28311.43704318746
 21
24958.35831422126
 31
0.0
  0
LINE
  5
16B
330
22
100
AcDbEntity
  8
_0-0_パイプ
  6
Continuous
 62
     7
100
AcDbLine
 10
28311.43704318746
 20
24858.3579843015
 30
0.0
 11
28261.43687822758
 21
24858.3579843015
 31
0.0
  0
LINE
  5
16C
330
22
100
AcDbEntity
  8
_0-0_パイプ
  6
Continuous
 62
     7
100
AcDbLine
 10
28135.12627196703
 20
24918.36214129051
 30
0.0
 11
28260.10812638003
 21
24918.36214129051
 31
0.0
  0
LINE
  5
16D
330
22
100
AcDbEntity
  8
_0-0_パイプ
  6
Continuous
 62
     7
100
AcDbLine
 10
28310.10829133991
 20
24918.36214129051
 30
0.0
 11
28435.12478732808
 21
24918.36214129051
 31
0.0
  0
LINE
  5
16E
330
22
100
AcDbEntity
  8
_0-0_パイプ
  6
Continuous
 62
     7
100
AcDbLine
 10
28261.43687822758
 20
24888.35758839778
 30
0.0
 11
28276.46142425799
 21
24888.35758839778
 31
0.0
  0
LINE
  5
16F
330
22
100
AcDbEntity
  8
_0-0_パイプ
  6
Continuous
 62
     7
100
AcDbLine
 10
28296.44713873221
 20
24888.35758839778
 30
0.0
 11
28311.47168476262
 21
24888.35758839778
 31
0.0
  0
LINE
  5
170
330
22
100
AcDbEntity
  8
ADD_LINE
  6
DOT
 62
     7
100
AcDbLine
 10
28276.46142425799
 20
24888.35758839778
 30
0.0
 11
28296.44713873221
 21
24888.35758839778
 31
0.0
  0
LINE
  5
171
330
22
100
AcDbEntity
  8
_0-0_パイプ
  6
Continuous
 62
     7
100
AcDbLine
 10
28261.43687822758
 20
24858.3579843015
 30
0.0
 11
28261.43687822758
 21
24958.35831422126
 31
0.0
  0
LINE
  5
172
330
22
100
AcDbEntity
  8
_0-0_パイプ
  6
Continuous
 62
     7
100
AcDbLine
 10
28311.43704318746
 20
24958.35831422126
 30
0.0
 11
28311.43704318746
 21
24858.3579843015
 31
0.0
  0
LINE
  5
173
330
22
100
AcDbEntity
  8
_0-0_パイプ
  6
Continuous
 62
     7
100
AcDbLine
 10
28435.12478732808
 20
24968.35983185218
 30
0.0
 11
28435.12478732808
 21
24918.36214129051
 31
0.0
  0
LINE
  5
174
330
22
100
AcDbEntity
  8
_0-0_パイプ
  6
Continuous
 62
     7
100
AcDbLine
 10
14086.65116111398
 20
20148.3595184284
 30
0.0
 11
14086.65116111398
 21
20248.35984834816
 31
0.0
  0
LINE
  5
175
330
22
100
AcDbEntity
  8
_0-0_パイプ
  6
Continuous
 62
     7
100
AcDbLine
 10
14086.65116111398
 20
20248.35984834816
 30
0.0
 11
14486.65248079303
 21
20248.35984834816
 31
0.0
  0
LINE
  5
176
330
22
100
AcDbEntity
  8
_0-0_パイプ
  6
Continuous
 62
     7
100
AcDbLine
 10
14486.65248079303
 20
20248.35984834816
 30
0.0
 11
14486.65248079303
 21
20148.3595184284
 31
0.0
  0
LINE
  5
177
330
22
100
AcDbEntity
  8
_0-0_パイプ
  6
Continuous
 62
     7
100
AcDbLine
 10
14486.65248079303
 20
20148.3595184284
 30
0.0
 11
14086.65116111398
 21
20148.3595184284
 31
0.0
  0
LINE
  5
178
330
22
100
AcDbEntity
  8
_0-0_パイプ
  6
Continuous
 62
     7
100
AcDbLine
 10
14249.14984143492
 20
20073.36050818769
 30
0.0
 11
14249.14984143492
 21
20223.36100306733
 31
0.0
  0
LINE
  5
179
330
22
100
AcDbEntity
  8
_0-0_パイプ
  6
Continuous
 62
     7
100
AcDbLine
 10
14249.14984143492
 20
20223.36100306733
 30
0.0
 11
14324.15380047209
 21
20223.36100306733
 31
0.0
  0
LINE
  5
17A
330
22
100
AcDbEntity
  8
_0-0_パイプ
  6
Continuous
 62
     7
100
AcDbLine
 10
14324.15380047209
 20
20223.36100306733
 30
0.0
 11
14324.15380047209
 21
20073.36050818769
 31
0.0
  0
LINE
  5
17B
330
22
100
AcDbEntity
  8
_0-0_パイプ
  6
Continuous
 62
     7
100
AcDbLine
 10
14324.15380047209
 20
20073.36050818769
 30
0.0
 11
14249.14984143492
 21
20073.36050818769
 31
0.0
  0
LINE
  5
17C
330
22
100
AcDbEntity
  8
_0-0_パイプ
  6
Continuous
 62
     7
100
AcDbLine
 10
14324.15380047209
 20
20103.36011228397
 30
0.0
 11
14301.65162300164
 21
20103.36011228397
 31
0.0
  0
LINE
  5
17D
330
22
100
AcDbEntity
  8
_0-0_パイプ
  6
Continuous
 62
     7
100
AcDbLine
 10
14271.65201890536
 20
20103.36011228397
 30
0.0
 11
14249.14984143492
 21
20103.36011228397
 31
0.0
  0
LINE
  5
17E
330
22
100
AcDbEntity
  8
_0-0_パイプ
  6
Continuous
 62
     7
100
AcDbLine
 10
21086.65198591339
 20
20148.3595184284
 30
0.0
 11
21086.65198591339
 21
20248.35984834816
 31
0.0
  0
LINE
  5
17F
330
22
100
AcDbEntity
  8
_0-0_パイプ
  6
Continuous
 62
     7
100
AcDbLine
 10
21086.65198591339
 20
20248.35984834816
 30
0.0
 11
21486.65083119421
 21
20248.35984834816
 31
0.0
  0
LINE
  5
180
330
22
100
AcDbEntity
  8
_0-0_パイプ
  6
Continuous
 62
     7
100
AcDbLine
 10
21486.65083119421
 20
20248.35984834816
 30
0.0
 11
21486.65083119421
 21
20148.3595184284
 31
0.0
  0
LINE
  5
181
330
22
100
AcDbEntity
  8
_0-0_パイプ
  6
Continuous
 62
     7
100
AcDbLine
 10
21486.65083119421
 20
20148.3595184284
 30
0.0
 11
21086.65198591339
 21
20148.3595184284
 31
0.0
  0
LINE
  5
182
330
22
100
AcDbEntity
  8
_0-0_パイプ
  6
Continuous
 62
     7
100
AcDbLine
 10
21249.15066623433
 20
20073.36050818769
 30
0.0
 11
21249.15066623433
 21
20223.36100306733
 31
0.0
  0
LINE
  5
183
330
22
100
AcDbEntity
  8
_0-0_パイプ
  6
Continuous
 62
     7
100
AcDbLine
 10
21249.15066623433
 20
20223.36100306733
 30
0.0
 11
21324.15215087328
 21
20223.36100306733
 31
0.0
  0
LINE
  5
184
330
22
100
AcDbEntity
  8
_0-0_パイプ
  6
Continuous
 62
     7
100
AcDbLine
 10
21324.15215087328
 20
20223.36100306733
 30
0.0
 11
21324.15215087328
 21
20073.36050818769
 31
0.0
  0
LINE
  5
185
330
22
100
AcDbEntity
  8
_0-0_パイプ
  6
Continuous
 62
     7
100
AcDbLine
 10
21324.15215087328
 20
20103.36011228397
 30
0.0
 11
21301.64997340282
 21
20103.36011228397
 31
0.0
  0
LINE
  5
186
330
22
100
AcDbEntity
  8
_0-0_パイプ
  6
Continuous
 62
     7
100
AcDbLine
 10
21271.65036930654
 20
20103.36011228397
 30
0.0
 11
21249.15066623433
 21
20103.36011228397
 31
0.0
  0
LINE
  5
187
330
22
100
AcDbEntity
  8
_0-0_パイプ
  6
Continuous
 62
     7
100
AcDbLine
 10
28086.65281071279
 20
20148.3595184284
 30
0.0
 11
28086.65281071279
 21
20248.35984834816
 31
0.0
  0
LINE
  5
188
330
22
100
AcDbEntity
  8
_0-0_パイプ
  6
Continuous
 62
     7
100
AcDbLine
 10
28086.65281071279
 20
20248.35984834816
 30
0.0
 11
28486.65165599363
 21
20248.35984834816
 31
0.0
  0
LINE
  5
189
330
22
100
AcDbEntity
  8
_0-0_パイプ
  6
Continuous
 62
     7
100
AcDbLine
 10
28486.65165599363
 20
20248.35984834816
 30
0.0
 11
28486.65165599363
 21
20148.3595184284
 31
0.0
  0
LINE
  5
18A
330
22
100
AcDbEntity
  8
_0-0_パイプ
  6
Continuous
 62
     7
100
AcDbLine
 10
28486.65165599363
 20
20148.3595184284
 30
0.0
 11
28086.65281071279
 21
20148.3595184284
 31
0.0
  0
LINE
  5
18B
330
22
100
AcDbEntity
  8
_0-0_パイプ
  6
Continuous
 62
     7
100
AcDbLine
 10
28249.15149103373
 20
20073.36050818769
 30
0.0
 11
28249.15149103373
 21
20223.36100306733
 31
0.0
  0
LINE
  5
18C
330
22
100
AcDbEntity
  8
_0-0_パイプ
  6
Continuous
 62
     7
100
AcDbLine
 10
28249.15149103373
 20
20223.36100306733
 30
0.0
 11
28324.15297567268
 21
20223.36100306733
 31
0.0
  0
LINE
  5
18D
330
22
100
AcDbEntity
  8
_0-0_パイプ
  6
Continuous
 62
     7
100
AcDbLine
 10
28324.15297567268
 20
20223.36100306733
 30
0.0
 11
28324.15297567268
 21
20073.36050818769
 31
0.0
  0
LINE
  5
18E
330
22
100
AcDbEntity
  8
_0-0_パイプ
  6
Continuous
 62
     7
100
AcDbLine
 10
28324.15297567268
 20
20073.36050818769
 30
0.0
 11
28249.15149103373
 21
20073.36050818769
 31
0.0
  0
LINE
  5
18F
330
22
100
AcDbEntity
  8
_0-0_パイプ
  6
Continuous
 62
     7
100
AcDbLine
 10
28324.15297567268
 20
20103.36011228397
 30
0.0
 11
28301.65079820224
 21
20103.36011228397
 31
0.0
  0
LINE
  5
190
330
22
100
AcDbEntity
  8
_0-0_パイプ
  6
Continuous
 62
     7
100
AcDbLine
 10
28271.65119410596
 20
20103.36011228397
 30
0.0
 11
28249.15149103373
 21
20103.36011228397
 31
0.0
  0
LINE
  5
191
330
22
100
AcDbEntity
  8
_0-0_パイプ
  6
Continuous
 62
     7
100
AcDbLine
 10
21249.15066623433
 20
20073.36050818769
 30
0.0
 11
21324.15215087328
 21
20073.36050818769
 31
0.0
  0
LINE
  5
192
330
22
100
AcDbEntity
  8
_0-0_パイプ
  6
Continuous
 62
     7
100
AcDbLine
 10
7191.651425049788
 20
25218.35818225335
 30
0.0
 11
7158.383140896495
 21
20218.35529545543
 31
0.0
  0
LINE
  5
193
330
22
100
AcDbEntity
  8
_0-0_パイプ
  6
Continuous
 62
     7
100
AcDbLine
 10
7191.651425049788
 20
25218.35818225335
 30
0.0
 11
7381.65304165663
 21
25218.35818225335
 31
0.0
  0
LINE
  5
194
330
22
100
AcDbEntity
  8
_0-0_パイプ
  6
Continuous
 62
     7
100
AcDbLine
 10
7414.921325809922
 20
20218.35529545543
 30
0.0
 11
7381.65304165663
 21
25218.35818225335
 31
0.0
  0
LINE
  5
195
330
22
100
AcDbEntity
  8
_0-0_パイプ
  6
Continuous
 62
     7
100
AcDbLine
 10
7296.447138732219
 20
24888.35758839778
 30
0.0
 11
7311.437043187459
 21
24888.35758839778
 31
0.0
  0
LINE
  5
196
330
22
100
AcDbEntity
  8
_0-2_メッセン
  6
Continuous
 62
     6
100
AcDbLine
 10
14261.43522862876
 20
24888.35758839778
 30
0.0
 11
7311.437043187459
 21
24888.35758839778
 31
0.0
  0
LINE
  5
197
330
22
100
AcDbEntity
  8
_0-2_メッセン
  6
Continuous
 62
     6
100
AcDbLine
 10
7436.453539175635
 20
24918.36214129051
 30
0.0
 11
14036.02002460638
 21
15463.35866063701
 31
0.0
  0
LINE
  5
198
330
22
100
AcDbEntity
  8
_0-2_メッセン
  6
Continuous
 62
     6
100
AcDbLine
 10
7536.651820953506
 20
15463.35866063701
 30
0.0
 11
14136.45337421575
 21
24918.36214129051
 31
0.0
  0
LINE
  5
199
330
22
100
AcDbEntity
  8
_0-2_メッセン
  6
Continuous
 62
     6
100
AcDbLine
 10
14311.86841327825
 20
24888.35758839778
 30
0.0
 11
21261.86907311778
 21
24888.35758839778
 31
0.0
  0
LINE
  5
19A
330
22
100
AcDbEntity
  8
_0-2_メッセン
  6
Continuous
 62
     6
100
AcDbLine
 10
21136.85257712961
 20
24918.36214129051
 30
0.0
 11
14537.28361730064
 21
15463.35866063701
 31
0.0
  0
LINE
  5
19B
330
22
100
AcDbEntity
  8
_0-2_メッセン
  6
Continuous
 62
     6
100
AcDbLine
 10
21036.6518209535
 20
15463.35866063701
 30
0.0
 11
14436.85026769126
 21
24918.36214129051
 31
0.0
  0
LINE
  5
19C
330
22
100
AcDbEntity
  8
_0-2_メッセン
  6
Continuous
 62
     6
100
AcDbLine
 10
21249.15066623433
 20
15318.35645017459
 30
0.0
 11
14324.78229762158
 21
15318.35645017459
 31
0.0
  0
LINE
  5
19D
330
22
100
AcDbEntity
  8
_0-2_メッセン
  6
Continuous
 62
     6
100
AcDbLine
 10
28261.43687822758
 20
24888.35758839778
 30
0.0
 11
21311.43621838805
 21
24888.35758839778
 31
0.0
  0
LINE
  5
19E
330
22
100
AcDbEntity
  8
_0-2_メッセン
  6
Continuous
 62
     6
100
AcDbLine
 10
21436.45518877445
 20
24918.36214129051
 30
0.0
 11
28036.0216742052
 21
15463.35866063701
 31
0.0
  0
LINE
  5
19F
330
22
100
AcDbEntity
  8
_0-2_メッセン
  6
Continuous
 62
     6
100
AcDbLine
 10
21536.65347055232
 20
15463.35866063701
 30
0.0
 11
28136.45502381457
 21
24918.36214129051
 31
0.0
  0
LINE
  5
1A0
330
22
100
AcDbEntity
  8
_0-2_メッセン
  6
Continuous
 62
     6
100
AcDbLine
 10
7324.152975672676
 20
20103.36011228397
 30
0.0
 11
14249.14984143492
 21
20103.36011228397
 31
0.0
  0
LINE
  5
1A1
330
22
100
AcDbEntity
  8
_0-2_メッセン
  6
Continuous
 62
     6
100
AcDbLine
 10
14324.15380047209
 20
20103.36011228397
 30
0.0
 11
21249.15066623433
 21
20103.36011228397
 31
0.0
  0
LINE
  5
1A2
330
22
100
AcDbEntity
  8
_0-2_メッセン
  6
Continuous
 62
     6
100
AcDbLine
 10
7336.65116111398
 20
15813.35981535618
 30
0.0
 11
7336.65116111398
 21
15613.35668111843
 31
0.0
  0
LINE
  5
1A3
330
22
100
AcDbEntity
  8
_0-2_メッセン
  6
Continuous
 62
     6
100
AcDbLine
 10
7236.650831194214
 20
15613.35668111843
 30
0.0
 11
7236.650831194214
 21
15813.35981535618
 31
0.0
  0
LINE
  5
1A4
330
22
100
AcDbEntity
  8
_0-2_メッセン
  6
Continuous
 62
     6
100
AcDbLine
 10
7780.093016054859
 20
15724.76151246345
 30
0.0
 11
7665.619930909166
 21
15560.76334681733
 31
0.0
  0
LINE
  5
1A5
330
22
100
AcDbEntity
  8
_0-2_メッセン
  6
Continuous
 62
     6
100
AcDbLine
 10
7583.618373687882
 20
15617.99865219106
 30
0.0
 11
7698.091458833572
 21
15781.99186904073
 31
0.0
  0
LINE
  5
1A6
330
22
100
AcDbEntity
  8
_0-2_メッセン
  6
Continuous
 62
     6
100
AcDbLine
 10
7647.524656679859
 20
15368.35661513447
 30
0.0
 11
7847.522842121155
 21
15368.35661513447
 31
0.0
  0
LINE
  5
1A7
330
22
100
AcDbEntity
  8
_0-2_メッセン
  6
Continuous
 62
     6
100
AcDbLine
 10
7847.522842121155
 20
15268.35628521471
 30
0.0
 11
7647.524656679859
 21
15268.35628521471
 31
0.0
  0
LINE
  5
1A8
330
22
100
AcDbEntity
  8
_0-2_メッセン
  6
Continuous
 62
     6
100
AcDbLine
 10
14236.65165599362
 20
15813.35981535618
 30
0.0
 11
14236.65165599362
 21
15613.35668111843
 31
0.0
  0
LINE
  5
1A9
330
22
100
AcDbEntity
  8
_0-2_メッセン
  6
Continuous
 62
     6
100
AcDbLine
 10
14336.65198591338
 20
15613.35668111843
 30
0.0
 11
14336.65198591338
 21
15813.35981535618
 31
0.0
  0
LINE
  5
1AA
330
22
100
AcDbEntity
  8
_0-2_メッセン
  6
Continuous
 62
     6
100
AcDbLine
 10
13793.20980105274
 20
15724.76151246345
 30
0.0
 11
13907.68288619844
 21
15560.76334681733
 31
0.0
  0
LINE
  5
1AB
330
22
100
AcDbEntity
  8
_0-2_メッセン
  6
Continuous
 62
     6
100
AcDbLine
 10
13989.68444341972
 20
15617.99865219106
 30
0.0
 11
13875.21135827403
 21
15781.99186904073
 31
0.0
  0
LINE
  5
1AC
330
22
100
AcDbEntity
  8
_0-2_メッセン
  6
Continuous
 62
     6
100
AcDbLine
 10
14780.09384085426
 20
15724.76151246345
 30
0.0
 11
14665.62075570857
 21
15560.76334681733
 31
0.0
  0
LINE
  5
1AD
330
22
100
AcDbEntity
  8
_0-2_メッセン
  6
Continuous
 62
     6
100
AcDbLine
 10
14583.61919848729
 20
15617.99865219106
 30
0.0
 11
14698.09228363298
 21
15781.99186904073
 31
0.0
  0
LINE
  5
1AE
330
22
100
AcDbEntity
  8
_0-2_メッセン
  6
Continuous
 62
     6
100
AcDbLine
 10
21236.65248079304
 20
15813.35981535618
 30
0.0
 11
21236.65248079304
 21
15613.35668111843
 31
0.0
  0
LINE
  5
1AF
330
22
100
AcDbEntity
  8
_0-2_メッセン
  6
Continuous
 62
     6
100
AcDbLine
 10
21336.6528107128
 20
15613.35668111843
 30
0.0
 11
21336.6528107128
 21
15813.35981535618
 31
0.0
  0
LINE
  5
1B0
330
22
100
AcDbEntity
  8
_0-2_メッセン
  6
Continuous
 62
     6
100
AcDbLine
 10
20793.21062585216
 20
15724.76151246345
 30
0.0
 11
20907.68371099785
 21
15560.76334681733
 31
0.0
  0
LINE
  5
1B1
330
22
100
AcDbEntity
  8
_0-2_メッセン
  6
Continuous
 62
     6
100
AcDbLine
 10
20989.68526821913
 20
15617.99865219106
 30
0.0
 11
20875.21218307344
 21
15781.99186904073
 31
0.0
  0
LINE
  5
1B2
330
22
100
AcDbEntity
  8
_0-2_メッセン
  6
Continuous
 62
     6
100
AcDbLine
 10
21780.09466565368
 20
15724.76151246345
 30
0.0
 11
21665.62158050798
 21
15560.76334681733
 31
0.0
  0
LINE
  5
1B3
330
22
100
AcDbEntity
  8
_0-2_メッセン
  6
Continuous
 62
     6
100
AcDbLine
 10
21583.6200232867
 20
15617.99865219106
 30
0.0
 11
21698.0931084324
 21
15781.99186904073
 31
0.0
  0
LINE
  5
1B4
330
22
100
AcDbEntity
  8
_0-2_メッセン
  6
Continuous
 62
     6
100
AcDbLine
 10
28236.65330559244
 20
15813.35981535618
 30
0.0
 11
28236.65330559244
 21
15613.35668111843
 31
0.0
  0
LINE
  5
1B5
330
22
100
AcDbEntity
  8
_0-2_メッセン
  6
Continuous
 62
     6
100
AcDbLine
 10
28336.6536355122
 20
15613.35668111843
 30
0.0
 11
28336.6536355122
 21
15813.35981535618
 31
0.0
  0
LINE
  5
1B6
330
22
100
AcDbEntity
  8
_0-2_メッセン
  6
Continuous
 62
     6
100
AcDbLine
 10
27793.21145065156
 20
15724.76151246345
 30
0.0
 11
27907.68453579726
 21
15560.76334681733
 31
0.0
  0
LINE
  5
1B7
330
22
100
AcDbEntity
  8
_0-2_メッセン
  6
Continuous
 62
     6
100
AcDbLine
 10
27989.68609301854
 20
15617.99865219106
 30
0.0
 11
27875.21300787284
 21
15781.99186904073
 31
0.0
  0
LINE
  5
1B8
330
22
100
AcDbEntity
  8
_0-2_メッセン
  6
Continuous
 62
     6
100
AcDbLine
 10
28780.09549045308
 20
15724.76151246345
 30
0.0
 11
28665.62240530741
 21
15560.76334681733
 31
0.0
  0
LINE
  5
1B9
330
22
100
AcDbEntity
  8
_0-2_メッセン
  6
Continuous
 62
     6
100
AcDbLine
 10
28583.6208480861
 20
15617.99865219106
 30
0.0
 11
28698.0939332318
 21
15781.99186904073
 31
0.0
  0
LINE
  5
1BA
330
22
100
AcDbEntity
  8
ADD_LINE
  6
DOT
 62
     5
100
AcDbLine
 10
30286.65264575291
 20
15318.35645017459
 30
0.0
 11
30286.65264575291
 21
24888.35758839778
 31
0.0
  0
LINE
  5
1BB
330
22
100
AcDbEntity
  8
_0-4_ハッチ
  6
Continuous
 62
     5
100
AcDbLine
 10
30286.65264575291
 20
15318.35645017459
 30
0.0
 11
24761.40801024828
 21
24888.35758839778
 31
0.0
  0
LINE
  5
1BC
330
22
100
AcDbEntity
  8
_0-4_ハッチ
  6
Continuous
 62
     5
100
AcDbLine
 10
30178.1403859345
 20
15506.30679065179
 30
0.0
 11
30178.1403859345
 21
16373.77142325314
 31
0.0
  0
LINE
  5
1BD
330
22
100
AcDbEntity
  8
_0-4_ハッチ
  6
Continuous
 62
     5
100
AcDbLine
 10
29994.85181171575
 20
15823.76960869444
 30
0.0
 11
30286.65264575291
 21
15823.76960869444
 31
0.0
  0
LINE
  5
1BE
330
22
100
AcDbEntity
  8
_0-4_ハッチ
  6
Continuous
 62
     5
100
AcDbLine
 10
30078.14005601474
 20
15679.51219209816
 30
0.0
 11
30078.14005601474
 21
16373.77142325314
 31
0.0
  0
LINE
  5
1BF
330
22
100
AcDbEntity
  8
_0-4_ハッチ
  6
Continuous
 62
     5
100
AcDbLine
 10
29978.13972609497
 20
15852.71759354453
 30
0.0
 11
29978.13972609497
 21
16373.77142325314
 31
0.0
  0
LINE
  5
1C0
330
22
100
AcDbEntity
  8
_0-4_ハッチ
  6
Continuous
 62
     5
100
AcDbLine
 10
29879.38154408484
 20
16023.77026853397
 30
0.0
 11
30286.65264575291
 21
16023.77026853397
 31
0.0
  0
LINE
  5
1C1
330
22
100
AcDbEntity
  8
_0-4_ハッチ
  6
Continuous
 62
     5
100
AcDbLine
 10
29821.64641026939
 20
16123.77059845373
 30
0.0
 11
30286.65264575291
 21
16123.77059845373
 31
0.0
  0
LINE
  5
1C2
330
22
100
AcDbEntity
  8
_0-4_ハッチ
  6
Continuous
 62
     5
100
AcDbLine
 10
29878.13939617522
 20
16025.92299499089
 30
0.0
 11
29878.13939617522
 21
16373.77142325314
 31
0.0
  0
LINE
  5
1C3
330
22
100
AcDbEntity
  8
_0-4_ハッチ
  6
Continuous
 62
     5
100
AcDbLine
 10
29763.91127645392
 20
16223.77092837349
 30
0.0
 11
30286.65264575291
 21
16223.77092837349
 31
0.0
  0
LINE
  5
1C4
330
22
100
AcDbEntity
  8
_0-4_ハッチ
  6
Continuous
 62
     5
100
AcDbLine
 10
29706.17614263847
 20
16323.77125829326
 30
0.0
 11
30286.65264575291
 21
16323.77125829326
 31
0.0
  0
LINE
  5
1C5
330
22
100
AcDbEntity
  8
_0-4_ハッチ
  6
Continuous
 62
     5
100
AcDbLine
 10
29778.13906625545
 20
16273.77109333338
 30
0.0
 11
29778.13906625545
 21
16373.77142325314
 31
0.0
  0
LINE
  5
1C6
330
22
100
AcDbEntity
  8
_0-4_ハッチ
  6
Continuous
 62
     5
100
AcDbLine
 10
29648.44100882302
 20
16423.77158821302
 30
0.0
 11
30286.65264575291
 21
16423.77158821302
 31
0.0
  0
LINE
  5
1C7
330
22
100
AcDbEntity
  8
_0-4_ハッチ
  6
Continuous
 62
     5
100
AcDbLine
 10
29878.14187057344
 20
16025.91804619444
 30
0.0
 11
29878.14187057344
 21
17573.77538229031
 31
0.0
  0
LINE
  5
1C8
330
22
100
AcDbEntity
  8
_0-4_ハッチ
  6
Continuous
 62
     5
100
AcDbLine
 10
29978.1422004932
 20
15852.71264474807
 30
0.0
 11
29978.1422004932
 21
17573.77538229031
 31
0.0
  0
LINE
  5
1C9
330
22
100
AcDbEntity
  8
_0-4_ハッチ
  6
Continuous
 62
     5
100
AcDbLine
 10
30078.14253041297
 20
16373.77142325314
 30
0.0
 11
30078.14253041297
 21
17573.77538229031
 31
0.0
  0
LINE
  5
1CA
330
22
100
AcDbEntity
  8
_0-4_ハッチ
  6
Continuous
 62
     5
100
AcDbLine
 10
30178.14286033273
 20
16373.77142325314
 30
0.0
 11
30178.14286033273
 21
17573.77538229031
 31
0.0
  0
LINE
  5
1CB
330
22
100
AcDbEntity
  8
_0-4_ハッチ
  6
Continuous
 62
     5
100
AcDbLine
 10
29590.70587500757
 20
16523.77191813279
 30
0.0
 11
30286.65264575291
 21
16523.77191813279
 31
0.0
  0
LINE
  5
1CC
330
22
100
AcDbEntity
  8
_0-4_ハッチ
  6
Continuous
 62
     5
100
AcDbLine
 10
29678.14121073392
 20
16372.32884908718
 30
0.0
 11
29678.14121073392
 21
17573.77538229031
 31
0.0
  0
LINE
  5
1CD
330
22
100
AcDbEntity
  8
_0-4_ハッチ
  6
Continuous
 62
     5
100
AcDbLine
 10
29778.14154065368
 20
16199.12344764081
 30
0.0
 11
29778.14154065368
 21
17573.77538229031
 31
0.0
  0
LINE
  5
1CE
330
22
100
AcDbEntity
  8
_0-4_ハッチ
  6
Continuous
 62
     5
100
AcDbLine
 10
29532.9707411921
 20
16623.77224805255
 30
0.0
 11
30286.65264575291
 21
16623.77224805255
 31
0.0
  0
LINE
  5
1CF
330
22
100
AcDbEntity
  8
_0-4_ハッチ
  6
Continuous
 62
     5
100
AcDbLine
 10
29475.23560737665
 20
16723.77257797232
 30
0.0
 11
30286.65264575291
 21
16723.77257797232
 31
0.0
  0
LINE
  5
1D0
330
22
100
AcDbEntity
  8
_0-4_ハッチ
  6
Continuous
 62
     5
100
AcDbLine
 10
29578.14088081414
 20
16545.53425053355
 30
0.0
 11
29578.14088081414
 21
17573.77538229031
 31
0.0
  0
LINE
  5
1D1
330
22
100
AcDbEntity
  8
_0-4_ハッチ
  6
Continuous
 62
     5
100
AcDbLine
 10
29417.5004735612
 20
16823.77290789208
 30
0.0
 11
30286.65264575291
 21
16823.77290789208
 31
0.0
  0
LINE
  5
1D2
330
22
100
AcDbEntity
  8
_0-4_ハッチ
  6
Continuous
 62
     5
100
AcDbLine
 10
29478.14055089439
 20
16718.73965197992
 30
0.0
 11
29478.14055089439
 21
17573.77538229031
 31
0.0
  0
LINE
  5
1D3
330
22
100
AcDbEntity
  8
_0-4_ハッチ
  6
Continuous
 62
     5
100
AcDbLine
 10
29359.76533974574
 20
16923.77323781184
 30
0.0
 11
30286.65264575291
 21
16923.77323781184
 31
0.0
  0
LINE
  5
1D4
330
22
100
AcDbEntity
  8
_0-4_ハッチ
  6
Continuous
 62
     5
100
AcDbLine
 10
29302.03020593029
 20
17023.7735677316
 30
0.0
 11
30286.65264575291
 21
17023.7735677316
 31
0.0
  0
LINE
  5
1D5
330
22
100
AcDbEntity
  8
_0-4_ハッチ
  6
Continuous
 62
     5
100
AcDbLine
 10
29378.14022097462
 20
16891.94752782451
 30
0.0
 11
29378.14022097462
 21
17573.77538229031
 31
0.0
  0
LINE
  5
1D6
330
22
100
AcDbEntity
  8
_0-4_ハッチ
  6
Continuous
 62
     5
100
AcDbLine
 10
29244.29507211483
 20
17123.77389765137
 30
0.0
 11
30286.65264575291
 21
17123.77389765137
 31
0.0
  0
LINE
  5
1D7
330
22
100
AcDbEntity
  8
_0-4_ハッチ
  6
Continuous
 62
     5
100
AcDbLine
 10
29186.55993829936
 20
17223.77422757113
 30
0.0
 11
30286.65264575291
 21
17223.77422757113
 31
0.0
  0
LINE
  5
1D8
330
22
100
AcDbEntity
  8
_0-4_ハッチ
  6
Continuous
 62
     5
100
AcDbLine
 10
29278.13989105486
 20
17065.15292927088
 30
0.0
 11
29278.13989105486
 21
17573.77538229031
 31
0.0
  0
LINE
  5
1D9
330
22
100
AcDbEntity
  8
_0-4_ハッチ
  6
Continuous
 62
     5
100
AcDbLine
 10
29128.82480448392
 20
17323.77455749089
 30
0.0
 11
30286.65264575291
 21
17323.77455749089
 31
0.0
  0
LINE
  5
1DA
330
22
100
AcDbEntity
  8
_0-4_ハッチ
  6
Continuous
 62
     5
100
AcDbLine
 10
29071.08967066845
 20
17423.77488741066
 30
0.0
 11
30286.65264575291
 21
17423.77488741066
 31
0.0
  0
LINE
  5
1DB
330
22
100
AcDbEntity
  8
_0-4_ハッチ
  6
Continuous
 62
     5
100
AcDbLine
 10
29178.1395611351
 20
17238.35833071725
 30
0.0
 11
29178.1395611351
 21
17573.77538229031
 31
0.0
  0
LINE
  5
1DC
330
22
100
AcDbEntity
  8
_0-4_ハッチ
  6
Continuous
 62
     5
100
AcDbLine
 10
29013.354536853
 20
17523.77521733042
 30
0.0
 11
30286.65264575291
 21
17523.77521733042
 31
0.0
  0
LINE
  5
1DD
330
22
100
AcDbEntity
  8
_0-4_ハッチ
  6
Continuous
 62
     5
100
AcDbLine
 10
29078.13923121532
 20
17473.77505237054
 30
0.0
 11
29078.13923121532
 21
17573.77538229031
 31
0.0
  0
LINE
  5
1DE
330
22
100
AcDbEntity
  8
_0-4_ハッチ
  6
Continuous
 62
     5
100
AcDbLine
 10
28955.61940303754
 20
17623.77554725019
 30
0.0
 11
30286.65264575291
 21
17623.77554725019
 31
0.0
  0
LINE
  5
1DF
330
22
100
AcDbEntity
  8
_0-4_ハッチ
  6
Continuous
 62
     5
100
AcDbLine
 10
29078.14170561357
 20
17411.55878336716
 30
0.0
 11
29078.14170561357
 21
18973.780001167
 31
0.0
  0
LINE
  5
1E0
330
22
100
AcDbEntity
  8
_0-4_ハッチ
  6
Continuous
 62
     5
100
AcDbLine
 10
29178.14203553332
 20
17238.35338192079
 30
0.0
 11
29178.14203553332
 21
18973.780001167
 31
0.0
  0
LINE
  5
1E1
330
22
100
AcDbEntity
  8
_0-4_ハッチ
  6
Continuous
 62
     5
100
AcDbLine
 10
29378.14269537284
 20
17573.77538229031
 30
0.0
 11
29378.14269537284
 21
18973.780001167
 31
0.0
  0
LINE
  5
1E2
330
22
100
AcDbEntity
  8
_0-4_ハッチ
  6
Continuous
 62
     5
100
AcDbLine
 10
29478.14302529261
 20
17573.77538229031
 30
0.0
 11
29478.14302529261
 21
18973.780001167
 31
0.0
  0
LINE
  5
1E3
330
22
100
AcDbEntity
  8
_0-4_ハッチ
  6
Continuous
 62
     5
100
AcDbLine
 10
29578.14335521237
 20
17573.77538229031
 30
0.0
 11
29578.14335521237
 21
18973.780001167
 31
0.0
  0
LINE
  5
1E4
330
22
100
AcDbEntity
  8
_0-4_ハッチ
  6
Continuous
 62
     5
100
AcDbLine
 10
29678.14368513213
 20
17573.77538229031
 30
0.0
 11
29678.14368513213
 21
18973.780001167
 31
0.0
  0
LINE
  5
1E5
330
22
100
AcDbEntity
  8
_0-4_ハッチ
  6
Continuous
 62
     5
100
AcDbLine
 10
29778.1440150519
 20
17573.77538229031
 30
0.0
 11
29778.1440150519
 21
18973.780001167
 31
0.0
  0
LINE
  5
1E6
330
22
100
AcDbEntity
  8
_0-4_ハッチ
  6
Continuous
 62
     5
100
AcDbLine
 10
29878.14434497166
 20
17573.77538229031
 30
0.0
 11
29878.14434497166
 21
18973.780001167
 31
0.0
  0
LINE
  5
1E7
330
22
100
AcDbEntity
  8
_0-4_ハッチ
  6
Continuous
 62
     5
100
AcDbLine
 10
29978.14467489142
 20
17573.77538229031
 30
0.0
 11
29978.14467489142
 21
18973.780001167
 31
0.0
  0
LINE
  5
1E8
330
22
100
AcDbEntity
  8
_0-4_ハッチ
  6
Continuous
 62
     5
100
AcDbLine
 10
30078.14500481119
 20
17573.77538229031
 30
0.0
 11
30078.14500481119
 21
18973.780001167
 31
0.0
  0
LINE
  5
1E9
330
22
100
AcDbEntity
  8
_0-4_ハッチ
  6
Continuous
 62
     5
100
AcDbLine
 10
30178.14533473096
 20
17573.77538229031
 30
0.0
 11
30178.14533473096
 21
18973.780001167
 31
0.0
  0
LINE
  5
1EA
330
22
100
AcDbEntity
  8
_0-4_ハッチ
  6
Continuous
 62
     5
100
AcDbLine
 10
28897.88426922209
 20
17723.77587716995
 30
0.0
 11
30286.65264575291
 21
17723.77587716995
 31
0.0
  0
LINE
  5
1EB
330
22
100
AcDbEntity
  8
_0-4_ハッチ
  6
Continuous
 62
     5
100
AcDbLine
 10
28978.1413756938
 20
17584.76418481353
 30
0.0
 11
28978.1413756938
 21
18973.780001167
 31
0.0
  0
LINE
  5
1EC
330
22
100
AcDbEntity
  8
_0-4_ハッチ
  6
Continuous
 62
     5
100
AcDbLine
 10
29278.14236545308
 20
17065.14798047443
 30
0.0
 11
29278.14236545308
 21
18973.780001167
 31
0.0
  0
LINE
  5
1ED
330
22
100
AcDbEntity
  8
_0-4_ハッチ
  6
Continuous
 62
     5
100
AcDbLine
 10
28840.14913540663
 20
17823.7762070897
 30
0.0
 11
30286.65264575291
 21
17823.7762070897
 31
0.0
  0
LINE
  5
1EE
330
22
100
AcDbEntity
  8
_0-4_ハッチ
  6
Continuous
 62
     5
100
AcDbLine
 10
28782.41400159117
 20
17923.77653700946
 30
0.0
 11
30286.65264575291
 21
17923.77653700946
 31
0.0
  0
LINE
  5
1EF
330
22
100
AcDbEntity
  8
_0-4_ハッチ
  6
Continuous
 62
     5
100
AcDbLine
 10
28878.14104577404
 20
17757.96958625989
 30
0.0
 11
28878.14104577404
 21
18973.780001167
 31
0.0
  0
LINE
  5
1F0
330
22
100
AcDbEntity
  8
_0-4_ハッチ
  6
Continuous
 62
     5
100
AcDbLine
 10
28724.67886777572
 20
18023.77686692924
 30
0.0
 11
30286.65264575291
 21
18023.77686692924
 31
0.0
  0
LINE
  5
1F1
330
22
100
AcDbEntity
  8
_0-4_ハッチ
  6
Continuous
 62
     5
100
AcDbLine
 10
28778.14071585427
 20
17931.17746210449
 30
0.0
 11
28778.14071585427
 21
18973.780001167
 31
0.0
  0
LINE
  5
1F2
330
22
100
AcDbEntity
  8
_0-4_ハッチ
  6
Continuous
 62
     5
100
AcDbLine
 10
28666.94373396025
 20
18123.77719684899
 30
0.0
 11
30286.65264575291
 21
18123.77719684899
 31
0.0
  0
LINE
  5
1F3
330
22
100
AcDbEntity
  8
_0-4_ハッチ
  6
Continuous
 62
     5
100
AcDbLine
 10
28609.20860014481
 20
18223.77752676877
 30
0.0
 11
30286.65264575291
 21
18223.77752676877
 31
0.0
  0
LINE
  5
1F4
330
22
100
AcDbEntity
  8
_0-4_ハッチ
  6
Continuous
 62
     5
100
AcDbLine
 10
28678.1403859345
 20
18104.38286355086
 30
0.0
 11
28678.1403859345
 21
18973.780001167
 31
0.0
  0
LINE
  5
1F5
330
22
100
AcDbEntity
  8
_0-4_ハッチ
  6
Continuous
 62
     5
100
AcDbLine
 10
28551.47346632935
 20
18323.77785668853
 30
0.0
 11
30286.65264575291
 21
18323.77785668853
 31
0.0
  0
LINE
  5
1F6
330
22
100
AcDbEntity
  8
_0-4_ハッチ
  6
Continuous
 62
     5
100
AcDbLine
 10
28493.73585811566
 20
18423.77818660829
 30
0.0
 11
30286.65264575291
 21
18423.77818660829
 31
0.0
  0
LINE
  5
1F7
330
22
100
AcDbEntity
  8
_0-4_ハッチ
  6
Continuous
 62
     5
100
AcDbLine
 10
28578.14005601474
 20
18277.58826499723
 30
0.0
 11
28578.14005601474
 21
18973.780001167
 31
0.0
  0
LINE
  5
1F8
330
22
100
AcDbEntity
  8
_0-4_ハッチ
  6
Continuous
 62
     5
100
AcDbLine
 10
28436.00072430021
 20
18523.77851652806
 30
0.0
 11
30286.65264575291
 21
18523.77851652806
 31
0.0
  0
LINE
  5
1F9
330
22
100
AcDbEntity
  8
_0-4_ハッチ
  6
Continuous
 62
     5
100
AcDbLine
 10
28378.26559048476
 20
18623.77884644782
 30
0.0
 11
30286.65264575291
 21
18623.77884644782
 31
0.0
  0
LINE
  5
1FA
330
22
100
AcDbEntity
  8
_0-4_ハッチ
  6
Continuous
 62
     5
100
AcDbLine
 10
28478.13972609497
 20
18450.79119204537
 30
0.0
 11
28478.13972609497
 21
18973.780001167
 31
0.0
  0
LINE
  5
1FB
330
22
100
AcDbEntity
  8
_0-4_ハッチ
  6
Continuous
 62
     5
100
AcDbLine
 10
28320.5304566693
 20
18723.77917636758
 30
0.0
 11
30286.65264575291
 21
18723.77917636758
 31
0.0
  0
LINE
  5
1FC
330
22
100
AcDbEntity
  8
_0-4_ハッチ
  6
Continuous
 62
     5
100
AcDbLine
 10
28378.13939617522
 20
18673.7790114077
 30
0.0
 11
28378.13939617522
 21
18973.780001167
 31
0.0
  0
LINE
  5
1FD
330
22
100
AcDbEntity
  8
_0-4_ハッチ
  6
Continuous
 62
     5
100
AcDbLine
 10
28262.79532285385
 20
18823.77950628735
 30
0.0
 11
30286.65264575291
 21
18823.77950628735
 31
0.0
  0
LINE
  5
1FE
330
22
100
AcDbEntity
  8
_0-4_ハッチ
  6
Continuous
 62
     5
100
AcDbLine
 10
28205.06018903838
 20
18923.77983620711
 30
0.0
 11
30286.65264575291
 21
18923.77983620711
 31
0.0
  0
LINE
  5
1FF
330
22
100
AcDbEntity
  8
_0-4_ハッチ
  6
Continuous
 62
     5
100
AcDbLine
 10
28278.13906625545
 20
18873.77967124723
 30
0.0
 11
28278.13906625545
 21
18973.780001167
 31
0.0
  0
LINE
  5
200
330
22
100
AcDbEntity
  8
_0-4_ハッチ
  6
Continuous
 62
     5
100
AcDbLine
 10
28147.32505522293
 20
19023.78016612687
 30
0.0
 11
30286.65264575291
 21
19023.78016612687
 31
0.0
  0
LINE
  5
201
330
22
100
AcDbEntity
  8
_0-4_ハッチ
  6
Continuous
 62
     5
100
AcDbLine
 10
28278.14154065368
 20
18797.19952053988
 30
0.0
 11
28278.14154065368
 21
20173.78396020416
 31
0.0
  0
LINE
  5
202
330
22
100
AcDbEntity
  8
_0-4_ハッチ
  6
Continuous
 62
     5
100
AcDbLine
 10
28478.1422004932
 20
18973.780001167
 30
0.0
 11
28478.1422004932
 21
20173.78396020416
 31
0.0
  0
LINE
  5
203
330
22
100
AcDbEntity
  8
_0-4_ハッチ
  6
Continuous
 62
     5
100
AcDbLine
 10
28578.14253041296
 20
18973.780001167
 30
0.0
 11
28578.14253041296
 21
20173.78396020416
 31
0.0
  0
LINE
  5
204
330
22
100
AcDbEntity
  8
_0-4_ハッチ
  6
Continuous
 62
     5
100
AcDbLine
 10
28678.14286033273
 20
18973.780001167
 30
0.0
 11
28678.14286033273
 21
20173.78396020416
 31
0.0
  0
LINE
  5
205
330
22
100
AcDbEntity
  8
_0-4_ハッチ
  6
Continuous
 62
     5
100
AcDbLine
 10
28778.14319025249
 20
18973.780001167
 30
0.0
 11
28778.14319025249
 21
20173.78396020416
 31
0.0
  0
LINE
  5
206
330
22
100
AcDbEntity
  8
_0-4_ハッチ
  6
Continuous
 62
     5
100
AcDbLine
 10
28878.14352017226
 20
18973.780001167
 30
0.0
 11
28878.14352017226
 21
20173.78396020416
 31
0.0
  0
LINE
  5
207
330
22
100
AcDbEntity
  8
_0-4_ハッチ
  6
Continuous
 62
     5
100
AcDbLine
 10
28978.14385009203
 20
18973.780001167
 30
0.0
 11
28978.14385009203
 21
20173.78396020416
 31
0.0
  0
LINE
  5
208
330
22
100
AcDbEntity
  8
_0-4_ハッチ
  6
Continuous
 62
     5
100
AcDbLine
 10
29078.14418001178
 20
18973.780001167
 30
0.0
 11
29078.14418001178
 21
20173.78396020416
 31
0.0
  0
LINE
  5
209
330
22
100
AcDbEntity
  8
_0-4_ハッチ
  6
Continuous
 62
     5
100
AcDbLine
 10
29178.14450993154
 20
18973.780001167
 30
0.0
 11
29178.14450993154
 21
20173.78396020416
 31
0.0
  0
LINE
  5
20A
330
22
100
AcDbEntity
  8
_0-4_ハッチ
  6
Continuous
 62
     5
100
AcDbLine
 10
29278.14483985131
 20
18973.780001167
 30
0.0
 11
29278.14483985131
 21
20173.78396020416
 31
0.0
  0
LINE
  5
20B
330
22
100
AcDbEntity
  8
_0-4_ハッチ
  6
Continuous
 62
     5
100
AcDbLine
 10
29378.14516977107
 20
18973.780001167
 30
0.0
 11
29378.14516977107
 21
20173.78396020416
 31
0.0
  0
LINE
  5
20C
330
22
100
AcDbEntity
  8
_0-4_ハッチ
  6
Continuous
 62
     5
100
AcDbLine
 10
29478.14549969084
 20
18973.780001167
 30
0.0
 11
29478.14549969084
 21
20173.78396020416
 31
0.0
  0
LINE
  5
20D
330
22
100
AcDbEntity
  8
_0-4_ハッチ
  6
Continuous
 62
     5
100
AcDbLine
 10
29578.1458296106
 20
18973.780001167
 30
0.0
 11
29578.1458296106
 21
20173.78396020416
 31
0.0
  0
LINE
  5
20E
330
22
100
AcDbEntity
  8
_0-4_ハッチ
  6
Continuous
 62
     5
100
AcDbLine
 10
29678.14615953037
 20
18973.780001167
 30
0.0
 11
29678.14615953037
 21
20173.78396020416
 31
0.0
  0
LINE
  5
20F
330
22
100
AcDbEntity
  8
_0-4_ハッチ
  6
Continuous
 62
     5
100
AcDbLine
 10
29778.14648945014
 20
18973.780001167
 30
0.0
 11
29778.14648945014
 21
20173.78396020416
 31
0.0
  0
LINE
  5
210
330
22
100
AcDbEntity
  8
_0-4_ハッチ
  6
Continuous
 62
     5
100
AcDbLine
 10
29878.14681936989
 20
18973.780001167
 30
0.0
 11
29878.14681936989
 21
20173.78396020416
 31
0.0
  0
LINE
  5
211
330
22
100
AcDbEntity
  8
_0-4_ハッチ
  6
Continuous
 62
     5
100
AcDbLine
 10
29978.14714928965
 20
18973.780001167
 30
0.0
 11
29978.14714928965
 21
20173.78396020416
 31
0.0
  0
LINE
  5
212
330
22
100
AcDbEntity
  8
_0-4_ハッチ
  6
Continuous
 62
     5
100
AcDbLine
 10
30078.14747920941
 20
18973.780001167
 30
0.0
 11
30078.14747920941
 21
20173.78396020416
 31
0.0
  0
LINE
  5
213
330
22
100
AcDbEntity
  8
_0-4_ハッチ
  6
Continuous
 62
     5
100
AcDbLine
 10
30178.14780912918
 20
18973.780001167
 30
0.0
 11
30178.14780912918
 21
20173.78396020416
 31
0.0
  0
LINE
  5
214
330
22
100
AcDbEntity
  8
_0-4_ハッチ
  6
Continuous
 62
     5
100
AcDbLine
 10
28089.58992140747
 20
19123.78049604664
 30
0.0
 11
30286.65264575291
 21
19123.78049604664
 31
0.0
  0
LINE
  5
215
330
22
100
AcDbEntity
  8
_0-4_ハッチ
  6
Continuous
 62
     5
100
AcDbLine
 10
28178.14121073391
 20
18970.40492198625
 30
0.0
 11
28178.14121073391
 21
20173.78396020416
 31
0.0
  0
LINE
  5
216
330
22
100
AcDbEntity
  8
_0-4_ハッチ
  6
Continuous
 62
     5
100
AcDbLine
 10
28031.85478759203
 20
19223.7808259664
 30
0.0
 11
30286.65264575291
 21
19223.7808259664
 31
0.0
  0
LINE
  5
217
330
22
100
AcDbEntity
  8
_0-4_ハッチ
  6
Continuous
 62
     5
100
AcDbLine
 10
28378.14187057344
 20
18623.99411909352
 30
0.0
 11
28378.14187057344
 21
20173.78396020416
 31
0.0
  0
LINE
  5
218
330
22
100
AcDbEntity
  8
_0-4_ハッチ
  6
Continuous
 62
     5
100
AcDbLine
 10
27974.11965377656
 20
19323.78115588616
 30
0.0
 11
30286.65264575291
 21
19323.78115588616
 31
0.0
  0
LINE
  5
219
330
22
100
AcDbEntity
  8
_0-4_ハッチ
  6
Continuous
 62
     5
100
AcDbLine
 10
28078.14088081414
 20
19143.61032343262
 30
0.0
 11
28078.14088081414
 21
20173.78396020416
 31
0.0
  0
LINE
  5
21A
330
22
100
AcDbEntity
  8
_0-4_ハッチ
  6
Continuous
 62
     5
100
AcDbLine
 10
27916.3845199611
 20
19423.78148580593
 30
0.0
 11
30286.65264575291
 21
19423.78148580593
 31
0.0
  0
LINE
  5
21B
330
22
100
AcDbEntity
  8
_0-4_ハッチ
  6
Continuous
 62
     5
100
AcDbLine
 10
27978.14055089439
 20
19316.81819927721
 30
0.0
 11
27978.14055089439
 21
20173.78396020416
 31
0.0
  0
LINE
  5
21C
330
22
100
AcDbEntity
  8
_0-4_ハッチ
  6
Continuous
 62
     5
100
AcDbLine
 10
27858.64938614565
 20
19523.78181572569
 30
0.0
 11
30286.65264575291
 21
19523.78181572569
 31
0.0
  0
LINE
  5
21D
330
22
100
AcDbEntity
  8
_0-4_ハッチ
  6
Continuous
 62
     5
100
AcDbLine
 10
27800.91425233019
 20
19623.78214564544
 30
0.0
 11
30286.65264575291
 21
19623.78214564544
 31
0.0
  0
LINE
  5
21E
330
22
100
AcDbEntity
  8
_0-4_ハッチ
  6
Continuous
 62
     5
100
AcDbLine
 10
27878.14022097462
 20
19490.02360072358
 30
0.0
 11
27878.14022097462
 21
20173.78396020416
 31
0.0
  0
LINE
  5
21F
330
22
100
AcDbEntity
  8
_0-4_ハッチ
  6
Continuous
 62
     5
100
AcDbLine
 10
27743.17911851474
 20
19723.78247556522
 30
0.0
 11
30286.65264575291
 21
19723.78247556522
 31
0.0
  0
LINE
  5
220
330
22
100
AcDbEntity
  8
_0-4_ハッチ
  6
Continuous
 62
     5
100
AcDbLine
 10
27685.44398469928
 20
19823.78280548498
 30
0.0
 11
30286.65264575291
 21
19823.78280548498
 31
0.0
  0
LINE
  5
221
330
22
100
AcDbEntity
  8
_0-4_ハッチ
  6
Continuous
 62
     5
100
AcDbLine
 10
27778.13989105486
 20
19663.22900216995
 30
0.0
 11
27778.13989105486
 21
20173.78396020416
 31
0.0
  0
LINE
  5
222
330
22
100
AcDbEntity
  8
_0-4_ハッチ
  6
Continuous
 62
     5
100
AcDbLine
 10
27627.70885088383
 20
19923.78313540475
 30
0.0
 11
30286.65264575291
 21
19923.78313540475
 31
0.0
  0
LINE
  5
223
330
22
100
AcDbEntity
  8
_0-4_ハッチ
  6
Continuous
 62
     5
100
AcDbLine
 10
27678.13956113509
 20
19873.78297044487
 30
0.0
 11
27678.13956113509
 21
20173.78396020416
 31
0.0
  0
LINE
  5
224
330
22
100
AcDbEntity
  8
_0-4_ハッチ
  6
Continuous
 62
     5
100
AcDbLine
 10
27569.97371706837
 20
20023.78346532451
 30
0.0
 11
30286.65264575291
 21
20023.78346532451
 31
0.0
  0
LINE
  5
225
330
22
100
AcDbEntity
  8
_0-4_ハッチ
  6
Continuous
 62
     5
100
AcDbLine
 10
27512.23858325291
 20
20123.78379524427
 30
0.0
 11
30286.65264575291
 21
20123.78379524427
 31
0.0
  0
LINE
  5
226
330
22
100
AcDbEntity
  8
_0-4_ハッチ
  6
Continuous
 62
     5
100
AcDbLine
 10
27578.13923121533
 20
20073.7836302844
 30
0.0
 11
27578.13923121533
 21
20173.78396020416
 31
0.0
  0
LINE
  5
227
330
22
100
AcDbEntity
  8
_0-4_ハッチ
  6
Continuous
 62
     5
100
AcDbLine
 10
27454.50344943745
 20
20223.78412516404
 30
0.0
 11
30286.65264575291
 21
20223.78412516404
 31
0.0
  0
LINE
  5
228
330
22
100
AcDbEntity
  8
_0-4_ハッチ
  6
Continuous
 62
     5
100
AcDbLine
 10
27578.14170561356
 20
20009.632381868
 30
0.0
 11
27578.14170561356
 21
21573.78857908085
 31
0.0
  0
LINE
  5
229
330
22
100
AcDbEntity
  8
_0-4_ハッチ
  6
Continuous
 62
     5
100
AcDbLine
 10
27778.14236545308
 20
20173.78396020416
 30
0.0
 11
27778.14236545308
 21
21573.78857908085
 31
0.0
  0
LINE
  5
22A
330
22
100
AcDbEntity
  8
_0-4_ハッチ
  6
Continuous
 62
     5
100
AcDbLine
 10
27878.14269537284
 20
20173.78396020416
 30
0.0
 11
27878.14269537284
 21
21573.78857908085
 31
0.0
  0
LINE
  5
22B
330
22
100
AcDbEntity
  8
_0-4_ハッチ
  6
Continuous
 62
     5
100
AcDbLine
 10
27978.14302529261
 20
20173.78396020416
 30
0.0
 11
27978.14302529261
 21
21573.78857908085
 31
0.0
  0
LINE
  5
22C
330
22
100
AcDbEntity
  8
_0-4_ハッチ
  6
Continuous
 62
     5
100
AcDbLine
 10
28078.14335521237
 20
20173.78396020416
 30
0.0
 11
28078.14335521237
 21
21573.78857908085
 31
0.0
  0
LINE
  5
22D
330
22
100
AcDbEntity
  8
_0-4_ハッチ
  6
Continuous
 62
     5
100
AcDbLine
 10
28178.14368513213
 20
20173.78396020416
 30
0.0
 11
28178.14368513213
 21
21573.78857908085
 31
0.0
  0
LINE
  5
22E
330
22
100
AcDbEntity
  8
_0-4_ハッチ
  6
Continuous
 62
     5
100
AcDbLine
 10
28278.1440150519
 20
20173.78396020416
 30
0.0
 11
28278.1440150519
 21
21573.78857908085
 31
0.0
  0
LINE
  5
22F
330
22
100
AcDbEntity
  8
_0-4_ハッチ
  6
Continuous
 62
     5
100
AcDbLine
 10
28378.14434497166
 20
20173.78396020416
 30
0.0
 11
28378.14434497166
 21
21573.78857908085
 31
0.0
  0
LINE
  5
230
330
22
100
AcDbEntity
  8
_0-4_ハッチ
  6
Continuous
 62
     5
100
AcDbLine
 10
28478.14467489143
 20
20173.78396020416
 30
0.0
 11
28478.14467489143
 21
21573.78857908085
 31
0.0
  0
LINE
  5
231
330
22
100
AcDbEntity
  8
_0-4_ハッチ
  6
Continuous
 62
     5
100
AcDbLine
 10
28578.14500481119
 20
20173.78396020416
 30
0.0
 11
28578.14500481119
 21
21573.78857908085
 31
0.0
  0
LINE
  5
232
330
22
100
AcDbEntity
  8
_0-4_ハッチ
  6
Continuous
 62
     5
100
AcDbLine
 10
28678.14533473096
 20
20173.78396020416
 30
0.0
 11
28678.14533473096
 21
21573.78857908085
 31
0.0
  0
LINE
  5
233
330
22
100
AcDbEntity
  8
_0-4_ハッチ
  6
Continuous
 62
     5
100
AcDbLine
 10
28778.14566465072
 20
20173.78396020416
 30
0.0
 11
28778.14566465072
 21
21573.78857908085
 31
0.0
  0
LINE
  5
234
330
22
100
AcDbEntity
  8
_0-4_ハッチ
  6
Continuous
 62
     5
100
AcDbLine
 10
28878.14599457048
 20
20173.78396020416
 30
0.0
 11
28878.14599457048
 21
21573.78857908085
 31
0.0
  0
LINE
  5
235
330
22
100
AcDbEntity
  8
_0-4_ハッチ
  6
Continuous
 62
     5
100
AcDbLine
 10
28978.14632449025
 20
20173.78396020416
 30
0.0
 11
28978.14632449025
 21
21573.78857908085
 31
0.0
  0
LINE
  5
236
330
22
100
AcDbEntity
  8
_0-4_ハッチ
  6
Continuous
 62
     5
100
AcDbLine
 10
29078.14665441001
 20
20173.78396020416
 30
0.0
 11
29078.14665441001
 21
21573.78857908085
 31
0.0
  0
LINE
  5
237
330
22
100
AcDbEntity
  8
_0-4_ハッチ
  6
Continuous
 62
     5
100
AcDbLine
 10
29178.14698432977
 20
20173.78396020416
 30
0.0
 11
29178.14698432977
 21
21573.78857908085
 31
0.0
  0
LINE
  5
238
330
22
100
AcDbEntity
  8
_0-4_ハッチ
  6
Continuous
 62
     5
100
AcDbLine
 10
29278.14731424954
 20
20173.78396020416
 30
0.0
 11
29278.14731424954
 21
21573.78857908085
 31
0.0
  0
LINE
  5
239
330
22
100
AcDbEntity
  8
_0-4_ハッチ
  6
Continuous
 62
     5
100
AcDbLine
 10
29378.1476441693
 20
20173.78396020416
 30
0.0
 11
29378.1476441693
 21
21573.78857908085
 31
0.0
  0
LINE
  5
23A
330
22
100
AcDbEntity
  8
_0-4_ハッチ
  6
Continuous
 62
     5
100
AcDbLine
 10
29478.14797408906
 20
20173.78396020416
 30
0.0
 11
29478.14797408906
 21
21573.78857908085
 31
0.0
  0
LINE
  5
23B
330
22
100
AcDbEntity
  8
_0-4_ハッチ
  6
Continuous
 62
     5
100
AcDbLine
 10
29578.14830400883
 20
20173.78396020416
 30
0.0
 11
29578.14830400883
 21
21573.78857908085
 31
0.0
  0
LINE
  5
23C
330
22
100
AcDbEntity
  8
_0-4_ハッチ
  6
Continuous
 62
     5
100
AcDbLine
 10
29678.14863392859
 20
20173.78396020416
 30
0.0
 11
29678.14863392859
 21
21573.78857908085
 31
0.0
  0
LINE
  5
23D
330
22
100
AcDbEntity
  8
_0-4_ハッチ
  6
Continuous
 62
     5
100
AcDbLine
 10
29778.14896384836
 20
20173.78396020416
 30
0.0
 11
29778.14896384836
 21
21573.78857908085
 31
0.0
  0
LINE
  5
23E
330
22
100
AcDbEntity
  8
_0-4_ハッチ
  6
Continuous
 62
     5
100
AcDbLine
 10
29878.14929376812
 20
20173.78396020416
 30
0.0
 11
29878.14929376812
 21
21573.78857908085
 31
0.0
  0
LINE
  5
23F
330
22
100
AcDbEntity
  8
_0-4_ハッチ
  6
Continuous
 62
     5
100
AcDbLine
 10
29978.14962368788
 20
20173.78396020416
 30
0.0
 11
29978.14962368788
 21
21573.78857908085
 31
0.0
  0
LINE
  5
240
330
22
100
AcDbEntity
  8
_0-4_ハッチ
  6
Continuous
 62
     5
100
AcDbLine
 10
30078.14995360765
 20
20173.78396020416
 30
0.0
 11
30078.14995360765
 21
21573.78857908085
 31
0.0
  0
LINE
  5
241
330
22
100
AcDbEntity
  8
_0-4_ハッチ
  6
Continuous
 62
     5
100
AcDbLine
 10
30178.15028352741
 20
20173.78396020416
 30
0.0
 11
30178.15028352741
 21
21573.78857908085
 31
0.0
  0
LINE
  5
242
330
22
100
AcDbEntity
  8
_0-4_ハッチ
  6
Continuous
 62
     5
100
AcDbLine
 10
27396.768315622
 20
20323.7844550838
 30
0.0
 11
30286.65264575291
 21
20323.7844550838
 31
0.0
  0
LINE
  5
243
330
22
100
AcDbEntity
  8
_0-4_ハッチ
  6
Continuous
 62
     5
100
AcDbLine
 10
27478.14137569379
 20
20182.8402577126
 30
0.0
 11
27478.14137569379
 21
21573.78857908085
 31
0.0
  0
LINE
  5
244
330
22
100
AcDbEntity
  8
_0-4_ハッチ
  6
Continuous
 62
     5
100
AcDbLine
 10
27339.03318180654
 20
20423.78478500356
 30
0.0
 11
30286.65264575291
 21
20423.78478500356
 31
0.0
  0
LINE
  5
245
330
22
100
AcDbEntity
  8
_0-4_ハッチ
  6
Continuous
 62
     5
100
AcDbLine
 10
27678.14203553332
 20
19836.42945481987
 30
0.0
 11
27678.14203553332
 21
21573.78857908085
 31
0.0
  0
LINE
  5
246
330
22
100
AcDbEntity
  8
_0-4_ハッチ
  6
Continuous
 62
     5
100
AcDbLine
 10
27281.29804799109
 20
20523.78511492333
 30
0.0
 11
30286.65264575291
 21
20523.78511492333
 31
0.0
  0
LINE
  5
247
330
22
100
AcDbEntity
  8
_0-4_ハッチ
  6
Continuous
 62
     5
100
AcDbLine
 10
27378.14104577404
 20
20356.04565915897
 30
0.0
 11
27378.14104577404
 21
21573.78857908085
 31
0.0
  0
LINE
  5
248
330
22
100
AcDbEntity
  8
_0-4_ハッチ
  6
Continuous
 62
     5
100
AcDbLine
 10
27223.56291417564
 20
20623.78544484309
 30
0.0
 11
30286.65264575291
 21
20623.78544484309
 31
0.0
  0
LINE
  5
249
330
22
100
AcDbEntity
  8
_0-4_ハッチ
  6
Continuous
 62
     5
100
AcDbLine
 10
27278.14071585427
 20
20529.25353500357
 30
0.0
 11
27278.14071585427
 21
21573.78857908085
 31
0.0
  0
LINE
  5
24A
330
22
100
AcDbEntity
  8
_0-4_ハッチ
  6
Continuous
 62
     5
100
AcDbLine
 10
27165.82530596196
 20
20723.78577476285
 30
0.0
 11
30286.65264575291
 21
20723.78577476285
 31
0.0
  0
LINE
  5
24B
330
22
100
AcDbEntity
  8
_0-4_ハッチ
  6
Continuous
 62
     5
100
AcDbLine
 10
27108.09264654471
 20
20823.78610468262
 30
0.0
 11
30286.65264575291
 21
20823.78610468262
 31
0.0
  0
LINE
  5
24C
330
22
100
AcDbEntity
  8
_0-4_ハッチ
  6
Continuous
 62
     5
100
AcDbLine
 10
27178.1403859345
 20
20702.45893644993
 30
0.0
 11
27178.1403859345
 21
21573.78857908085
 31
0.0
  0
LINE
  5
24D
330
22
100
AcDbEntity
  8
_0-4_ハッチ
  6
Continuous
 62
     5
100
AcDbLine
 10
27050.35751272927
 20
20923.78643460238
 30
0.0
 11
30286.65264575291
 21
20923.78643460238
 31
0.0
  0
LINE
  5
24E
330
22
100
AcDbEntity
  8
_0-4_ハッチ
  6
Continuous
 62
     5
100
AcDbLine
 10
26992.62237891381
 20
21023.78676452214
 30
0.0
 11
30286.65264575291
 21
21023.78676452214
 31
0.0
  0
LINE
  5
24F
330
22
100
AcDbEntity
  8
_0-4_ハッチ
  6
Continuous
 62
     5
100
AcDbLine
 10
27078.14005601474
 20
20875.66433789631
 30
0.0
 11
27078.14005601474
 21
21573.78857908085
 31
0.0
  0
LINE
  5
250
330
22
100
AcDbEntity
  8
_0-4_ハッチ
  6
Continuous
 62
     5
100
AcDbLine
 10
26934.88477070014
 20
21123.78709444191
 30
0.0
 11
30286.65264575291
 21
21123.78709444191
 31
0.0
  0
LINE
  5
251
330
22
100
AcDbEntity
  8
_0-4_ハッチ
  6
Continuous
 62
     5
100
AcDbLine
 10
26877.14963688467
 20
21223.78742436167
 30
0.0
 11
30286.65264575291
 21
21223.78742436167
 31
0.0
  0
LINE
  5
252
330
22
100
AcDbEntity
  8
_0-4_ハッチ
  6
Continuous
 62
     5
100
AcDbLine
 10
26978.13972609497
 20
21048.86973934267
 30
0.0
 11
26978.13972609497
 21
21573.78857908085
 31
0.0
  0
LINE
  5
253
330
22
100
AcDbEntity
  8
_0-4_ハッチ
  6
Continuous
 62
     5
100
AcDbLine
 10
26819.41450306921
 20
21323.78775428144
 30
0.0
 11
30286.65264575291
 21
21323.78775428144
 31
0.0
  0
LINE
  5
254
330
22
100
AcDbEntity
  8
_0-4_ハッチ
  6
Continuous
 62
     5
100
AcDbLine
 10
26878.13939617521
 20
21222.07514078904
 30
0.0
 11
26878.13939617521
 21
21573.78857908085
 31
0.0
  0
LINE
  5
255
330
22
100
AcDbEntity
  8
_0-4_ハッチ
  6
Continuous
 62
     5
100
AcDbLine
 10
26761.67936925376
 20
21423.7880842012
 30
0.0
 11
30286.65264575291
 21
21423.7880842012
 31
0.0
  0
LINE
  5
256
330
22
100
AcDbEntity
  8
_0-4_ハッチ
  6
Continuous
 62
     5
100
AcDbLine
 10
26703.94423543831
 20
21523.78841412097
 30
0.0
 11
30286.65264575291
 21
21523.78841412097
 31
0.0
  0
LINE
  5
257
330
22
100
AcDbEntity
  8
_0-4_ハッチ
  6
Continuous
 62
     5
100
AcDbLine
 10
26778.13906625545
 20
21473.78824916108
 30
0.0
 11
26778.13906625545
 21
21573.78857908085
 31
0.0
  0
LINE
  5
258
330
22
100
AcDbEntity
  8
_0-4_ハッチ
  6
Continuous
 62
     5
100
AcDbLine
 10
26646.20910162284
 20
21623.78874404073
 30
0.0
 11
30286.65264575291
 21
21623.78874404073
 31
0.0
  0
LINE
  5
259
330
22
100
AcDbEntity
  8
_0-4_ハッチ
  6
Continuous
 62
     5
100
AcDbLine
 10
26778.14154065368
 20
21395.27559343895
 30
0.0
 11
26778.14154065368
 21
22773.79130091889
 31
0.0
  0
LINE
  5
25A
330
22
100
AcDbEntity
  8
_0-4_ハッチ
  6
Continuous
 62
     5
100
AcDbLine
 10
26878.14187057345
 20
21222.07019199258
 30
0.0
 11
26878.14187057345
 21
22773.79130091889
 31
0.0
  0
LINE
  5
25B
330
22
100
AcDbEntity
  8
_0-4_ハッチ
  6
Continuous
 62
     5
100
AcDbLine
 10
27078.14253041296
 20
21573.78857908085
 30
0.0
 11
27078.14253041296
 21
22773.79130091889
 31
0.0
  0
LINE
  5
25C
330
22
100
AcDbEntity
  8
_0-4_ハッチ
  6
Continuous
 62
     5
100
AcDbLine
 10
27178.14286033273
 20
21573.78857908085
 30
0.0
 11
27178.14286033273
 21
22773.79130091889
 31
0.0
  0
LINE
  5
25D
330
22
100
AcDbEntity
  8
_0-4_ハッチ
  6
Continuous
 62
     5
100
AcDbLine
 10
27278.14319025249
 20
21573.78857908085
 30
0.0
 11
27278.14319025249
 21
22773.79130091889
 31
0.0
  0
LINE
  5
25E
330
22
100
AcDbEntity
  8
_0-4_ハッチ
  6
Continuous
 62
     5
100
AcDbLine
 10
27378.14352017226
 20
21573.78857908085
 30
0.0
 11
27378.14352017226
 21
22773.79130091889
 31
0.0
  0
LINE
  5
25F
330
22
100
AcDbEntity
  8
_0-4_ハッチ
  6
Continuous
 62
     5
100
AcDbLine
 10
27478.14385009203
 20
21573.78857908085
 30
0.0
 11
27478.14385009203
 21
22773.79130091889
 31
0.0
  0
LINE
  5
260
330
22
100
AcDbEntity
  8
_0-4_ハッチ
  6
Continuous
 62
     5
100
AcDbLine
 10
27578.14418001178
 20
21573.78857908085
 30
0.0
 11
27578.14418001178
 21
22773.79130091889
 31
0.0
  0
LINE
  5
261
330
22
100
AcDbEntity
  8
_0-4_ハッチ
  6
Continuous
 62
     5
100
AcDbLine
 10
27678.14450993154
 20
21573.78857908085
 30
0.0
 11
27678.14450993154
 21
22773.79130091889
 31
0.0
  0
LINE
  5
262
330
22
100
AcDbEntity
  8
_0-4_ハッチ
  6
Continuous
 62
     5
100
AcDbLine
 10
27778.14483985131
 20
21573.78857908085
 30
0.0
 11
27778.14483985131
 21
22773.79130091889
 31
0.0
  0
LINE
  5
263
330
22
100
AcDbEntity
  8
_0-4_ハッチ
  6
Continuous
 62
     5
100
AcDbLine
 10
27878.14516977107
 20
21573.78857908085
 30
0.0
 11
27878.14516977107
 21
22773.79130091889
 31
0.0
  0
LINE
  5
264
330
22
100
AcDbEntity
  8
_0-4_ハッチ
  6
Continuous
 62
     5
100
AcDbLine
 10
27978.14549969083
 20
21573.78857908085
 30
0.0
 11
27978.14549969083
 21
22773.79130091889
 31
0.0
  0
LINE
  5
265
330
22
100
AcDbEntity
  8
_0-4_ハッチ
  6
Continuous
 62
     5
100
AcDbLine
 10
28078.1458296106
 20
21573.78857908085
 30
0.0
 11
28078.1458296106
 21
22773.79130091889
 31
0.0
  0
LINE
  5
266
330
22
100
AcDbEntity
  8
_0-4_ハッチ
  6
Continuous
 62
     5
100
AcDbLine
 10
28178.14615953037
 20
21573.78857908085
 30
0.0
 11
28178.14615953037
 21
22773.79130091889
 31
0.0
  0
LINE
  5
267
330
22
100
AcDbEntity
  8
_0-4_ハッチ
  6
Continuous
 62
     5
100
AcDbLine
 10
28278.14648945013
 20
21573.78857908085
 30
0.0
 11
28278.14648945013
 21
22773.79130091889
 31
0.0
  0
LINE
  5
268
330
22
100
AcDbEntity
  8
_0-4_ハッチ
  6
Continuous
 62
     5
100
AcDbLine
 10
28378.14681936989
 20
21573.78857908085
 30
0.0
 11
28378.14681936989
 21
22773.79130091889
 31
0.0
  0
LINE
  5
269
330
22
100
AcDbEntity
  8
_0-4_ハッチ
  6
Continuous
 62
     5
100
AcDbLine
 10
28478.14714928965
 20
21573.78857908085
 30
0.0
 11
28478.14714928965
 21
22773.79130091889
 31
0.0
  0
LINE
  5
26A
330
22
100
AcDbEntity
  8
_0-4_ハッチ
  6
Continuous
 62
     5
100
AcDbLine
 10
28578.14747920942
 20
21573.78857908085
 30
0.0
 11
28578.14747920942
 21
22773.79130091889
 31
0.0
  0
LINE
  5
26B
330
22
100
AcDbEntity
  8
_0-4_ハッチ
  6
Continuous
 62
     5
100
AcDbLine
 10
28678.14780912918
 20
21573.78857908085
 30
0.0
 11
28678.14780912918
 21
22773.79130091889
 31
0.0
  0
LINE
  5
26C
330
22
100
AcDbEntity
  8
_0-4_ハッチ
  6
Continuous
 62
     5
100
AcDbLine
 10
28778.14813904895
 20
21573.78857908085
 30
0.0
 11
28778.14813904895
 21
22773.79130091889
 31
0.0
  0
LINE
  5
26D
330
22
100
AcDbEntity
  8
_0-4_ハッチ
  6
Continuous
 62
     5
100
AcDbLine
 10
28878.14846896871
 20
21573.78857908085
 30
0.0
 11
28878.14846896871
 21
22773.79130091889
 31
0.0
  0
LINE
  5
26E
330
22
100
AcDbEntity
  8
_0-4_ハッチ
  6
Continuous
 62
     5
100
AcDbLine
 10
28978.14879888846
 20
21573.78857908085
 30
0.0
 11
28978.14879888846
 21
22773.79130091889
 31
0.0
  0
LINE
  5
26F
330
22
100
AcDbEntity
  8
_0-4_ハッチ
  6
Continuous
 62
     5
100
AcDbLine
 10
29078.14912880824
 20
21573.78857908085
 30
0.0
 11
29078.14912880824
 21
22773.79130091889
 31
0.0
  0
LINE
  5
270
330
22
100
AcDbEntity
  8
_0-4_ハッチ
  6
Continuous
 62
     5
100
AcDbLine
 10
29178.149458728
 20
21573.78857908085
 30
0.0
 11
29178.149458728
 21
22773.79130091889
 31
0.0
  0
LINE
  5
271
330
22
100
AcDbEntity
  8
_0-4_ハッチ
  6
Continuous
 62
     5
100
AcDbLine
 10
29278.14978864777
 20
21573.78857908085
 30
0.0
 11
29278.14978864777
 21
22773.79130091889
 31
0.0
  0
LINE
  5
272
330
22
100
AcDbEntity
  8
_0-4_ハッチ
  6
Continuous
 62
     5
100
AcDbLine
 10
29378.15011856753
 20
21573.78857908085
 30
0.0
 11
29378.15011856753
 21
22773.79130091889
 31
0.0
  0
LINE
  5
273
330
22
100
AcDbEntity
  8
_0-4_ハッチ
  6
Continuous
 62
     5
100
AcDbLine
 10
29478.15044848729
 20
21573.78857908085
 30
0.0
 11
29478.15044848729
 21
22773.79130091889
 31
0.0
  0
LINE
  5
274
330
22
100
AcDbEntity
  8
_0-4_ハッチ
  6
Continuous
 62
     5
100
AcDbLine
 10
29578.15077840705
 20
21573.78857908085
 30
0.0
 11
29578.15077840705
 21
22773.79130091889
 31
0.0
  0
LINE
  5
275
330
22
100
AcDbEntity
  8
_0-4_ハッチ
  6
Continuous
 62
     5
100
AcDbLine
 10
29678.15110832681
 20
21573.78857908085
 30
0.0
 11
29678.15110832681
 21
22773.79130091889
 31
0.0
  0
LINE
  5
276
330
22
100
AcDbEntity
  8
_0-4_ハッチ
  6
Continuous
 62
     5
100
AcDbLine
 10
29778.15143824658
 20
21573.78857908085
 30
0.0
 11
29778.15143824658
 21
22773.79130091889
 31
0.0
  0
LINE
  5
277
330
22
100
AcDbEntity
  8
_0-4_ハッチ
  6
Continuous
 62
     5
100
AcDbLine
 10
29878.15176816635
 20
21573.78857908085
 30
0.0
 11
29878.15176816635
 21
22773.79130091889
 31
0.0
  0
LINE
  5
278
330
22
100
AcDbEntity
  8
_0-4_ハッチ
  6
Continuous
 62
     5
100
AcDbLine
 10
29978.1520980861
 20
21573.78857908085
 30
0.0
 11
29978.1520980861
 21
22773.79130091889
 31
0.0
  0
LINE
  5
279
330
22
100
AcDbEntity
  8
_0-4_ハッチ
  6
Continuous
 62
     5
100
AcDbLine
 10
30078.15242800587
 20
21573.78857908085
 30
0.0
 11
30078.15242800587
 21
22773.79130091889
 31
0.0
  0
LINE
  5
27A
330
22
100
AcDbEntity
  8
_0-4_ハッチ
  6
Continuous
 62
     5
100
AcDbLine
 10
30178.15275792564
 20
21573.78857908085
 30
0.0
 11
30178.15275792564
 21
22773.79130091889
 31
0.0
  0
LINE
  5
27B
330
22
100
AcDbEntity
  8
_0-4_ハッチ
  6
Continuous
 62
     5
100
AcDbLine
 10
26588.4739678074
 20
21723.78659956227
 30
0.0
 11
30286.65264575291
 21
21723.78659956227
 31
0.0
  0
LINE
  5
27C
330
22
100
AcDbEntity
  8
_0-4_ハッチ
  6
Continuous
 62
     5
100
AcDbLine
 10
26678.14121073392
 20
21568.48099488532
 30
0.0
 11
26678.14121073392
 21
22773.79130091889
 31
0.0
  0
LINE
  5
27D
330
22
100
AcDbEntity
  8
_0-4_ハッチ
  6
Continuous
 62
     5
100
AcDbLine
 10
26978.1422004932
 20
21048.86479054622
 30
0.0
 11
26978.1422004932
 21
22773.79130091889
 31
0.0
  0
LINE
  5
27E
330
22
100
AcDbEntity
  8
_0-4_ハッチ
  6
Continuous
 62
     5
100
AcDbLine
 10
26530.73883399193
 20
21823.78692948203
 30
0.0
 11
30286.65264575291
 21
21823.78692948203
 31
0.0
  0
LINE
  5
27F
330
22
100
AcDbEntity
  8
_0-4_ハッチ
  6
Continuous
 62
     5
100
AcDbLine
 10
26473.00370017648
 20
21923.78725940179
 30
0.0
 11
30286.65264575291
 21
21923.78725940179
 31
0.0
  0
LINE
  5
280
330
22
100
AcDbEntity
  8
_0-4_ハッチ
  6
Continuous
 62
     5
100
AcDbLine
 10
26578.14088081415
 20
21741.68639633169
 30
0.0
 11
26578.14088081415
 21
22773.79130091889
 31
0.0
  0
LINE
  5
281
330
22
100
AcDbEntity
  8
_0-4_ハッチ
  6
Continuous
 62
     5
100
AcDbLine
 10
26415.26856636102
 20
22023.78758932156
 30
0.0
 11
30286.65264575291
 21
22023.78758932156
 31
0.0
  0
LINE
  5
282
330
22
100
AcDbEntity
  8
_0-4_ハッチ
  6
Continuous
 62
     5
100
AcDbLine
 10
26478.14055089439
 20
21914.89179777807
 30
0.0
 11
26478.14055089439
 21
22773.79130091889
 31
0.0
  0
LINE
  5
283
330
22
100
AcDbEntity
  8
_0-4_ハッチ
  6
Continuous
 62
     5
100
AcDbLine
 10
26357.53343254557
 20
22123.78791924132
 30
0.0
 11
30286.65264575291
 21
22123.78791924132
 31
0.0
  0
LINE
  5
284
330
22
100
AcDbEntity
  8
_0-4_ハッチ
  6
Continuous
 62
     5
100
AcDbLine
 10
26299.79829873011
 20
22223.78824916108
 30
0.0
 11
30286.65264575291
 21
22223.78824916108
 31
0.0
  0
LINE
  5
285
330
22
100
AcDbEntity
  8
_0-4_ハッチ
  6
Continuous
 62
     5
100
AcDbLine
 10
26378.14022097462
 20
22088.09719922443
 30
0.0
 11
26378.14022097462
 21
22773.79130091889
 31
0.0
  0
LINE
  5
286
330
22
100
AcDbEntity
  8
_0-4_ハッチ
  6
Continuous
 62
     5
100
AcDbLine
 10
26242.06316491465
 20
22323.78857908085
 30
0.0
 11
30286.65264575291
 21
22323.78857908085
 31
0.0
  0
LINE
  5
287
330
22
100
AcDbEntity
  8
_0-4_ハッチ
  6
Continuous
 62
     5
100
AcDbLine
 10
26184.3280310992
 20
22423.78890900061
 30
0.0
 11
30286.65264575291
 21
22423.78890900061
 31
0.0
  0
LINE
  5
288
330
22
100
AcDbEntity
  8
_0-4_ハッチ
  6
Continuous
 62
     5
100
AcDbLine
 10
26278.13989105486
 20
22261.30507506902
 30
0.0
 11
26278.13989105486
 21
22773.79130091889
 31
0.0
  0
LINE
  5
289
330
22
100
AcDbEntity
  8
_0-4_ハッチ
  6
Continuous
 62
     5
100
AcDbLine
 10
26126.59289728374
 20
22523.78923892037
 30
0.0
 11
30286.65264575291
 21
22523.78923892037
 31
0.0
  0
LINE
  5
28A
330
22
100
AcDbEntity
  8
_0-4_ハッチ
  6
Continuous
 62
     5
100
AcDbLine
 10
26178.1395611351
 20
22434.50800211717
 30
0.0
 11
26178.1395611351
 21
22773.79130091889
 31
0.0
  0
LINE
  5
28B
330
22
100
AcDbEntity
  8
_0-4_ハッチ
  6
Continuous
 62
     5
100
AcDbLine
 10
26068.85776346829
 20
22623.78956884014
 30
0.0
 11
30286.65264575291
 21
22623.78956884014
 31
0.0
  0
LINE
  5
28C
330
22
100
AcDbEntity
  8
_0-4_ハッチ
  6
Continuous
 62
     5
100
AcDbLine
 10
26011.12262965282
 20
22723.78866156079
 30
0.0
 11
30286.65264575291
 21
22723.78866156079
 31
0.0
  0
LINE
  5
28D
330
22
100
AcDbEntity
  8
_0-4_ハッチ
  6
Continuous
 62
     5
100
AcDbLine
 10
26078.13923121534
 20
22673.79220819824
 30
0.0
 11
26078.13923121534
 21
22773.79130091889
 31
0.0
  0
LINE
  5
28E
330
22
100
AcDbEntity
  8
_0-4_ハッチ
  6
Continuous
 62
     5
100
AcDbLine
 10
26078.14170561356
 20
22607.71092916531
 30
0.0
 11
26078.14170561356
 21
24173.79591979559
 31
0.0
  0
LINE
  5
28F
330
22
100
AcDbEntity
  8
_0-4_ハッチ
  6
Continuous
 62
     5
100
AcDbLine
 10
25953.38749583738
 20
22823.78899148056
 30
0.0
 11
30286.65264575291
 21
22823.78899148056
 31
0.0
  0
LINE
  5
290
330
22
100
AcDbEntity
  8
_0-4_ハッチ
  6
Continuous
 62
     5
100
AcDbLine
 10
26178.14203553332
 20
22434.50552771894
 30
0.0
 11
26178.14203553332
 21
24173.79591979559
 31
0.0
  0
LINE
  5
291
330
22
100
AcDbEntity
  8
_0-4_ハッチ
  6
Continuous
 62
     5
100
AcDbLine
 10
26278.14236545308
 20
22261.30012627257
 30
0.0
 11
26278.14236545308
 21
24173.79591979559
 31
0.0
  0
LINE
  5
292
330
22
100
AcDbEntity
  8
_0-4_ハッチ
  6
Continuous
 62
     5
100
AcDbLine
 10
26378.14269537284
 20
22773.79130091889
 30
0.0
 11
26378.14269537284
 21
24173.79591979559
 31
0.0
  0
LINE
  5
293
330
22
100
AcDbEntity
  8
_0-4_ハッチ
  6
Continuous
 62
     5
100
AcDbLine
 10
26478.14302529261
 20
22773.79130091889
 30
0.0
 11
26478.14302529261
 21
24173.79591979559
 31
0.0
  0
LINE
  5
294
330
22
100
AcDbEntity
  8
_0-4_ハッチ
  6
Continuous
 62
     5
100
AcDbLine
 10
26578.14335521238
 20
22773.79130091889
 30
0.0
 11
26578.14335521238
 21
24173.79591979559
 31
0.0
  0
LINE
  5
295
330
22
100
AcDbEntity
  8
_0-4_ハッチ
  6
Continuous
 62
     5
100
AcDbLine
 10
26678.14368513214
 20
22773.79130091889
 30
0.0
 11
26678.14368513214
 21
24173.79591979559
 31
0.0
  0
LINE
  5
296
330
22
100
AcDbEntity
  8
_0-4_ハッチ
  6
Continuous
 62
     5
100
AcDbLine
 10
26778.1440150519
 20
22773.79130091889
 30
0.0
 11
26778.1440150519
 21
24173.79591979559
 31
0.0
  0
LINE
  5
297
330
22
100
AcDbEntity
  8
_0-4_ハッチ
  6
Continuous
 62
     5
100
AcDbLine
 10
26878.14434497166
 20
22773.79130091889
 30
0.0
 11
26878.14434497166
 21
24173.79591979559
 31
0.0
  0
LINE
  5
298
330
22
100
AcDbEntity
  8
_0-4_ハッチ
  6
Continuous
 62
     5
100
AcDbLine
 10
26978.14467489143
 20
22773.79130091889
 30
0.0
 11
26978.14467489143
 21
24173.79591979559
 31
0.0
  0
LINE
  5
299
330
22
100
AcDbEntity
  8
_0-4_ハッチ
  6
Continuous
 62
     5
100
AcDbLine
 10
27078.1450048112
 20
22773.79130091889
 30
0.0
 11
27078.1450048112
 21
24173.79591979559
 31
0.0
  0
LINE
  5
29A
330
22
100
AcDbEntity
  8
_0-4_ハッチ
  6
Continuous
 62
     5
100
AcDbLine
 10
27178.14533473096
 20
22773.79130091889
 30
0.0
 11
27178.14533473096
 21
24173.79591979559
 31
0.0
  0
LINE
  5
29B
330
22
100
AcDbEntity
  8
_0-4_ハッチ
  6
Continuous
 62
     5
100
AcDbLine
 10
27278.14566465072
 20
22773.79130091889
 30
0.0
 11
27278.14566465072
 21
24173.79591979559
 31
0.0
  0
LINE
  5
29C
330
22
100
AcDbEntity
  8
_0-4_ハッチ
  6
Continuous
 62
     5
100
AcDbLine
 10
27378.14599457049
 20
22773.79130091889
 30
0.0
 11
27378.14599457049
 21
24173.79591979559
 31
0.0
  0
LINE
  5
29D
330
22
100
AcDbEntity
  8
_0-4_ハッチ
  6
Continuous
 62
     5
100
AcDbLine
 10
27478.14632449025
 20
22773.79130091889
 30
0.0
 11
27478.14632449025
 21
24173.79591979559
 31
0.0
  0
LINE
  5
29E
330
22
100
AcDbEntity
  8
_0-4_ハッチ
  6
Continuous
 62
     5
100
AcDbLine
 10
27578.14665441001
 20
22773.79130091889
 30
0.0
 11
27578.14665441001
 21
24173.79591979559
 31
0.0
  0
LINE
  5
29F
330
22
100
AcDbEntity
  8
_0-4_ハッチ
  6
Continuous
 62
     5
100
AcDbLine
 10
27678.14698432977
 20
22773.79130091889
 30
0.0
 11
27678.14698432977
 21
24173.79591979559
 31
0.0
  0
LINE
  5
2A0
330
22
100
AcDbEntity
  8
_0-4_ハッチ
  6
Continuous
 62
     5
100
AcDbLine
 10
27778.14731424954
 20
22773.79130091889
 30
0.0
 11
27778.14731424954
 21
24173.79591979559
 31
0.0
  0
LINE
  5
2A1
330
22
100
AcDbEntity
  8
_0-4_ハッチ
  6
Continuous
 62
     5
100
AcDbLine
 10
27878.1476441693
 20
22773.79130091889
 30
0.0
 11
27878.1476441693
 21
24173.79591979559
 31
0.0
  0
LINE
  5
2A2
330
22
100
AcDbEntity
  8
_0-4_ハッチ
  6
Continuous
 62
     5
100
AcDbLine
 10
27978.14797408906
 20
22773.79130091889
 30
0.0
 11
27978.14797408906
 21
24173.79591979559
 31
0.0
  0
LINE
  5
2A3
330
22
100
AcDbEntity
  8
_0-4_ハッチ
  6
Continuous
 62
     5
100
AcDbLine
 10
28078.14830400883
 20
22773.79130091889
 30
0.0
 11
28078.14830400883
 21
24173.79591979559
 31
0.0
  0
LINE
  5
2A4
330
22
100
AcDbEntity
  8
_0-4_ハッチ
  6
Continuous
 62
     5
100
AcDbLine
 10
28178.14863392859
 20
22773.79130091889
 30
0.0
 11
28178.14863392859
 21
24173.79591979559
 31
0.0
  0
LINE
  5
2A5
330
22
100
AcDbEntity
  8
_0-4_ハッチ
  6
Continuous
 62
     5
100
AcDbLine
 10
28278.14896384836
 20
22773.79130091889
 30
0.0
 11
28278.14896384836
 21
24173.79591979559
 31
0.0
  0
LINE
  5
2A6
330
22
100
AcDbEntity
  8
_0-4_ハッチ
  6
Continuous
 62
     5
100
AcDbLine
 10
28378.14929376811
 20
22773.79130091889
 30
0.0
 11
28378.14929376811
 21
24173.79591979559
 31
0.0
  0
LINE
  5
2A7
330
22
100
AcDbEntity
  8
_0-4_ハッチ
  6
Continuous
 62
     5
100
AcDbLine
 10
28478.14962368788
 20
22773.79130091889
 30
0.0
 11
28478.14962368788
 21
24173.79591979559
 31
0.0
  0
LINE
  5
2A8
330
22
100
AcDbEntity
  8
_0-4_ハッチ
  6
Continuous
 62
     5
100
AcDbLine
 10
28578.14995360765
 20
22773.79130091889
 30
0.0
 11
28578.14995360765
 21
24173.79591979559
 31
0.0
  0
LINE
  5
2A9
330
22
100
AcDbEntity
  8
_0-4_ハッチ
  6
Continuous
 62
     5
100
AcDbLine
 10
28678.15028352741
 20
22773.79130091889
 30
0.0
 11
28678.15028352741
 21
24173.79591979559
 31
0.0
  0
LINE
  5
2AA
330
22
100
AcDbEntity
  8
_0-4_ハッチ
  6
Continuous
 62
     5
100
AcDbLine
 10
28778.15061344717
 20
22773.79130091889
 30
0.0
 11
28778.15061344717
 21
24173.79591979559
 31
0.0
  0
LINE
  5
2AB
330
22
100
AcDbEntity
  8
_0-4_ハッチ
  6
Continuous
 62
     5
100
AcDbLine
 10
28878.15094336693
 20
22773.79130091889
 30
0.0
 11
28878.15094336693
 21
24173.79591979559
 31
0.0
  0
LINE
  5
2AC
330
22
100
AcDbEntity
  8
_0-4_ハッチ
  6
Continuous
 62
     5
100
AcDbLine
 10
28978.15127328669
 20
22773.79130091889
 30
0.0
 11
28978.15127328669
 21
24173.79591979559
 31
0.0
  0
LINE
  5
2AD
330
22
100
AcDbEntity
  8
_0-4_ハッチ
  6
Continuous
 62
     5
100
AcDbLine
 10
29078.15160320647
 20
22773.79130091889
 30
0.0
 11
29078.15160320647
 21
24173.79591979559
 31
0.0
  0
LINE
  5
2AE
330
22
100
AcDbEntity
  8
_0-4_ハッチ
  6
Continuous
 62
     5
100
AcDbLine
 10
29178.15193312622
 20
22773.79130091889
 30
0.0
 11
29178.15193312622
 21
24173.79591979559
 31
0.0
  0
LINE
  5
2AF
330
22
100
AcDbEntity
  8
_0-4_ハッチ
  6
Continuous
 62
     5
100
AcDbLine
 10
29278.15226304599
 20
22773.79130091889
 30
0.0
 11
29278.15226304599
 21
24173.79591979559
 31
0.0
  0
LINE
  5
2B0
330
22
100
AcDbEntity
  8
_0-4_ハッチ
  6
Continuous
 62
     5
100
AcDbLine
 10
29378.15259296575
 20
22773.79130091889
 30
0.0
 11
29378.15259296575
 21
24173.79591979559
 31
0.0
  0
LINE
  5
2B1
330
22
100
AcDbEntity
  8
_0-4_ハッチ
  6
Continuous
 62
     5
100
AcDbLine
 10
29478.15292288552
 20
22773.79130091889
 30
0.0
 11
29478.15292288552
 21
24173.79591979559
 31
0.0
  0
LINE
  5
2B2
330
22
100
AcDbEntity
  8
_0-4_ハッチ
  6
Continuous
 62
     5
100
AcDbLine
 10
29578.15325280529
 20
22773.79130091889
 30
0.0
 11
29578.15325280529
 21
24173.79591979559
 31
0.0
  0
LINE
  5
2B3
330
22
100
AcDbEntity
  8
_0-4_ハッチ
  6
Continuous
 62
     5
100
AcDbLine
 10
29678.15358272504
 20
22773.79130091889
 30
0.0
 11
29678.15358272504
 21
24173.79591979559
 31
0.0
  0
LINE
  5
2B4
330
22
100
AcDbEntity
  8
_0-4_ハッチ
  6
Continuous
 62
     5
100
AcDbLine
 10
29778.15391264482
 20
22773.79130091889
 30
0.0
 11
29778.15391264482
 21
24173.79591979559
 31
0.0
  0
LINE
  5
2B5
330
22
100
AcDbEntity
  8
_0-4_ハッチ
  6
Continuous
 62
     5
100
AcDbLine
 10
29878.15424256457
 20
22773.79130091889
 30
0.0
 11
29878.15424256457
 21
24173.79591979559
 31
0.0
  0
LINE
  5
2B6
330
22
100
AcDbEntity
  8
_0-4_ハッチ
  6
Continuous
 62
     5
100
AcDbLine
 10
29978.15457248433
 20
22773.79130091889
 30
0.0
 11
29978.15457248433
 21
24173.79591979559
 31
0.0
  0
LINE
  5
2B7
330
22
100
AcDbEntity
  8
_0-4_ハッチ
  6
Continuous
 62
     5
100
AcDbLine
 10
30078.15490240409
 20
22773.79130091889
 30
0.0
 11
30078.15490240409
 21
24173.79591979559
 31
0.0
  0
LINE
  5
2B8
330
22
100
AcDbEntity
  8
_0-4_ハッチ
  6
Continuous
 62
     5
100
AcDbLine
 10
30178.15523232386
 20
22773.79130091889
 30
0.0
 11
30178.15523232386
 21
24173.79591979559
 31
0.0
  0
LINE
  5
2B9
330
22
100
AcDbEntity
  8
_0-4_ハッチ
  6
Continuous
 62
     5
100
AcDbLine
 10
25895.65236202192
 20
22923.78932140031
 30
0.0
 11
30286.65264575291
 21
22923.78932140031
 31
0.0
  0
LINE
  5
2BA
330
22
100
AcDbEntity
  8
_0-4_ハッチ
  6
Continuous
 62
     5
100
AcDbLine
 10
25978.14137569379
 20
22780.91756781079
 30
0.0
 11
25978.14137569379
 21
24173.79591979559
 31
0.0
  0
LINE
  5
2BB
330
22
100
AcDbEntity
  8
_0-4_ハッチ
  6
Continuous
 62
     5
100
AcDbLine
 10
25837.91722820645
 20
23023.78965132009
 30
0.0
 11
30286.65264575291
 21
23023.78965132009
 31
0.0
  0
LINE
  5
2BC
330
22
100
AcDbEntity
  8
_0-4_ハッチ
  6
Continuous
 62
     5
100
AcDbLine
 10
25780.18209439101
 20
23123.78998123984
 30
0.0
 11
30286.65264575291
 21
23123.78998123984
 31
0.0
  0
LINE
  5
2BD
330
22
100
AcDbEntity
  8
_0-4_ハッチ
  6
Continuous
 62
     5
100
AcDbLine
 10
25878.14104577403
 20
22954.12049485893
 30
0.0
 11
25878.14104577403
 21
24173.79591979559
 31
0.0
  0
LINE
  5
2BE
330
22
100
AcDbEntity
  8
_0-4_ハッチ
  6
Continuous
 62
     5
100
AcDbLine
 10
25722.44696057555
 20
23223.7903111596
 30
0.0
 11
30286.65264575291
 21
23223.7903111596
 31
0.0
  0
LINE
  5
2BF
330
22
100
AcDbEntity
  8
_0-4_ハッチ
  6
Continuous
 62
     5
100
AcDbLine
 10
25778.14071585427
 20
23127.32837070353
 30
0.0
 11
25778.14071585427
 21
24173.79591979559
 31
0.0
  0
LINE
  5
2C0
330
22
100
AcDbEntity
  8
_0-4_ハッチ
  6
Continuous
 62
     5
100
AcDbLine
 10
25664.7118267601
 20
23323.79064107937
 30
0.0
 11
30286.65264575291
 21
23323.79064107937
 31
0.0
  0
LINE
  5
2C1
330
22
100
AcDbEntity
  8
_0-4_ハッチ
  6
Continuous
 62
     5
100
AcDbLine
 10
25606.97669294464
 20
23423.79097099913
 30
0.0
 11
30286.65264575291
 21
23423.79097099913
 31
0.0
  0
LINE
  5
2C2
330
22
100
AcDbEntity
  8
_0-4_ハッチ
  6
Continuous
 62
     5
100
AcDbLine
 10
25678.1403859345
 20
23300.53129775166
 30
0.0
 11
25678.1403859345
 21
24173.79591979559
 31
0.0
  0
LINE
  5
2C3
330
22
100
AcDbEntity
  8
_0-4_ハッチ
  6
Continuous
 62
     5
100
AcDbLine
 10
25549.24155912918
 20
23523.7913009189
 30
0.0
 11
30286.65264575291
 21
23523.7913009189
 31
0.0
  0
LINE
  5
2C4
330
22
100
AcDbEntity
  8
_0-4_ハッチ
  6
Continuous
 62
     5
100
AcDbLine
 10
25578.14005601474
 20
23473.73917359626
 30
0.0
 11
25578.14005601474
 21
24173.79591979559
 31
0.0
  0
LINE
  5
2C5
330
22
100
AcDbEntity
  8
_0-4_ハッチ
  6
Continuous
 62
     5
100
AcDbLine
 10
25491.50642531373
 20
23623.79163083866
 30
0.0
 11
30286.65264575291
 21
23623.79163083866
 31
0.0
  0
LINE
  5
2C6
330
22
100
AcDbEntity
  8
_0-4_ハッチ
  6
Continuous
 62
     5
100
AcDbLine
 10
25433.77129149826
 20
23723.79196075842
 30
0.0
 11
30286.65264575291
 21
23723.79196075842
 31
0.0
  0
LINE
  5
2C7
330
22
100
AcDbEntity
  8
_0-4_ハッチ
  6
Continuous
 62
     5
100
AcDbLine
 10
25376.03615768281
 20
23823.79229067818
 30
0.0
 11
30286.65264575291
 21
23823.79229067818
 31
0.0
  0
LINE
  5
2C8
330
22
100
AcDbEntity
  8
_0-4_ハッチ
  6
Continuous
 62
     5
100
AcDbLine
 10
25318.30102386736
 20
23923.79262059795
 30
0.0
 11
30286.65264575291
 21
23923.79262059795
 31
0.0
  0
LINE
  5
2C9
330
22
100
AcDbEntity
  8
_0-4_ハッチ
  6
Continuous
 62
     5
100
AcDbLine
 10
25378.13939617521
 20
23820.149976489
 30
0.0
 11
25378.13939617521
 21
24173.79591979559
 31
0.0
  0
LINE
  5
2CA
330
22
100
AcDbEntity
  8
_0-4_ハッチ
  6
Continuous
 62
     5
100
AcDbLine
 10
25478.13972609497
 20
23646.94210064441
 30
0.0
 11
25478.13972609497
 21
24173.79591979559
 31
0.0
  0
LINE
  5
2CB
330
22
100
AcDbEntity
  8
_0-4_ハッチ
  6
Continuous
 62
     5
100
AcDbLine
 10
25260.56341565368
 20
24023.79295051772
 30
0.0
 11
30286.65264575291
 21
24023.79295051772
 31
0.0
  0
LINE
  5
2CC
330
22
100
AcDbEntity
  8
_0-4_ハッチ
  6
Continuous
 62
     5
100
AcDbLine
 10
25278.13906625545
 20
24073.79558987583
 30
0.0
 11
25278.13906625545
 21
24173.79591979559
 31
0.0
  0
LINE
  5
2CD
330
22
100
AcDbEntity
  8
_0-4_ハッチ
  6
Continuous
 62
     5
100
AcDbLine
 10
25202.82828183822
 20
24123.79328043748
 30
0.0
 11
30286.65264575291
 21
24123.79328043748
 31
0.0
  0
LINE
  5
2CE
330
22
100
AcDbEntity
  8
_0-4_ハッチ
  6
Continuous
 62
     5
100
AcDbLine
 10
25145.09314802276
 20
24223.79361035724
 30
0.0
 11
30286.65264575291
 21
24223.79361035724
 31
0.0
  0
LINE
  5
2CF
330
22
100
AcDbEntity
  8
_0-4_ハッチ
  6
Continuous
 62
     5
100
AcDbLine
 10
25378.14187057344
 20
23820.14502769254
 30
0.0
 11
25378.14187057344
 21
24888.35758839778
 31
0.0
  0
LINE
  5
2D0
330
22
100
AcDbEntity
  8
_0-4_ハッチ
  6
Continuous
 62
     5
100
AcDbLine
 10
25478.1422004932
 20
23646.93715184795
 30
0.0
 11
25478.1422004932
 21
24888.35758839778
 31
0.0
  0
LINE
  5
2D1
330
22
100
AcDbEntity
  8
_0-4_ハッチ
  6
Continuous
 62
     5
100
AcDbLine
 10
25678.14286033273
 20
24173.79591979559
 30
0.0
 11
25678.14286033273
 21
24888.35758839778
 31
0.0
  0
LINE
  5
2D2
330
22
100
AcDbEntity
  8
_0-4_ハッチ
  6
Continuous
 62
     5
100
AcDbLine
 10
25778.14319025249
 20
24173.79591979559
 30
0.0
 11
25778.14319025249
 21
24888.35758839778
 31
0.0
  0
LINE
  5
2D3
330
22
100
AcDbEntity
  8
_0-4_ハッチ
  6
Continuous
 62
     5
100
AcDbLine
 10
25878.14352017226
 20
24173.79591979559
 30
0.0
 11
25878.14352017226
 21
24888.35758839778
 31
0.0
  0
LINE
  5
2D4
330
22
100
AcDbEntity
  8
_0-4_ハッチ
  6
Continuous
 62
     5
100
AcDbLine
 10
25978.14385009203
 20
24173.79591979559
 30
0.0
 11
25978.14385009203
 21
24888.35758839778
 31
0.0
  0
LINE
  5
2D5
330
22
100
AcDbEntity
  8
_0-4_ハッチ
  6
Continuous
 62
     5
100
AcDbLine
 10
26078.14418001178
 20
24173.79591979559
 30
0.0
 11
26078.14418001178
 21
24888.35758839778
 31
0.0
  0
LINE
  5
2D6
330
22
100
AcDbEntity
  8
_0-4_ハッチ
  6
Continuous
 62
     5
100
AcDbLine
 10
26178.14450993154
 20
24173.79591979559
 30
0.0
 11
26178.14450993154
 21
24888.35758839778
 31
0.0
  0
LINE
  5
2D7
330
22
100
AcDbEntity
  8
_0-4_ハッチ
  6
Continuous
 62
     5
100
AcDbLine
 10
26278.14483985131
 20
24173.79591979559
 30
0.0
 11
26278.14483985131
 21
24888.35758839778
 31
0.0
  0
LINE
  5
2D8
330
22
100
AcDbEntity
  8
_0-4_ハッチ
  6
Continuous
 62
     5
100
AcDbLine
 10
26378.14516977107
 20
24173.79591979559
 30
0.0
 11
26378.14516977107
 21
24888.35758839778
 31
0.0
  0
LINE
  5
2D9
330
22
100
AcDbEntity
  8
_0-4_ハッチ
  6
Continuous
 62
     5
100
AcDbLine
 10
26478.14549969083
 20
24173.79591979559
 30
0.0
 11
26478.14549969083
 21
24888.35758839778
 31
0.0
  0
LINE
  5
2DA
330
22
100
AcDbEntity
  8
_0-4_ハッチ
  6
Continuous
 62
     5
100
AcDbLine
 10
26578.1458296106
 20
24173.79591979559
 30
0.0
 11
26578.1458296106
 21
24888.35758839778
 31
0.0
  0
LINE
  5
2DB
330
22
100
AcDbEntity
  8
_0-4_ハッチ
  6
Continuous
 62
     5
100
AcDbLine
 10
26678.14615953037
 20
24173.79591979559
 30
0.0
 11
26678.14615953037
 21
24888.35758839778
 31
0.0
  0
LINE
  5
2DC
330
22
100
AcDbEntity
  8
_0-4_ハッチ
  6
Continuous
 62
     5
100
AcDbLine
 10
26778.14648945012
 20
24173.79591979559
 30
0.0
 11
26778.14648945012
 21
24888.35758839778
 31
0.0
  0
LINE
  5
2DD
330
22
100
AcDbEntity
  8
_0-4_ハッチ
  6
Continuous
 62
     5
100
AcDbLine
 10
26878.14681936989
 20
24173.79591979559
 30
0.0
 11
26878.14681936989
 21
24888.35758839778
 31
0.0
  0
LINE
  5
2DE
330
22
100
AcDbEntity
  8
_0-4_ハッチ
  6
Continuous
 62
     5
100
AcDbLine
 10
26978.14714928965
 20
24173.79591979559
 30
0.0
 11
26978.14714928965
 21
24888.35758839778
 31
0.0
  0
LINE
  5
2DF
330
22
100
AcDbEntity
  8
_0-4_ハッチ
  6
Continuous
 62
     5
100
AcDbLine
 10
27078.14747920942
 20
24173.79591979559
 30
0.0
 11
27078.14747920942
 21
24888.35758839778
 31
0.0
  0
LINE
  5
2E0
330
22
100
AcDbEntity
  8
_0-4_ハッチ
  6
Continuous
 62
     5
100
AcDbLine
 10
27178.14780912918
 20
24173.79591979559
 30
0.0
 11
27178.14780912918
 21
24888.35758839778
 31
0.0
  0
LINE
  5
2E1
330
22
100
AcDbEntity
  8
_0-4_ハッチ
  6
Continuous
 62
     5
100
AcDbLine
 10
27278.14813904894
 20
24173.79591979559
 30
0.0
 11
27278.14813904894
 21
24888.35758839778
 31
0.0
  0
LINE
  5
2E2
330
22
100
AcDbEntity
  8
_0-4_ハッチ
  6
Continuous
 62
     5
100
AcDbLine
 10
27378.14846896871
 20
24173.79591979559
 30
0.0
 11
27378.14846896871
 21
24888.35758839778
 31
0.0
  0
LINE
  5
2E3
330
22
100
AcDbEntity
  8
_0-4_ハッチ
  6
Continuous
 62
     5
100
AcDbLine
 10
27478.14879888847
 20
24173.79591979559
 30
0.0
 11
27478.14879888847
 21
24888.35758839778
 31
0.0
  0
LINE
  5
2E4
330
22
100
AcDbEntity
  8
_0-4_ハッチ
  6
Continuous
 62
     5
100
AcDbLine
 10
27578.14912880824
 20
24173.79591979559
 30
0.0
 11
27578.14912880824
 21
24888.35758839778
 31
0.0
  0
LINE
  5
2E5
330
22
100
AcDbEntity
  8
_0-4_ハッチ
  6
Continuous
 62
     5
100
AcDbLine
 10
27678.149458728
 20
24173.79591979559
 30
0.0
 11
27678.149458728
 21
24888.35758839778
 31
0.0
  0
LINE
  5
2E6
330
22
100
AcDbEntity
  8
_0-4_ハッチ
  6
Continuous
 62
     5
100
AcDbLine
 10
27778.14978864776
 20
24173.79591979559
 30
0.0
 11
27778.14978864776
 21
24888.35758839778
 31
0.0
  0
LINE
  5
2E7
330
22
100
AcDbEntity
  8
_0-4_ハッチ
  6
Continuous
 62
     5
100
AcDbLine
 10
27878.15011856753
 20
24173.79591979559
 30
0.0
 11
27878.15011856753
 21
24888.35758839778
 31
0.0
  0
LINE
  5
2E8
330
22
100
AcDbEntity
  8
_0-4_ハッチ
  6
Continuous
 62
     5
100
AcDbLine
 10
27978.15044848729
 20
24173.79591979559
 30
0.0
 11
27978.15044848729
 21
24888.35758839778
 31
0.0
  0
LINE
  5
2E9
330
22
100
AcDbEntity
  8
_0-4_ハッチ
  6
Continuous
 62
     5
100
AcDbLine
 10
28078.15077840705
 20
24173.79591979559
 30
0.0
 11
28078.15077840705
 21
24888.35758839778
 31
0.0
  0
LINE
  5
2EA
330
22
100
AcDbEntity
  8
_0-4_ハッチ
  6
Continuous
 62
     5
100
AcDbLine
 10
28178.15110832682
 20
24173.79591979559
 30
0.0
 11
28178.15110832682
 21
24888.35758839778
 31
0.0
  0
LINE
  5
2EB
330
22
100
AcDbEntity
  8
_0-4_ハッチ
  6
Continuous
 62
     5
100
AcDbLine
 10
28278.15143824659
 20
24173.79591979559
 30
0.0
 11
28278.15143824659
 21
24888.35758839778
 31
0.0
  0
LINE
  5
2EC
330
22
100
AcDbEntity
  8
_0-4_ハッチ
  6
Continuous
 62
     5
100
AcDbLine
 10
28378.15176816634
 20
24173.79591979559
 30
0.0
 11
28378.15176816634
 21
24888.35758839778
 31
0.0
  0
LINE
  5
2ED
330
22
100
AcDbEntity
  8
_0-4_ハッチ
  6
Continuous
 62
     5
100
AcDbLine
 10
28478.1520980861
 20
24173.79591979559
 30
0.0
 11
28478.1520980861
 21
24888.35758839778
 31
0.0
  0
LINE
  5
2EE
330
22
100
AcDbEntity
  8
_0-4_ハッチ
  6
Continuous
 62
     5
100
AcDbLine
 10
28578.15242800587
 20
24173.79591979559
 30
0.0
 11
28578.15242800587
 21
24888.35758839778
 31
0.0
  0
LINE
  5
2EF
330
22
100
AcDbEntity
  8
_0-4_ハッチ
  6
Continuous
 62
     5
100
AcDbLine
 10
28678.15275792564
 20
24173.79591979559
 30
0.0
 11
28678.15275792564
 21
24888.35758839778
 31
0.0
  0
LINE
  5
2F0
330
22
100
AcDbEntity
  8
_0-4_ハッチ
  6
Continuous
 62
     5
100
AcDbLine
 10
28778.1530878454
 20
24173.79591979559
 30
0.0
 11
28778.1530878454
 21
24888.35758839778
 31
0.0
  0
LINE
  5
2F1
330
22
100
AcDbEntity
  8
_0-4_ハッチ
  6
Continuous
 62
     5
100
AcDbLine
 10
28878.15341776517
 20
24173.79591979559
 30
0.0
 11
28878.15341776517
 21
24888.35758839778
 31
0.0
  0
LINE
  5
2F2
330
22
100
AcDbEntity
  8
_0-4_ハッチ
  6
Continuous
 62
     5
100
AcDbLine
 10
28978.15374768492
 20
24173.79591979559
 30
0.0
 11
28978.15374768492
 21
24888.35758839778
 31
0.0
  0
LINE
  5
2F3
330
22
100
AcDbEntity
  8
_0-4_ハッチ
  6
Continuous
 62
     5
100
AcDbLine
 10
29078.15407760469
 20
24173.79591979559
 30
0.0
 11
29078.15407760469
 21
24888.35758839778
 31
0.0
  0
LINE
  5
2F4
330
22
100
AcDbEntity
  8
_0-4_ハッチ
  6
Continuous
 62
     5
100
AcDbLine
 10
29178.15440752445
 20
24173.79591979559
 30
0.0
 11
29178.15440752445
 21
24888.35758839778
 31
0.0
  0
LINE
  5
2F5
330
22
100
AcDbEntity
  8
_0-4_ハッチ
  6
Continuous
 62
     5
100
AcDbLine
 10
29278.15473744421
 20
24173.79591979559
 30
0.0
 11
29278.15473744421
 21
24888.35758839778
 31
0.0
  0
LINE
  5
2F6
330
22
100
AcDbEntity
  8
_0-4_ハッチ
  6
Continuous
 62
     5
100
AcDbLine
 10
29378.15506736398
 20
24173.79591979559
 30
0.0
 11
29378.15506736398
 21
24888.35758839778
 31
0.0
  0
LINE
  5
2F7
330
22
100
AcDbEntity
  8
_0-4_ハッチ
  6
Continuous
 62
     5
100
AcDbLine
 10
29478.15539728374
 20
24173.79591979559
 30
0.0
 11
29478.15539728374
 21
24888.35758839778
 31
0.0
  0
LINE
  5
2F8
330
22
100
AcDbEntity
  8
_0-4_ハッチ
  6
Continuous
 62
     5
100
AcDbLine
 10
29578.15572720351
 20
24173.79591979559
 30
0.0
 11
29578.15572720351
 21
24888.35758839778
 31
0.0
  0
LINE
  5
2F9
330
22
100
AcDbEntity
  8
_0-4_ハッチ
  6
Continuous
 62
     5
100
AcDbLine
 10
29678.15605712328
 20
24173.79591979559
 30
0.0
 11
29678.15605712328
 21
24888.35758839778
 31
0.0
  0
LINE
  5
2FA
330
22
100
AcDbEntity
  8
_0-4_ハッチ
  6
Continuous
 62
     5
100
AcDbLine
 10
29778.15638704304
 20
24173.79591979559
 30
0.0
 11
29778.15638704304
 21
24888.35758839778
 31
0.0
  0
LINE
  5
2FB
330
22
100
AcDbEntity
  8
_0-4_ハッチ
  6
Continuous
 62
     5
100
AcDbLine
 10
29878.1567169628
 20
24173.79591979559
 30
0.0
 11
29878.1567169628
 21
24888.35758839778
 31
0.0
  0
LINE
  5
2FC
330
22
100
AcDbEntity
  8
_0-4_ハッチ
  6
Continuous
 62
     5
100
AcDbLine
 10
29978.15704688256
 20
24173.79591979559
 30
0.0
 11
29978.15704688256
 21
24888.35758839778
 31
0.0
  0
LINE
  5
2FD
330
22
100
AcDbEntity
  8
_0-4_ハッチ
  6
Continuous
 62
     5
100
AcDbLine
 10
30078.15737680232
 20
24173.79591979559
 30
0.0
 11
30078.15737680232
 21
24888.35758839778
 31
0.0
  0
LINE
  5
2FE
330
22
100
AcDbEntity
  8
_0-4_ハッチ
  6
Continuous
 62
     5
100
AcDbLine
 10
30178.15770672209
 20
24173.79591979559
 30
0.0
 11
30178.15770672209
 21
24888.35758839778
 31
0.0
  0
LINE
  5
2FF
330
22
100
AcDbEntity
  8
_0-4_ハッチ
  6
Continuous
 62
     5
100
AcDbLine
 10
25087.35801420731
 20
24323.79394027702
 30
0.0
 11
30286.65264575291
 21
24323.79394027702
 31
0.0
  0
LINE
  5
300
330
22
100
AcDbEntity
  8
_0-4_ハッチ
  6
Continuous
 62
     5
100
AcDbLine
 10
25278.14154065368
 20
23993.34795474069
 30
0.0
 11
25278.14154065368
 21
24888.35758839778
 31
0.0
  0
LINE
  5
301
330
22
100
AcDbEntity
  8
_0-4_ハッチ
  6
Continuous
 62
     5
100
AcDbLine
 10
25578.14253041296
 20
23473.73422479981
 30
0.0
 11
25578.14253041296
 21
24888.35758839778
 31
0.0
  0
LINE
  5
302
330
22
100
AcDbEntity
  8
_0-4_ハッチ
  6
Continuous
 62
     5
100
AcDbLine
 10
25178.14121073392
 20
24166.55583058529
 30
0.0
 11
25178.14121073392
 21
24888.35758839778
 31
0.0
  0
LINE
  5
303
330
22
100
AcDbEntity
  8
_0-4_ハッチ
  6
Continuous
 62
     5
100
AcDbLine
 10
25029.62288039185
 20
24423.79427019677
 30
0.0
 11
30286.65264575291
 21
24423.79427019677
 31
0.0
  0
LINE
  5
304
330
22
100
AcDbEntity
  8
_0-4_ハッチ
  6
Continuous
 62
     5
100
AcDbLine
 10
24971.88774657639
 20
24523.79460011653
 30
0.0
 11
30286.65264575291
 21
24523.79460011653
 31
0.0
  0
LINE
  5
305
330
22
100
AcDbEntity
  8
_0-4_ハッチ
  6
Continuous
 62
     5
100
AcDbLine
 10
24978.14055089439
 20
24512.96663347802
 30
0.0
 11
24978.14055089439
 21
24888.35758839778
 31
0.0
  0
LINE
  5
306
330
22
100
AcDbEntity
  8
_0-4_ハッチ
  6
Continuous
 62
     5
100
AcDbLine
 10
24914.15261276094
 20
24623.79493003629
 30
0.0
 11
30286.65264575291
 21
24623.79493003629
 31
0.0
  0
LINE
  5
307
330
22
100
AcDbEntity
  8
_0-4_ハッチ
  6
Continuous
 62
     5
100
AcDbLine
 10
25078.14088081415
 20
24339.76370642989
 30
0.0
 11
25078.14088081415
 21
24888.35758839778
 31
0.0
  0
LINE
  5
308
330
22
100
AcDbEntity
  8
_0-4_ハッチ
  6
Continuous
 62
     5
100
AcDbLine
 10
24856.41747894549
 20
24723.79525995606
 30
0.0
 11
30286.65264575291
 21
24723.79525995606
 31
0.0
  0
LINE
  5
309
330
22
100
AcDbEntity
  8
_0-4_ハッチ
  6
Continuous
 62
     5
100
AcDbLine
 10
24798.68234513002
 20
24823.79558987583
 30
0.0
 11
30286.65264575291
 21
24823.79558987583
 31
0.0
  0
LINE
  5
30A
330
22
100
AcDbEntity
  8
_0-1_ＧＬ
  6
Continuous
 62
     3
100
AcDbLine
 10
5236.347305011782
 20
15411.02018935323
 30
0.0
 11
5013.879109276984
 21
15411.02018935323
 31
0.0
  0
LINE
  5
30B
330
22
100
AcDbEntity
  8
_0-1_ＧＬ
  6
Continuous
 62
     3
100
AcDbLine
 10
5125.113207144386
 20
15218.35859465305
 30
0.0
 11
5236.347305011782
 21
15411.02018935323
 31
0.0
  0
LINE
  5
30C
330
22
100
AcDbEntity
  8
_0-1_ＧＬ
  6
Continuous
 62
     3
100
AcDbLine
 10
5125.113207144386
 20
15218.35859465305
 30
0.0
 11
5013.879109276984
 21
15411.02018935323
 31
0.0
  0
LINE
  5
30D
330
22
100
AcDbEntity
  8
_0-3_寸法
  6
Continuous
 62
     4
100
AcDbLine
 10
7286.650996154094
 20
9718.357769853653
 30
0.0
 11
28286.65099615409
 21
9718.357769853653
 31
0.0
  0
LINE
  5
30E
330
22
100
AcDbEntity
  8
_0-3_寸法
  6
Continuous
 62
     4
100
AcDbLine
 10
7286.650996154094
 20
10218.35756365379
 30
0.0
 11
7286.650996154094
 21
9718.357769853653
 31
0.0
  0
LINE
  5
30F
330
22
100
AcDbEntity
  8
_0-3_寸法
  6
Continuous
 62
     4
100
AcDbLine
 10
14286.6518209535
 20
10218.35756365379
 30
0.0
 11
14286.6518209535
 21
9718.357769853653
 31
0.0
  0
LINE
  5
310
330
22
100
AcDbEntity
  8
_0-3_寸法
  6
Continuous
 62
     4
100
AcDbLine
 10
21286.65264575292
 20
10218.35756365379
 30
0.0
 11
21286.65264575292
 21
9718.357769853653
 31
0.0
  0
LINE
  5
311
330
22
100
AcDbEntity
  8
_0-3_寸法
  6
Continuous
 62
     4
100
AcDbLine
 10
28286.65099615409
 20
10218.35756365379
 30
0.0
 11
28286.65099615409
 21
9718.357769853653
 31
0.0
  0
LINE
  5
312
330
22
100
AcDbEntity
  8
_0-3_寸法
  6
Continuous
 62
     4
100
AcDbLine
 10
2786.650996154094
 20
25218.35818225335
 30
0.0
 11
2786.650996154094
 21
12218.3579760535
 31
0.0
  0
LINE
  5
313
330
22
100
AcDbEntity
  8
_0-3_寸法
  6
Continuous
 62
     4
100
AcDbLine
 10
6786.651820953506
 20
25218.35818225335
 30
0.0
 11
2786.650996154094
 21
25218.35818225335
 31
0.0
  0
LINE
  5
314
330
22
100
AcDbEntity
  8
_0-3_寸法
  6
Continuous
 62
     4
100
AcDbLine
 10
6786.651820953506
 20
12218.3579760535
 30
0.0
 11
2786.650996154094
 21
12218.3579760535
 31
0.0
  0
LINE
  5
315
330
22
100
AcDbEntity
  8
ADD_LINE
  6
DOT
 62
     6
100
AcDbLine
 10
3286.652645752912
 20
25218.35818225335
 30
0.0
 11
3286.652645752912
 21
12218.3579760535
 31
0.0
  0
LINE
  5
316
330
22
100
AcDbEntity
  8
_0-3_寸法
  6
Continuous
 62
     4
100
AcDbLine
 10
3286.652645752912
 20
12218.3579760535
 30
0.0
 11
3286.652645752912
 21
25218.35818225335
 31
0.0
  0
LINE
  5
317
330
22
100
AcDbEntity
  8
_0-3_寸法
  6
Continuous
 62
     4
100
AcDbLine
 10
4286.653470552324
 20
15218.35859465305
 30
0.0
 11
3286.652645752912
 21
15218.35859465305
 31
0.0
  0
LINE
  5
318
330
22
100
AcDbEntity
  8
ADD_LINE
  6
DOT
 62
     6
100
AcDbLine
 10
3786.651820953505
 20
25218.35818225335
 30
0.0
 11
3786.651820953505
 21
12218.3579760535
 31
0.0
  0
LINE
  5
319
330
22
100
AcDbEntity
  8
_0-3_寸法
  6
Continuous
 62
     4
100
AcDbLine
 10
3786.651820953505
 20
25218.35818225335
 30
0.0
 11
3786.651820953505
 21
12218.3579760535
 31
0.0
  0
LINE
  5
31A
330
22
100
AcDbEntity
  8
_0-6_仕上
  6
Continuous
 62
     4
100
AcDbLine
 10
7838.320555117357
 20
25004.87700087667
 30
0.0
 11
8238.319400398184
 21
25697.69860666213
 31
0.0
  0
LINE
  5
31B
330
22
100
AcDbEntity
  8
_0-6_仕上
  6
Continuous
 62
     4
100
AcDbLine
 10
8792.567282313303
 20
23042.93654479559
 30
0.0
 11
9192.568601992356
 21
23735.7532017846
 31
0.0
  0
LINE
  5
31C
330
22
100
AcDbEntity
  8
_0-6_仕上
  6
Continuous
 62
     4
100
AcDbLine
 10
7838.320555117357
 20
25004.87700087667
 30
0.0
 11
7838.320555117357
 21
25104.87733079644
 31
0.0
  0
LINE
  5
31D
330
22
100
AcDbEntity
  8
_0-6_仕上
  6
Continuous
 62
     4
100
AcDbLine
 10
8792.567282313303
 20
23042.93654479559
 30
0.0
 11
8792.567282313303
 21
23142.93687471534
 31
0.0
  0
LINE
  5
31E
330
22
100
AcDbEntity
  8
_0-1_ＧＬ
  6
Continuous
 62
     3
100
AcDbLine
 10
7125.114856743198
 20
15218.35859465305
 30
0.0
 11
4286.653470552324
 21
15218.35859465305
 31
0.0
  0
LINE
  5
31F
330
22
100
AcDbEntity
  8
_0-1_ＧＬ
  6
Continuous
 62
     3
100
AcDbLine
 10
7448.189609963218
 20
15218.35859465305
 30
0.0
 11
14125.11320714439
 21
15218.35859465305
 31
0.0
  0
LINE
  5
320
330
22
100
AcDbEntity
  8
_0-1_ＧＬ
  6
Continuous
 62
     3
100
AcDbLine
 10
14448.19043476263
 20
15218.35859465305
 30
0.0
 11
21125.11403194379
 21
15218.35859465305
 31
0.0
  0
LINE
  5
321
330
22
100
AcDbEntity
  8
_0-1_ＧＬ
  6
Continuous
 62
     3
100
AcDbLine
 10
21448.19125956204
 20
15218.35859465305
 30
0.0
 11
28125.1148567432
 21
15218.35859465305
 31
0.0
  0
LINE
  5
322
330
22
100
AcDbEntity
  8
_0-1_ＧＬ
  6
Continuous
 62
     3
100
AcDbLine
 10
28448.18960996322
 20
15218.35859465305
 30
0.0
 11
31286.45304429599
 21
15218.35859465305
 31
0.0
  0
LINE
  5
323
330
22
100
AcDbEntity
  8
_0-6_仕上
  6
Continuous
 62
     4
100
AcDbLine
 10
9192.568601992356
 20
23735.7532017846
 30
0.0
 11
12200.51884349362
 21
23735.7532017846
 31
0.0
  0
LINE
  5
324
330
22
100
AcDbEntity
  8
_0-0_パイプ
  6
CENTER1
 62
     4
100
AcDbLine
 10
7286.453044295992
 20
25318.35851217312
 30
0.0
 11
7286.453044295992
 21
10218.35756365379
 31
0.0
  0
LINE
  5
325
330
22
100
AcDbEntity
  8
_0-0_パイプ
  6
CENTER1
 62
     4
100
AcDbLine
 10
14286.45386909539
 20
25318.35851217312
 30
0.0
 11
14286.45386909539
 21
10218.35756365379
 31
0.0
  0
LINE
  5
326
330
22
100
AcDbEntity
  8
_0-0_パイプ
  6
CENTER1
 62
     4
100
AcDbLine
 10
28286.45304429599
 20
25318.35851217312
 30
0.0
 11
28286.45304429599
 21
10218.35756365379
 31
0.0
  0
LINE
  5
327
330
22
100
AcDbEntity
  8
_0-3_寸法
  6
Continuous
 62
     4
100
AcDbLine
 10
4620.432470499537
 20
15318.35645017459
 30
0.0
 11
3786.651820953505
 21
15318.35645017459
 31
0.0
  0
LINE
  5
328
330
22
100
AcDbEntity
  8
_0-3_寸法
  6
Continuous
 62
     4
100
AcDbLine
 10
4599.979094760516
 20
14818.357274974
 30
0.0
 11
3786.651820953505
 21
14818.357274974
 31
0.0
  0
LINE
  5
329
330
22
100
AcDbEntity
  8
_0-1_ＧＬ
  6
Continuous
 62
     3
100
AcDbLine
 10
30486.45535373433
 20
15218.35859465305
 30
0.0
 11
30886.45667341339
 21
14818.357274974
 31
0.0
  0
LINE
  5
32A
330
22
100
AcDbEntity
  8
_0-1_ＧＬ
  6
Continuous
 62
     3
100
AcDbLine
 10
30486.45535373433
 20
15218.35859465305
 30
0.0
 11
30086.45650845351
 21
14818.357274974
 31
0.0
  0
LINE
  5
32B
330
22
100
AcDbEntity
  8
_0-1_ＧＬ
  6
Continuous
 62
     3
100
AcDbLine
 10
30086.45650845351
 20
14818.357274974
 30
0.0
 11
29686.45518877445
 21
15218.35859465305
 31
0.0
  0
LINE
  5
32C
330
22
100
AcDbEntity
  8
_0-1_ＧＬ
  6
Continuous
 62
     3
100
AcDbLine
 10
29771.06723612454
 20
15125.85074256269
 30
0.0
 11
29463.57376853585
 21
14818.357274974
 31
0.0
  0
LINE
  5
32D
330
22
100
AcDbEntity
  8
_0-1_ＧＬ
  6
Continuous
 62
     3
100
AcDbLine
 10
29874.67771305654
 20
15025.94196537729
 30
0.0
 11
29667.09302265325
 21
14818.357274974
 31
0.0
  0
LINE
  5
32E
330
22
100
AcDbEntity
  8
_0-1_ＧＬ
  6
Continuous
 62
     3
100
AcDbLine
 10
29978.28571559034
 20
14926.03318819191
 30
0.0
 11
29870.61227677065
 21
14818.357274974
 31
0.0
  0
LINE
  5
32F
330
22
100
AcDbEntity
  8
_0-1_ＧＬ
  6
Continuous
 62
     3
100
AcDbLine
 10
30586.45568365409
 20
15118.35826473329
 30
0.0
 11
30286.45716829304
 21
14818.357274974
 31
0.0
  0
LINE
  5
330
330
22
100
AcDbEntity
  8
_0-1_ＧＬ
  6
Continuous
 62
     3
100
AcDbLine
 10
30686.45601357386
 20
15018.35793481353
 30
0.0
 11
30486.45535373433
 21
14818.357274974
 31
0.0
  0
LINE
  5
331
330
22
100
AcDbEntity
  8
_0-1_ＧＬ
  6
Continuous
 62
     3
100
AcDbLine
 10
30786.4538690954
 20
14918.35760489377
 30
0.0
 11
30686.45353917564
 21
14818.357274974
 31
0.0
  0
LINE
  5
332
330
22
100
AcDbEntity
  8
_0-1_ＧＬ
  6
Continuous
 62
     3
100
AcDbLine
 10
30386.45502381457
 20
15118.35826473329
 30
0.0
 11
30286.45716829304
 21
15218.35859465305
 31
0.0
  0
LINE
  5
333
330
22
100
AcDbEntity
  8
_0-1_ＧＬ
  6
Continuous
 62
     3
100
AcDbLine
 10
30286.45716829304
 20
15018.35793481353
 30
0.0
 11
30086.45650845351
 21
15218.35859465305
 31
0.0
  0
LINE
  5
334
330
22
100
AcDbEntity
  8
_0-1_ＧＬ
  6
Continuous
 62
     3
100
AcDbLine
 10
30186.45683837328
 20
14918.35760489377
 30
0.0
 11
29886.45584861398
 21
15218.35859465305
 31
0.0
  0
LINE
  5
335
330
22
100
AcDbEntity
  8
_0-1_ＧＬ
  6
Continuous
 62
     3
100
AcDbLine
 10
29686.45518877445
 20
15218.35859465305
 30
0.0
 11
29386.45419901517
 21
14918.35760489377
 31
0.0
  0
LINE
  5
336
330
22
100
AcDbEntity
  8
_0-1_ＧＬ
  6
Continuous
 62
     3
100
AcDbLine
 10
29486.45452893492
 20
15018.35793481353
 30
0.0
 11
29286.4538690954
 21
15218.35859465305
 31
0.0
  0
LINE
  5
337
330
22
100
AcDbEntity
  8
_0-1_ＧＬ
  6
Continuous
 62
     3
100
AcDbLine
 10
29586.45485885469
 20
15118.35826473329
 30
0.0
 11
29486.45452893492
 21
15218.35859465305
 31
0.0
  0
LINE
  5
338
330
22
100
AcDbEntity
  8
_0-6_仕上
  6
Continuous
 62
     4
100
AcDbLine
 10
28916.89507079515
 20
24759.99570600758
 30
0.0
 11
28916.89507079515
 21
24859.99603592734
 31
0.0
  0
LINE
  5
339
330
22
100
AcDbEntity
  8
_0-6_仕上
  6
Continuous
 62
     4
100
AcDbLine
 10
14319.74442283272
 20
21414.16267510069
 30
0.0
 11
14719.74574251178
 21
22106.97933208972
 31
0.0
  0
LINE
  5
33A
330
22
100
AcDbEntity
  8
_0-6_仕上
  6
Continuous
 62
     4
100
AcDbLine
 10
14319.74442283272
 20
21414.16267510069
 30
0.0
 11
14319.74442283272
 21
21514.16300502046
 31
0.0
  0
LINE
  5
33B
330
22
100
AcDbEntity
  8
_0-6_仕上
  6
Continuous
 62
     4
100
AcDbLine
 10
14719.74574251178
 20
22106.97933208972
 30
0.0
 11
14919.74392795308
 21
22106.97933208972
 31
0.0
  0
LINE
  5
33C
330
22
100
AcDbEntity
  8
_0-6_仕上
  6
Continuous
 62
     4
100
AcDbLine
 10
8238.319400398184
 20
25697.69860666213
 30
0.0
 11
10177.38404487664
 21
25697.69860666213
 31
0.0
  0
LINE
  5
33D
330
22
100
AcDbEntity
  8
_0-2_メッセン
  6
Continuous
 62
     6
100
AcDbLine
 10
28311.87006287707
 20
24888.35758839778
 30
0.0
 11
30286.65264575291
 21
24888.35758839778
 31
0.0
  0
LINE
  5
33E
330
22
100
AcDbEntity
  8
_0-2_メッセン
  6
Continuous
 62
     6
100
AcDbLine
 10
21324.15462527149
 20
15318.35645017459
 30
0.0
 11
28248.52299388425
 21
15318.35645017459
 31
0.0
  0
LINE
  5
33F
330
22
100
AcDbEntity
  8
_0-2_メッセン
  6
Continuous
 62
     6
100
AcDbLine
 10
30286.65264575291
 20
15318.35645017459
 30
0.0
 11
28324.7839472204
 21
15318.35645017459
 31
0.0
  0
LINE
  5
340
330
22
100
AcDbEntity
  8
_0-2_メッセン
  6
Continuous
 62
     6
100
AcDbLine
 10
30286.65264575291
 20
17969.62466174554
 30
0.0
 11
28537.28526689945
 21
15463.35866063701
 31
0.0
  0
LINE
  5
341
330
22
100
AcDbEntity
  8
_0-2_メッセン
  6
Continuous
 62
     6
100
AcDbLine
 10
21324.15215087328
 20
20103.36011228397
 30
0.0
 11
30286.65264575291
 21
20103.36011228397
 31
0.0
  0
LINE
  5
342
330
22
100
AcDbEntity
  8
_0-0_パイプ
  6
CENTER1
 62
     4
100
AcDbLine
 10
21286.45221949658
 20
25318.35851217312
 30
0.0
 11
21286.45221949658
 21
10218.35756365379
 31
0.0
  0
LINE
  5
343
330
22
100
AcDbEntity
  8
_0-2_メッセン
  6
Continuous
 62
     6
100
AcDbLine
 10
21286.45221949658
 20
24808.36029373984
 30
0.0
 11
21286.45221949658
 21
20223.36100306733
 31
0.0
  0
LINE
  5
344
330
22
100
AcDbEntity
  8
_0-2_メッセン
  6
Continuous
 62
     6
100
AcDbLine
 10
21286.45221949658
 20
15438.35734095796
 30
0.0
 11
21286.45221949658
 21
20073.36050818769
 31
0.0
  0
LINE
  5
345
330
22
100
AcDbEntity
  8
_0-2_メッセン
  6
Continuous
 62
     6
100
AcDbLine
 10
28286.65347055233
 20
24808.53350161569
 30
0.0
 11
28286.65347055233
 21
20223.36100306733
 31
0.0
  0
LINE
  5
346
330
22
100
AcDbEntity
  8
_0-2_メッセン
  6
Continuous
 62
     6
100
AcDbLine
 10
28286.45304429599
 20
20073.36050818769
 30
0.0
 11
28286.45304429599
 21
15438.35734095796
 31
0.0
  0
LINE
  5
347
330
22
100
AcDbEntity
  8
_0-2_メッセン
  6
Continuous
 62
     6
100
AcDbLine
 10
14286.45386909539
 20
24808.70176069508
 30
0.0
 11
14286.45386909539
 21
20223.36100306733
 31
0.0
  0
LINE
  5
348
330
22
100
AcDbEntity
  8
_0-2_メッセン
  6
Continuous
 62
     6
100
AcDbLine
 10
14286.45386909539
 20
20073.36050818769
 30
0.0
 11
14286.45386909539
 21
15438.35981535618
 31
0.0
  0
LINE
  5
349
330
22
100
AcDbEntity
  8
_0-6_仕上
  6
Continuous
 62
     4
100
AcDbLine
 10
7950.851237655365
 20
14718.35694505424
 30
0.0
 11
7950.851237655365
 21
14618.35661513447
 31
0.0
  0
LINE
  5
34A
330
22
100
AcDbEntity
  8
_0-6_仕上
  6
Continuous
 62
     4
100
AcDbLine
 10
8350.852557334418
 20
14025.53781366699
 30
0.0
 11
9150.852722294301
 21
14025.53781366699
 31
0.0
  0
LINE
  5
34B
330
22
100
AcDbEntity
  8
_0-6_仕上
  6
Continuous
 62
     4
100
AcDbLine
 10
14319.74442283272
 20
23042.43671635386
 30
0.0
 11
14719.74574251178
 21
23735.25337334288
 31
0.0
  0
LINE
  5
34C
330
22
100
AcDbEntity
  8
_0-6_仕上
  6
Continuous
 62
     4
100
AcDbLine
 10
14319.74442283272
 20
23042.43671635386
 30
0.0
 11
14319.74442283272
 21
23142.43704627362
 31
0.0
  0
LINE
  5
34D
330
22
100
AcDbEntity
  8
_0-6_仕上
  6
Continuous
 62
     4
100
AcDbLine
 10
14719.74574251178
 20
23735.25337334288
 30
0.0
 11
14919.74392795308
 21
23735.25337334288
 31
0.0
  0
LINE
  5
34E
330
22
100
AcDbEntity
  8
_0-2_メッセン
  6
Continuous
 62
     6
100
AcDbLine
 10
7324.152975672676
 20
15318.35645017459
 30
0.0
 11
14248.52134428543
 21
15318.35645017459
 31
0.0
  0
LINE
  5
34F
330
22
100
AcDbEntity
  8
_0-4_ハッチ
  6
Continuous
 62
     5
100
AcDbLine
 10
29937.1166779003
 20
15923.7699386142
 30
0.0
 11
30286.65264575291
 21
15923.7699386142
 31
0.0
  0
LINE
  5
350
330
22
100
AcDbEntity
  8
_0-6_仕上
  6
Continuous
 62
     4
100
AcDbLine
 10
17204.77893243999
 20
24891.12891441129
 30
0.0
 11
17604.77777772082
 21
25583.94557140032
 31
0.0
  0
LINE
  5
351
330
22
100
AcDbEntity
  8
_0-6_仕上
  6
Continuous
 62
     4
100
AcDbLine
 10
17204.77893243999
 20
24891.12891441129
 30
0.0
 11
17204.77893243999
 21
24991.12924433106
 31
0.0
  0
LINE
  5
352
330
22
100
AcDbEntity
  8
_0-6_仕上
  6
Continuous
 62
     4
100
AcDbLine
 10
17604.77777772082
 20
25583.94557140032
 30
0.0
 11
17804.77596316212
 21
25583.94557140032
 31
0.0
  0
LINE
  5
353
330
22
100
AcDbEntity
  8
_0-6_仕上
  6
Continuous
 62
     4
100
AcDbLine
 10
17204.77893243999
 20
20107.53689649005
 30
0.0
 11
17604.77777772082
 21
20800.35355347907
 31
0.0
  0
LINE
  5
354
330
22
100
AcDbEntity
  8
_0-6_仕上
  6
Continuous
 62
     4
100
AcDbLine
 10
17204.77893243999
 20
20107.53689649005
 30
0.0
 11
17204.77893243999
 21
20207.53722640981
 31
0.0
  0
LINE
  5
355
330
22
100
AcDbEntity
  8
_0-6_仕上
  6
Continuous
 62
     4
100
AcDbLine
 10
17604.77777772082
 20
20800.35355347907
 30
0.0
 11
17804.77596316212
 21
20800.35355347907
 31
0.0
  0
LINE
  5
356
330
22
100
AcDbEntity
  8
_0-6_仕上
  6
Continuous
 62
     4
100
AcDbLine
 10
17204.77893243999
 20
15319.84108911041
 30
0.0
 11
17604.77777772082
 21
16012.65774609943
 31
0.0
  0
LINE
  5
357
330
22
100
AcDbEntity
  8
_0-6_仕上
  6
Continuous
 62
     4
100
AcDbLine
 10
17204.77893243999
 20
15319.84108911041
 30
0.0
 11
17204.77893243999
 21
15419.84141903017
 31
0.0
  0
LINE
  5
358
330
22
100
AcDbEntity
  8
_0-6_仕上
  6
Continuous
 62
     4
100
AcDbLine
 10
17604.77777772082
 20
16012.65774609943
 30
0.0
 11
17804.77596316212
 21
16012.65774609943
 31
0.0
  0
LINE
  5
359
330
22
100
AcDbEntity
  8
_0-6_仕上
  6
Continuous
 62
     4
100
AcDbLine
 10
7950.851237655365
 20
14718.35694505424
 30
0.0
 11
8350.852557334418
 21
14025.53781366699
 31
0.0
  0
LINE
  5
35A
330
22
100
AcDbEntity
  8
_0-2_メッセン
  6
Continuous
 62
     6
100
AcDbLine
 10
7286.453044295992
 20
24808.3751401292
 30
0.0
 11
7286.453044295992
 21
20223.36100306733
 31
0.0
  0
LINE
  5
35B
330
22
100
AcDbEntity
  8
_0-2_メッセン
  6
Continuous
 62
     6
100
AcDbLine
 10
7286.453044295992
 20
20073.36050818769
 30
0.0
 11
7286.453044295992
 21
15463.35866063701
 31
0.0
  0
LINE
  5
35C
330
22
100
AcDbEntity
  8
_0-4_ハッチ
  6
Continuous
 62
     5
100
AcDbLine
 10
7286.453044295992
 20
15423.76828901539
 30
0.0
 11
9970.895512887629
 21
15423.76828901539
 31
0.0
  0
LINE
  5
35D
330
22
100
AcDbEntity
  8
_0-4_ハッチ
  6
Continuous
 62
     5
100
AcDbLine
 10
7378.13939617521
 20
15318.35645017459
 30
0.0
 11
7378.13939617521
 21
19914.55363002044
 31
0.0
  0
LINE
  5
35E
330
22
100
AcDbEntity
  8
_0-4_ハッチ
  6
Continuous
 62
     5
100
AcDbLine
 10
7478.13725169675
 20
15318.35645017459
 30
0.0
 11
7478.13725169675
 21
19741.35070297232
 31
0.0
  0
LINE
  5
35F
330
22
100
AcDbEntity
  8
_0-4_ハッチ
  6
Continuous
 62
     5
100
AcDbLine
 10
7578.137581616513
 20
15318.35645017459
 30
0.0
 11
7578.137581616513
 21
19568.14530152595
 31
0.0
  0
LINE
  5
360
330
22
100
AcDbEntity
  8
_0-4_ハッチ
  6
Continuous
 62
     5
100
AcDbLine
 10
7678.137911536277
 20
15318.35645017459
 30
0.0
 11
7678.137911536277
 21
19394.93990007957
 31
0.0
  0
LINE
  5
361
330
22
100
AcDbEntity
  8
_0-4_ハッチ
  6
Continuous
 62
     5
100
AcDbLine
 10
7778.138241456038
 20
15318.35645017459
 30
0.0
 11
7778.138241456038
 21
19221.73697303144
 31
0.0
  0
LINE
  5
362
330
22
100
AcDbEntity
  8
_0-4_ハッチ
  6
Continuous
 62
     5
100
AcDbLine
 10
7878.138571375801
 20
15318.35645017459
 30
0.0
 11
7878.138571375801
 21
19048.53157158506
 31
0.0
  0
LINE
  5
363
330
22
100
AcDbEntity
  8
_0-4_ハッチ
  6
Continuous
 62
     5
100
AcDbLine
 10
7978.136426897339
 20
15318.35645017459
 30
0.0
 11
7978.136426897339
 21
18875.3261701387
 31
0.0
  0
LINE
  5
364
330
22
100
AcDbEntity
  8
_0-4_ハッチ
  6
Continuous
 62
     5
100
AcDbLine
 10
8078.136756817105
 20
15318.35645017459
 30
0.0
 11
8078.136756817105
 21
18702.12324309056
 31
0.0
  0
LINE
  5
365
330
22
100
AcDbEntity
  8
_0-4_ハッチ
  6
Continuous
 62
     5
100
AcDbLine
 10
8178.137086736866
 20
15318.35645017459
 30
0.0
 11
8178.137086736866
 21
18528.91784164419
 31
0.0
  0
LINE
  5
366
330
22
100
AcDbEntity
  8
_0-4_ハッチ
  6
Continuous
 62
     5
100
AcDbLine
 10
8278.134942258402
 20
15318.35645017459
 30
0.0
 11
8278.134942258402
 21
18355.71244019782
 31
0.0
  0
LINE
  5
367
330
22
100
AcDbEntity
  8
_0-4_ハッチ
  6
Continuous
 62
     5
100
AcDbLine
 10
8378.135272178166
 20
15318.35645017459
 30
0.0
 11
8378.135272178166
 21
18182.50951314968
 31
0.0
  0
LINE
  5
368
330
22
100
AcDbEntity
  8
_0-4_ハッチ
  6
Continuous
 62
     5
100
AcDbLine
 10
8478.135602097934
 20
15318.35645017459
 30
0.0
 11
8478.135602097934
 21
18009.30411170331
 31
0.0
  0
LINE
  5
369
330
22
100
AcDbEntity
  8
_0-4_ハッチ
  6
Continuous
 62
     5
100
AcDbLine
 10
8578.135932017694
 20
15318.35645017459
 30
0.0
 11
8578.135932017694
 21
17836.09871025694
 31
0.0
  0
LINE
  5
36A
330
22
100
AcDbEntity
  8
_0-4_ハッチ
  6
Continuous
 62
     5
100
AcDbLine
 10
8678.136261937458
 20
15318.35645017459
 30
0.0
 11
8678.136261937458
 21
17662.8957832088
 31
0.0
  0
LINE
  5
36B
330
22
100
AcDbEntity
  8
_0-4_ハッチ
  6
Continuous
 62
     5
100
AcDbLine
 10
8778.134117458996
 20
15318.35645017459
 30
0.0
 11
8778.134117458996
 21
17489.69038176243
 31
0.0
  0
LINE
  5
36C
330
22
100
AcDbEntity
  8
_0-4_ハッチ
  6
Continuous
 62
     5
100
AcDbLine
 10
8878.13444737876
 20
15318.35645017459
 30
0.0
 11
8878.13444737876
 21
17316.48498031606
 31
0.0
  0
LINE
  5
36D
330
22
100
AcDbEntity
  8
_0-4_ハッチ
  6
Continuous
 62
     5
100
AcDbLine
 10
8978.134777298521
 20
15318.35645017459
 30
0.0
 11
8978.134777298521
 21
17143.28205326792
 31
0.0
  0
LINE
  5
36E
330
22
100
AcDbEntity
  8
_0-4_ハッチ
  6
Continuous
 62
     5
100
AcDbLine
 10
9078.132632820059
 20
15318.35645017459
 30
0.0
 11
9078.132632820059
 21
16970.07665182155
 31
0.0
  0
LINE
  5
36F
330
22
100
AcDbEntity
  8
_0-4_ハッチ
  6
Continuous
 62
     5
100
AcDbLine
 10
9178.132962739821
 20
15318.35645017459
 30
0.0
 11
9178.132962739821
 21
16796.87125037519
 31
0.0
  0
LINE
  5
370
330
22
100
AcDbEntity
  8
_0-4_ハッチ
  6
Continuous
 62
     5
100
AcDbLine
 10
9278.133292659587
 20
15318.35645017459
 30
0.0
 11
9278.133292659587
 21
16623.66832332704
 31
0.0
  0
LINE
  5
371
330
22
100
AcDbEntity
  8
_0-4_ハッチ
  6
Continuous
 62
     5
100
AcDbLine
 10
9378.133622579351
 20
15318.35645017459
 30
0.0
 11
9378.133622579351
 21
16450.46292188068
 31
0.0
  0
LINE
  5
372
330
22
100
AcDbEntity
  8
_0-4_ハッチ
  6
Continuous
 62
     5
100
AcDbLine
 10
7286.453044295992
 20
15523.76861893515
 30
0.0
 11
9913.160379072172
 21
15523.76861893515
 31
0.0
  0
LINE
  5
373
330
22
100
AcDbEntity
  8
_0-4_ハッチ
  6
Continuous
 62
     5
100
AcDbLine
 10
9478.133952499112
 20
15318.35645017459
 30
0.0
 11
9478.133952499112
 21
16277.25752043431
 31
0.0
  0
LINE
  5
374
330
22
100
AcDbEntity
  8
_0-4_ハッチ
  6
Continuous
 62
     5
100
AcDbLine
 10
9578.131808020652
 20
15318.35645017459
 30
0.0
 11
9578.131808020652
 21
16104.05459338617
 31
0.0
  0
LINE
  5
375
330
22
100
AcDbEntity
  8
_0-4_ハッチ
  6
Continuous
 62
     5
100
AcDbLine
 10
9678.132137940416
 20
15318.35645017459
 30
0.0
 11
9678.132137940416
 21
15930.8491919398
 31
0.0
  0
LINE
  5
376
330
22
100
AcDbEntity
  8
_0-4_ハッチ
  6
Continuous
 62
     5
100
AcDbLine
 10
9778.132467860176
 20
15318.35645017459
 30
0.0
 11
9778.132467860176
 21
15757.64379049343
 31
0.0
  0
LINE
  5
377
330
22
100
AcDbEntity
  8
_0-4_ハッチ
  6
Continuous
 62
     5
100
AcDbLine
 10
7286.453044295992
 20
15623.76894885491
 30
0.0
 11
9855.425245256718
 21
15623.76894885491
 31
0.0
  0
LINE
  5
378
330
22
100
AcDbEntity
  8
_0-4_ハッチ
  6
Continuous
 62
     5
100
AcDbLine
 10
7286.453044295992
 20
15723.76927877468
 30
0.0
 11
9797.69011144126
 21
15723.76927877468
 31
0.0
  0
LINE
  5
379
330
22
100
AcDbEntity
  8
_0-4_ハッチ
  6
Continuous
 62
     5
100
AcDbLine
 10
7286.453044295992
 20
15823.76960869444
 30
0.0
 11
9739.954977625805
 21
15823.76960869444
 31
0.0
  0
LINE
  5
37A
330
22
100
AcDbEntity
  8
_0-4_ハッチ
  6
Continuous
 62
     5
100
AcDbLine
 10
7286.453044295992
 20
15923.7699386142
 30
0.0
 11
9682.219843810349
 21
15923.7699386142
 31
0.0
  0
LINE
  5
37B
330
22
100
AcDbEntity
  8
_0-4_ハッチ
  6
Continuous
 62
     5
100
AcDbLine
 10
7286.453044295992
 20
16023.77026853397
 30
0.0
 11
9624.484709994893
 21
16023.77026853397
 31
0.0
  0
LINE
  5
37C
330
22
100
AcDbEntity
  8
_0-4_ハッチ
  6
Continuous
 62
     5
100
AcDbLine
 10
7286.453044295992
 20
16123.77059845373
 30
0.0
 11
9566.749576179438
 21
16123.77059845373
 31
0.0
  0
LINE
  5
37D
330
22
100
AcDbEntity
  8
_0-4_ハッチ
  6
Continuous
 62
     5
100
AcDbLine
 10
7286.453044295992
 20
16223.77092837349
 30
0.0
 11
9509.014442363975
 21
16223.77092837349
 31
0.0
  0
LINE
  5
37E
330
22
100
AcDbEntity
  8
_0-4_ハッチ
  6
Continuous
 62
     5
100
AcDbLine
 10
7286.453044295992
 20
16323.77125829326
 30
0.0
 11
9451.279308548521
 21
16323.77125829326
 31
0.0
  0
LINE
  5
37F
330
22
100
AcDbEntity
  8
_0-4_ハッチ
  6
Continuous
 62
     5
100
AcDbLine
 10
7286.453044295992
 20
16423.77158821302
 30
0.0
 11
9393.544174733069
 21
16423.77158821302
 31
0.0
  0
LINE
  5
380
330
22
100
AcDbEntity
  8
_0-4_ハッチ
  6
Continuous
 62
     5
100
AcDbLine
 10
7286.453044295992
 20
16523.77191813279
 30
0.0
 11
9335.809040917608
 21
16523.77191813279
 31
0.0
  0
LINE
  5
381
330
22
100
AcDbEntity
  8
_0-4_ハッチ
  6
Continuous
 62
     5
100
AcDbLine
 10
7286.453044295992
 20
16623.77224805255
 30
0.0
 11
9278.073907102154
 21
16623.77224805255
 31
0.0
  0
LINE
  5
382
330
22
100
AcDbEntity
  8
_0-4_ハッチ
  6
Continuous
 62
     5
100
AcDbLine
 10
7286.453044295992
 20
16723.77257797232
 30
0.0
 11
9128.135272178168
 21
16723.77257797232
 31
0.0
  0
LINE
  5
383
330
22
100
AcDbEntity
  8
_0-4_ハッチ
  6
Continuous
 62
     5
100
AcDbLine
 10
7286.453044295992
 20
16823.77290789208
 30
0.0
 11
9162.603639471241
 21
16823.77290789208
 31
0.0
  0
LINE
  5
384
330
22
100
AcDbEntity
  8
_0-4_ハッチ
  6
Continuous
 62
     5
100
AcDbLine
 10
7286.453044295992
 20
16923.77323781184
 30
0.0
 11
9104.866031257559
 21
16923.77323781184
 31
0.0
  0
LINE
  5
385
330
22
100
AcDbEntity
  8
_0-4_ハッチ
  6
Continuous
 62
     5
100
AcDbLine
 10
7286.453044295992
 20
17023.7735677316
 30
0.0
 11
9047.133371840327
 21
17023.7735677316
 31
0.0
  0
LINE
  5
386
330
22
100
AcDbEntity
  8
_0-4_ハッチ
  6
Continuous
 62
     5
100
AcDbLine
 10
7286.453044295992
 20
17123.77389765137
 30
0.0
 11
8989.395763626646
 21
17123.77389765137
 31
0.0
  0
LINE
  5
387
330
22
100
AcDbEntity
  8
_0-4_ハッチ
  6
Continuous
 62
     5
100
AcDbLine
 10
7286.453044295992
 20
17223.77422757113
 30
0.0
 11
8931.66310420942
 21
17223.77422757113
 31
0.0
  0
LINE
  5
388
330
22
100
AcDbEntity
  8
_0-4_ハッチ
  6
Continuous
 62
     5
100
AcDbLine
 10
7286.453044295992
 20
17323.77455749089
 30
0.0
 11
8873.925495995734
 21
17323.77455749089
 31
0.0
  0
LINE
  5
389
330
22
100
AcDbEntity
  8
_0-4_ハッチ
  6
Continuous
 62
     5
100
AcDbLine
 10
7286.453044295992
 20
17423.77488741066
 30
0.0
 11
8816.190362180277
 21
17423.77488741066
 31
0.0
  0
LINE
  5
38A
330
22
100
AcDbEntity
  8
_0-4_ハッチ
  6
Continuous
 62
     5
100
AcDbLine
 10
7286.453044295992
 20
17523.77521733042
 30
0.0
 11
8758.455228364821
 21
17523.77521733042
 31
0.0
  0
LINE
  5
38B
330
22
100
AcDbEntity
  8
_0-4_ハッチ
  6
Continuous
 62
     5
100
AcDbLine
 10
7286.453044295992
 20
17623.77554725019
 30
0.0
 11
8700.722568947591
 21
17623.77554725019
 31
0.0
  0
LINE
  5
38C
330
22
100
AcDbEntity
  8
_0-4_ハッチ
  6
Continuous
 62
     5
100
AcDbLine
 10
7286.453044295992
 20
17723.77587716995
 30
0.0
 11
8642.98496073391
 21
17723.77587716995
 31
0.0
  0
LINE
  5
38D
330
22
100
AcDbEntity
  8
_0-4_ハッチ
  6
Continuous
 62
     5
100
AcDbLine
 10
7286.453044295992
 20
17823.7762070897
 30
0.0
 11
8585.249826918454
 21
17823.7762070897
 31
0.0
  0
LINE
  5
38E
330
22
100
AcDbEntity
  8
_0-4_ハッチ
  6
Continuous
 62
     5
100
AcDbLine
 10
7286.453044295992
 20
17923.77653700946
 30
0.0
 11
8527.514693102999
 21
17923.77653700946
 31
0.0
  0
LINE
  5
38F
330
22
100
AcDbEntity
  8
_0-4_ハッチ
  6
Continuous
 62
     5
100
AcDbLine
 10
7286.453044295992
 20
18023.77686692924
 30
0.0
 11
8469.779559287541
 21
18023.77686692924
 31
0.0
  0
LINE
  5
390
330
22
100
AcDbEntity
  8
_0-4_ハッチ
  6
Continuous
 62
     5
100
AcDbLine
 10
7286.453044295992
 20
18123.77719684899
 30
0.0
 11
8412.044425472087
 21
18123.77719684899
 31
0.0
  0
LINE
  5
391
330
22
100
AcDbEntity
  8
_0-4_ハッチ
  6
Continuous
 62
     5
100
AcDbLine
 10
7286.453044295992
 20
18223.77752676877
 30
0.0
 11
8354.30929165663
 21
18223.77752676877
 31
0.0
  0
LINE
  5
392
330
22
100
AcDbEntity
  8
_0-4_ハッチ
  6
Continuous
 62
     5
100
AcDbLine
 10
7286.453044295992
 20
18323.77785668853
 30
0.0
 11
8296.574157841176
 21
18323.77785668853
 31
0.0
  0
LINE
  5
393
330
22
100
AcDbEntity
  8
_0-4_ハッチ
  6
Continuous
 62
     5
100
AcDbLine
 10
7286.453044295992
 20
18423.77818660829
 30
0.0
 11
8238.839024025716
 21
18423.77818660829
 31
0.0
  0
LINE
  5
394
330
22
100
AcDbEntity
  8
_0-4_ハッチ
  6
Continuous
 62
     5
100
AcDbLine
 10
7286.453044295992
 20
18523.77851652806
 30
0.0
 11
8181.103890210261
 21
18523.77851652806
 31
0.0
  0
LINE
  5
395
330
22
100
AcDbEntity
  8
_0-4_ハッチ
  6
Continuous
 62
     5
100
AcDbLine
 10
7286.453044295992
 20
18623.77884644782
 30
0.0
 11
8123.368756394809
 21
18623.77884644782
 31
0.0
  0
LINE
  5
396
330
22
100
AcDbEntity
  8
_0-4_ハッチ
  6
Continuous
 62
     5
100
AcDbLine
 10
7286.453044295992
 20
18723.77917636758
 30
0.0
 11
8065.633622579349
 21
18723.77917636758
 31
0.0
  0
LINE
  5
397
330
22
100
AcDbEntity
  8
_0-4_ハッチ
  6
Continuous
 62
     5
100
AcDbLine
 10
7286.453044295992
 20
18823.77950628735
 30
0.0
 11
8007.898488763892
 21
18823.77950628735
 31
0.0
  0
LINE
  5
398
330
22
100
AcDbEntity
  8
_0-4_ハッチ
  6
Continuous
 62
     5
100
AcDbLine
 10
7286.453044295992
 20
18923.77983620711
 30
0.0
 11
7950.163354948438
 21
18923.77983620711
 31
0.0
  0
LINE
  5
399
330
22
100
AcDbEntity
  8
_0-4_ハッチ
  6
Continuous
 62
     5
100
AcDbLine
 10
7286.453044295992
 20
19023.78016612687
 30
0.0
 11
7892.428221132982
 21
19023.78016612687
 31
0.0
  0
LINE
  5
39A
330
22
100
AcDbEntity
  8
_0-4_ハッチ
  6
Continuous
 62
     5
100
AcDbLine
 10
7286.453044295992
 20
19123.78049604664
 30
0.0
 11
7834.693087317527
 21
19123.78049604664
 31
0.0
  0
LINE
  5
39B
330
22
100
AcDbEntity
  8
_0-4_ハッチ
  6
Continuous
 62
     5
100
AcDbLine
 10
7286.453044295992
 20
19223.7808259664
 30
0.0
 11
7776.957953502066
 21
19223.7808259664
 31
0.0
  0
LINE
  5
39C
330
22
100
AcDbEntity
  8
_0-4_ハッチ
  6
Continuous
 62
     5
100
AcDbLine
 10
7286.453044295992
 20
19323.78115588616
 30
0.0
 11
7719.222819686613
 21
19323.78115588616
 31
0.0
  0
LINE
  5
39D
330
22
100
AcDbEntity
  8
_0-4_ハッチ
  6
Continuous
 62
     5
100
AcDbLine
 10
7286.453044295992
 20
19423.78148580593
 30
0.0
 11
7661.487685871155
 21
19423.78148580593
 31
0.0
  0
LINE
  5
39E
330
22
100
AcDbEntity
  8
_0-4_ハッチ
  6
Continuous
 62
     5
100
AcDbLine
 10
7286.453044295992
 20
19523.78181572569
 30
0.0
 11
7603.752552055701
 21
19523.78181572569
 31
0.0
  0
LINE
  5
39F
330
22
100
AcDbEntity
  8
_0-4_ハッチ
  6
Continuous
 62
     5
100
AcDbLine
 10
7286.453044295992
 20
19623.78214564544
 30
0.0
 11
7546.017418240245
 21
19623.78214564544
 31
0.0
  0
LINE
  5
3A0
330
22
100
AcDbEntity
  8
_0-4_ハッチ
  6
Continuous
 62
     5
100
AcDbLine
 10
9878.130323381718
 20
15318.35645017459
 30
0.0
 11
9878.130323381718
 21
15584.44086344529
 31
0.0
  0
LINE
  5
3A1
330
22
100
AcDbEntity
  8
_0-4_ハッチ
  6
Continuous
 62
     5
100
AcDbLine
 10
7286.453044295992
 20
20073.36050818769
 30
0.0
 11
7337.245016688301
 21
19985.38575364799
 31
0.0
  0
LINE
  5
3A2
330
22
100
AcDbEntity
  8
_0-4_ハッチ
  6
Continuous
 62
     5
100
AcDbLine
 10
7337.245016688301
 20
19985.38575364799
 30
0.0
 11
10031.75581166296
 21
15318.35645017459
 31
0.0
  0
LINE
  5
3A3
330
22
100
AcDbEntity
  8
_0-4_ハッチ
  6
Continuous
 62
     5
100
AcDbLine
 10
7286.453044295992
 20
19823.78280548498
 30
0.0
 11
7428.139561135093
 21
19823.78280548498
 31
0.0
  0
LINE
  5
3A4
330
22
100
AcDbEntity
  8
_0-4_ハッチ
  6
Continuous
 62
     5
100
AcDbLine
 10
7286.453044295992
 20
19723.78247556522
 30
0.0
 11
7488.282284424788
 21
19723.78247556522
 31
0.0
  0
LINE
  5
3A5
330
22
100
AcDbEntity
  8
_0-4_ハッチ
  6
Continuous
 62
     5
100
AcDbLine
 10
7286.453044295992
 20
19923.78313540475
 30
0.0
 11
7372.812016793876
 21
19923.78313540475
 31
0.0
  0
LINE
  5
3A6
330
22
100
AcDbEntity
  8
_0-4_ハッチ
  6
Continuous
 62
     5
100
AcDbLine
 10
30110.32455374489
 20
15623.76894885491
 30
0.0
 11
30286.65264575291
 21
15623.76894885491
 31
0.0
  0
LINE
  5
3A7
330
22
100
AcDbEntity
  8
_0-4_ハッチ
  6
Continuous
 62
     5
100
AcDbLine
 10
30052.58694553121
 20
15723.76927877468
 30
0.0
 11
30286.65264575291
 21
15723.76927877468
 31
0.0
  0
LINE
  5
3A8
330
22
100
AcDbEntity
  8
_0-4_ハッチ
  6
Continuous
 62
     5
100
AcDbLine
 10
30225.79482137581
 20
15423.76828901539
 30
0.0
 11
30286.65264575291
 21
15423.76828901539
 31
0.0
  0
LINE
  5
3A9
330
22
100
AcDbEntity
  8
_0-4_ハッチ
  6
Continuous
 62
     5
100
AcDbLine
 10
30168.05968756034
 20
15523.76861893515
 30
0.0
 11
30286.65264575291
 21
15523.76861893515
 31
0.0
  0
LINE
  5
3AA
330
22
100
AcDbEntity
  8
_0-2_メッセン
  6
Continuous
 62
     6
100
AcDbLine
 10
30286.65264575291
 20
22268.30267325315
 30
0.0
 11
28457.79274947969
 21
24888.35758839778
 31
0.0
  0
LINE
  5
3AB
330
22
100
AcDbEntity
  8
_0-4_ハッチ
  6
Continuous
 62
     5
100
AcDbLine
 10
24878.14022097462
 20
24686.17450932262
 30
0.0
 11
24878.14022097462
 21
24888.35758839778
 31
0.0
  0
LINE
  5
3AC
330
22
100
AcDbEntity
  8
_0-4_ハッチ
  6
Continuous
 62
     5
100
AcDbLine
 10
30278.15556224362
 20
24888.35758839778
 30
0.0
 11
30278.15556224362
 21
15333.07417082493
 31
0.0
  0
LINE
  5
3AD
330
22
100
AcDbEntity
  8
_0-4_ハッチ
  6
Continuous
 62
     5
100
AcDbLine
 10
9978.130653301477
 20
15318.35645017459
 30
0.0
 11
9978.130653301477
 21
15411.23546199892
 31
0.0
  0
LINE
  5
3AE
330
22
100
AcDbEntity
  8
_0-3_寸法
  6
Continuous
 62
     4
100
AcDbLine
 10
6786.651820953506
 20
24888.35758839778
 30
0.0
 11
3786.651820953505
 21
24888.35758839778
 31
0.0
  0
LINE
  5
3AF
330
22
100
AcDbEntity
  8
_0-3_寸法
  6
Continuous
 62
     4
100
AcDbLine
 10
6786.651820953506
 20
20103.36011228397
 30
0.0
 11
3786.651820953505
 21
20103.36011228397
 31
0.0
  0
CIRCLE
  5
3B0
330
22
100
AcDbEntity
  8
_0-0_パイプ
  6
Continuous
 62
     7
100
AcDbCircle
 10
7286.453044295992
 20
24993.35620273478
 30
0.0
 40
10.00000073297603
  0
CIRCLE
  5
3B1
330
22
100
AcDbEntity
  8
_0-0_パイプ
  6
Continuous
 62
     7
100
AcDbCircle
 10
7285.923523075547
 20
24941.91346360893
 30
0.0
 40
10.00000073297603
  0
CIRCLE
  5
3B2
330
22
100
AcDbEntity
  8
_0-0_パイプ
  6
Continuous
 62
     7
100
AcDbCircle
 10
7411.231998054432
 20
24993.57394977869
 30
0.0
 40
10.00000073297603
  0
CIRCLE
  5
3B3
330
22
100
AcDbEntity
  8
_0-0_パイプ
  6
Continuous
 62
     7
100
AcDbCircle
 10
7411.231998054432
 20
24943.61090079221
 30
0.0
 40
10.00000073297603
  0
CIRCLE
  5
3B4
330
22
100
AcDbEntity
  8
_0-0_パイプ
  6
Continuous
 62
     7
100
AcDbCircle
 10
7157.029645066682
 20
24993.57394977869
 30
0.0
 40
10.00000073297603
  0
CIRCLE
  5
3B5
330
22
100
AcDbEntity
  8
_0-0_パイプ
  6
Continuous
 62
     7
100
AcDbCircle
 10
7157.029645066682
 20
24941.85902684795
 30
0.0
 40
10.00000073297603
  0
CIRCLE
  5
3B6
330
22
100
AcDbEntity
  8
_0-0_パイプ
  6
Continuous
 62
     7
100
AcDbCircle
 10
7286.453044295992
 20
24887.99632625673
 30
0.0
 40
10.00000073297603
  0
CIRCLE
  5
3B7
330
22
100
AcDbEntity
  8
_0-0_パイプ
  6
Continuous
 62
     7
100
AcDbCircle
 10
7117.157192047256
 20
20199.30242911252
 30
0.0
 40
15.00000019331236
  0
CIRCLE
  5
3B8
330
22
100
AcDbEntity
  8
_0-0_パイプ
  6
Continuous
 62
     7
100
AcDbCircle
 10
7456.065619517693
 20
20199.30242911252
 30
0.0
 40
15.00000019331236
  0
CIRCLE
  5
3B9
330
22
100
AcDbEntity
  8
_0-0_パイプ
  6
Continuous
 62
     7
100
AcDbCircle
 10
7286.650996154094
 20
20198.36215778651
 30
0.0
 40
15.00000019331236
  0
CIRCLE
  5
3BA
330
22
100
AcDbEntity
  8
_0-0_パイプ
  6
Continuous
 62
     7
100
AcDbCircle
 10
7286.650996154094
 20
20103.36011228397
 30
0.0
 40
15.00000019331236
  0
CIRCLE
  5
3BB
330
22
100
AcDbEntity
  8
_0-0_パイプ
  6
Continuous
 62
     7
100
AcDbCircle
 10
7081.115107482219
 20
15415.74134116911
 30
0.0
 40
15.00000019331236
  0
CIRCLE
  5
3BC
330
22
100
AcDbEntity
  8
_0-0_パイプ
  6
Continuous
 62
     7
100
AcDbCircle
 10
7493.550278248694
 20
15414.30124140137
 30
0.0
 40
15.00000019331236
  0
CIRCLE
  5
3BD
330
22
100
AcDbEntity
  8
_0-0_パイプ
  6
Continuous
 62
     7
100
AcDbCircle
 10
7286.653470552322
 20
15413.35849567713
 30
0.0
 40
15.00000019331236
  0
CIRCLE
  5
3BE
330
22
100
AcDbEntity
  8
_0-0_パイプ
  6
Continuous
 62
     7
100
AcDbCircle
 10
7286.653470552322
 20
15318.35645017459
 30
0.0
 40
15.00000019331236
  0
CIRCLE
  5
3BF
330
22
100
AcDbEntity
  8
_0-0_パイプ
  6
Continuous
 62
     7
100
AcDbCircle
 10
7586.451559657054
 20
24993.35620273478
 30
0.0
 40
15.00000019331236
  0
CIRCLE
  5
3C0
330
22
100
AcDbEntity
  8
_0-0_パイプ
  6
Continuous
 62
     7
100
AcDbCircle
 10
14080.48001193745
 20
15415.74134116911
 30
0.0
 40
15.00000019331236
  0
CIRCLE
  5
3C1
330
22
100
AcDbEntity
  8
_0-0_パイプ
  6
Continuous
 62
     7
100
AcDbCircle
 10
14492.91765710215
 20
15414.30124140137
 30
0.0
 40
15.00000019331236
  0
CIRCLE
  5
3C2
330
22
100
AcDbEntity
  8
_0-0_パイプ
  6
Continuous
 62
     7
100
AcDbCircle
 10
14286.01837500756
 20
15413.35849567713
 30
0.0
 40
15.00000019331236
  0
CIRCLE
  5
3C3
330
22
100
AcDbEntity
  8
_0-0_パイプ
  6
Continuous
 62
     7
100
AcDbCircle
 10
14286.01837500756
 20
15318.35645017459
 30
0.0
 40
15.00000019331236
  0
CIRCLE
  5
3C4
330
22
100
AcDbEntity
  8
_0-0_パイプ
  6
Continuous
 62
     7
100
AcDbCircle
 10
13986.45287933611
 20
24993.35620273478
 30
0.0
 40
15.00000019331236
  0
CIRCLE
  5
3C5
330
22
100
AcDbEntity
  8
_0-0_パイプ
  6
Continuous
 62
     7
100
AcDbCircle
 10
21081.11428268281
 20
15415.74134116911
 30
0.0
 40
15.00000019331236
  0
CIRCLE
  5
3C6
330
22
100
AcDbEntity
  8
_0-0_パイプ
  6
Continuous
 62
     7
100
AcDbCircle
 10
21493.54945344929
 20
15414.30124140137
 30
0.0
 40
15.00000019331236
  0
CIRCLE
  5
3C7
330
22
100
AcDbEntity
  8
_0-0_パイプ
  6
Continuous
 62
     7
100
AcDbCircle
 10
21286.65264575292
 20
15413.35849567713
 30
0.0
 40
15.00000019331236
  0
CIRCLE
  5
3C8
330
22
100
AcDbEntity
  8
_0-0_パイプ
  6
Continuous
 62
     7
100
AcDbCircle
 10
21286.65264575292
 20
15318.35645017459
 30
0.0
 40
15.00000019331236
  0
CIRCLE
  5
3C9
330
22
100
AcDbEntity
  8
_0-0_パイプ
  6
Continuous
 62
     7
100
AcDbCircle
 10
28081.11510748222
 20
15415.74134116911
 30
0.0
 40
15.00000019331236
  0
CIRCLE
  5
3CA
330
22
100
AcDbEntity
  8
_0-0_パイプ
  6
Continuous
 62
     7
100
AcDbCircle
 10
28493.54780385046
 20
15414.30124140137
 30
0.0
 40
15.00000019331236
  0
CIRCLE
  5
3CB
330
22
100
AcDbEntity
  8
_0-0_パイプ
  6
Continuous
 62
     7
100
AcDbCircle
 10
28286.65347055233
 20
15413.35849567713
 30
0.0
 40
15.00000019331236
  0
CIRCLE
  5
3CC
330
22
100
AcDbEntity
  8
_0-0_パイプ
  6
Continuous
 62
     7
100
AcDbCircle
 10
28286.65347055233
 20
15318.35645017459
 30
0.0
 40
15.00000019331236
  0
CIRCLE
  5
3CD
330
22
100
AcDbEntity
  8
_0-0_パイプ
  6
Continuous
 62
     7
100
AcDbCircle
 10
14286.45386909539
 20
24993.35620273478
 30
0.0
 40
10.00000073297603
  0
CIRCLE
  5
3CE
330
22
100
AcDbEntity
  8
_0-0_パイプ
  6
Continuous
 62
     7
100
AcDbCircle
 10
14285.92434787496
 20
24941.91346360893
 30
0.0
 40
10.00000073297603
  0
CIRCLE
  5
3CF
330
22
100
AcDbEntity
  8
_0-0_パイプ
  6
Continuous
 62
     7
100
AcDbCircle
 10
14411.23282285384
 20
24993.57394977869
 30
0.0
 40
10.00000073297603
  0
CIRCLE
  5
3D0
330
22
100
AcDbEntity
  8
_0-0_パイプ
  6
Continuous
 62
     7
100
AcDbCircle
 10
14411.23282285384
 20
24943.61090079221
 30
0.0
 40
10.00000073297603
  0
CIRCLE
  5
3D1
330
22
100
AcDbEntity
  8
_0-0_パイプ
  6
Continuous
 62
     7
100
AcDbCircle
 10
14157.02799546787
 20
24993.57394977869
 30
0.0
 40
10.00000073297603
  0
CIRCLE
  5
3D2
330
22
100
AcDbEntity
  8
_0-0_パイプ
  6
Continuous
 62
     7
100
AcDbCircle
 10
14157.02799546787
 20
24941.85902684795
 30
0.0
 40
10.00000073297603
  0
CIRCLE
  5
3D3
330
22
100
AcDbEntity
  8
_0-0_パイプ
  6
Continuous
 62
     7
100
AcDbCircle
 10
14286.45386909539
 20
24887.99632625673
 30
0.0
 40
10.00000073297603
  0
CIRCLE
  5
3D4
330
22
100
AcDbEntity
  8
_0-0_パイプ
  6
Continuous
 62
     7
100
AcDbCircle
 10
21285.26203394971
 20
24941.91346360893
 30
0.0
 40
10.00000073297603
  0
CIRCLE
  5
3D5
330
22
100
AcDbEntity
  8
_0-0_パイプ
  6
Continuous
 62
     7
100
AcDbCircle
 10
21410.57050892859
 20
24943.61090079221
 30
0.0
 40
10.00000073297603
  0
CIRCLE
  5
3D6
330
22
100
AcDbEntity
  8
_0-0_パイプ
  6
Continuous
 62
     7
100
AcDbCircle
 10
21156.36568154261
 20
24941.85902684795
 30
0.0
 40
10.00000073297603
  0
CIRCLE
  5
3D7
330
22
100
AcDbEntity
  8
_0-0_パイプ
  6
Continuous
 62
     7
100
AcDbCircle
 10
21285.78908077192
 20
24887.99632625673
 30
0.0
 40
10.00000073297603
  0
CIRCLE
  5
3D8
330
22
100
AcDbEntity
  8
_0-0_パイプ
  6
Continuous
 62
     7
100
AcDbCircle
 10
28285.92599747377
 20
24941.91346360893
 30
0.0
 40
10.00000073297603
  0
CIRCLE
  5
3D9
330
22
100
AcDbEntity
  8
_0-0_パイプ
  6
Continuous
 62
     7
100
AcDbCircle
 10
28409.90572060511
 20
24943.61090079221
 30
0.0
 40
10.00000073297603
  0
CIRCLE
  5
3DA
330
22
100
AcDbEntity
  8
_0-0_パイプ
  6
Continuous
 62
     7
100
AcDbCircle
 10
28155.70336761736
 20
24941.85902684795
 30
0.0
 40
10.00000073297603
  0
CIRCLE
  5
3DB
330
22
100
AcDbEntity
  8
_0-0_パイプ
  6
Continuous
 62
     7
100
AcDbCircle
 10
28286.45304429599
 20
24887.99632625673
 30
0.0
 40
10.00000073297603
  0
CIRCLE
  5
3DC
330
22
100
AcDbEntity
  8
_0-0_パイプ
  6
Continuous
 62
     7
100
AcDbCircle
 10
14117.15554244844
 20
20199.30242911252
 30
0.0
 40
15.00000019331236
  0
CIRCLE
  5
3DD
330
22
100
AcDbEntity
  8
_0-0_パイプ
  6
Continuous
 62
     7
100
AcDbCircle
 10
14456.06396991887
 20
20199.30242911252
 30
0.0
 40
15.00000019331236
  0
CIRCLE
  5
3DE
330
22
100
AcDbEntity
  8
_0-0_パイプ
  6
Continuous
 62
     7
100
AcDbCircle
 10
14286.6518209535
 20
20198.36215778651
 30
0.0
 40
15.00000019331236
  0
CIRCLE
  5
3DF
330
22
100
AcDbEntity
  8
_0-0_パイプ
  6
Continuous
 62
     7
100
AcDbCircle
 10
14286.6518209535
 20
20103.36011228397
 30
0.0
 40
15.00000019331236
  0
CIRCLE
  5
3E0
330
22
100
AcDbEntity
  8
_0-0_パイプ
  6
Continuous
 62
     7
100
AcDbCircle
 10
21117.15636724785
 20
20199.30242911252
 30
0.0
 40
15.00000019331236
  0
CIRCLE
  5
3E1
330
22
100
AcDbEntity
  8
_0-0_パイプ
  6
Continuous
 62
     7
100
AcDbCircle
 10
21456.06479471829
 20
20199.30242911252
 30
0.0
 40
15.00000019331236
  0
CIRCLE
  5
3E2
330
22
100
AcDbEntity
  8
_0-0_パイプ
  6
Continuous
 62
     7
100
AcDbCircle
 10
21286.65017135469
 20
20198.36215778651
 30
0.0
 40
15.00000019331236
  0
CIRCLE
  5
3E3
330
22
100
AcDbEntity
  8
_0-0_パイプ
  6
Continuous
 62
     7
100
AcDbCircle
 10
21286.65017135469
 20
20103.36011228397
 30
0.0
 40
15.00000019331236
  0
CIRCLE
  5
3E4
330
22
100
AcDbEntity
  8
_0-0_パイプ
  6
Continuous
 62
     7
100
AcDbCircle
 10
28117.15719204726
 20
20199.30242911252
 30
0.0
 40
15.00000019331236
  0
CIRCLE
  5
3E5
330
22
100
AcDbEntity
  8
_0-0_パイプ
  6
Continuous
 62
     7
100
AcDbCircle
 10
28456.06561951769
 20
20199.30242911252
 30
0.0
 40
15.00000019331236
  0
CIRCLE
  5
3E6
330
22
100
AcDbEntity
  8
_0-0_パイプ
  6
Continuous
 62
     7
100
AcDbCircle
 10
28286.65099615409
 20
20198.36215778651
 30
0.0
 40
15.00000019331236
  0
CIRCLE
  5
3E7
330
22
100
AcDbEntity
  8
_0-0_パイプ
  6
Continuous
 62
     7
100
AcDbCircle
 10
28286.65099615409
 20
20103.36011228397
 30
0.0
 40
15.00000019331236
  0
ARC
  5
3E8
330
22
100
AcDbEntity
  8
_0-2_メッセン
  6
Continuous
 62
     6
100
AcDbCircle
 10
7329.690678903251
 20
24861.23818383697
 30
0.0
 40
68.31586844212302
100
AcDbArc
 50
182.4142456054686
 51
230.7162933349609
  0
ARC
  5
3E9
330
22
100
AcDbEntity
  8
_0-2_メッセン
  6
Continuous
 62
     6
100
AcDbCircle
 10
7243.18076811356
 20
24861.23818383697
 30
0.0
 40
68.31586844212302
100
AcDbArc
 50
309.2837066650391
 51
357.5857543945312
  0
CIRCLE
  5
3EA
330
22
100
AcDbEntity
  8
_0-2_メッセン
  6
Continuous
 62
     6
100
AcDbCircle
 10
7286.650996154094
 20
15963.3578358376
 30
0.0
 40
50.00000064437454
  0
CIRCLE
  5
3EB
330
22
100
AcDbEntity
  8
_0-2_メッセン
  6
Continuous
 62
     6
100
AcDbCircle
 10
7824.948907102154
 20
15876.3777893849
 30
0.0
 40
50.00000064437454
  0
CIRCLE
  5
3EC
330
22
100
AcDbEntity
  8
_0-2_メッセン
  6
Continuous
 62
     6
100
AcDbCircle
 10
7997.523337000801
 20
15318.35645017459
 30
0.0
 40
50.00000064437454
  0
ARC
  5
3ED
330
22
100
AcDbEntity
  8
_0-2_メッセン
  6
Continuous
 62
     6
100
AcDbCircle
 10
7308.977491350464
 20
15791.03332015981
 30
0.0
 40
75.69292429331188
100
AcDbArc
 50
107.154296875
 51
162.8448028564453
  0
ARC
  5
3EE
330
22
100
AcDbEntity
  8
_0-2_メッセン
  6
Continuous
 62
     6
100
AcDbCircle
 10
7264.326975355955
 20
15791.03332015981
 30
0.0
 40
75.69292429331188
100
AcDbArc
 50
17.15519714355468
 51
72.845703125
  0
ARC
  5
3EF
330
22
100
AcDbEntity
  8
_0-2_メッセン
  6
Continuous
 62
     6
100
AcDbCircle
 10
7264.326975355955
 20
15635.6831763148
 30
0.0
 40
75.69292429331188
100
AcDbArc
 50
287.154296875
 51
342.8448028564452
  0
ARC
  5
3F0
330
22
100
AcDbEntity
  8
_0-2_メッセン
  6
Continuous
 62
     6
100
AcDbCircle
 10
7308.977491350464
 20
15635.6831763148
 30
0.0
 40
75.69292429331188
100
AcDbArc
 50
197.1551971435547
 51
252.845703125
  0
ARC
  5
3F1
330
22
100
AcDbEntity
  8
_0-2_メッセン
  6
Continuous
 62
     6
100
AcDbCircle
 10
7744.273627330194
 20
15724.24436323414
 30
0.0
 40
73.94480060886691
100
AcDbArc
 50
71.51971435546878
 51
128.6500091552734
  0
ARC
  5
3F2
330
22
100
AcDbEntity
  8
_0-2_メッセン
  6
Continuous
 62
     6
100
AcDbCircle
 10
7709.958672727154
 20
15748.19653806522
 30
0.0
 40
73.94480060886691
100
AcDbArc
 50
341.5229187011719
 51
38.64671325683595
  0
ARC
  5
3F3
330
22
100
AcDbEntity
  8
_0-2_メッセン
  6
Continuous
 62
     6
100
AcDbCircle
 10
7619.43528801432
 20
15618.51332702214
 30
0.0
 40
73.94480060886691
100
AcDbArc
 50
251.5204925537109
 51
308.6500091552734
  0
ARC
  5
3F4
330
22
100
AcDbEntity
  8
_0-2_メッセン
  6
Continuous
 62
     6
100
AcDbCircle
 10
7653.750242617357
 20
15594.56115219106
 30
0.0
 40
73.94480060886691
100
AcDbArc
 50
161.5209503173828
 51
218.6476745605469
  0
ARC
  5
3F5
330
22
100
AcDbEntity
  8
_0-2_メッセン
  6
Continuous
 62
     6
100
AcDbCircle
 10
7661.453044295992
 20
15304.42806255846
 30
0.0
 40
65.42831820410651
100
AcDbArc
 50
102.2911987304687
 51
167.7088012695312
  0
ARC
  5
3F6
330
22
100
AcDbEntity
  8
_0-2_メッセン
  6
Continuous
 62
     6
100
AcDbCircle
 10
7833.594454505027
 20
15304.42806255846
 30
0.0
 40
65.42831820410651
100
AcDbArc
 50
12.29119873046873
 51
77.70880126953123
  0
ARC
  5
3F7
330
22
100
AcDbEntity
  8
_0-2_メッセン
  6
Continuous
 62
     6
100
AcDbCircle
 10
7833.594454505027
 20
15332.28483779073
 30
0.0
 40
65.42831820410651
100
AcDbArc
 50
282.2911987304689
 51
347.7088012695312
  0
ARC
  5
3F8
330
22
100
AcDbEntity
  8
_0-2_メッセン
  6
Continuous
 62
     6
100
AcDbCircle
 10
7661.453044295992
 20
15332.28483779073
 30
0.0
 40
65.42831820410651
100
AcDbArc
 50
192.2911987304686
 51
257.7088012695313
  0
CIRCLE
  5
3F9
330
22
100
AcDbEntity
  8
_0-2_メッセン
  6
Continuous
 62
     6
100
AcDbCircle
 10
14286.6518209535
 20
15963.3578358376
 30
0.0
 40
50.00000064437454
  0
CIRCLE
  5
3FA
330
22
100
AcDbEntity
  8
_0-2_メッセン
  6
Continuous
 62
     6
100
AcDbCircle
 10
13748.35391000545
 20
15876.3777893849
 30
0.0
 40
50.00000064437454
  0
ARC
  5
3FB
330
22
100
AcDbEntity
  8
_0-2_メッセン
  6
Continuous
 62
     6
100
AcDbCircle
 10
14264.32532575713
 20
15791.03332015981
 30
0.0
 40
75.69292429331188
100
AcDbArc
 50
17.15519714355468
 51
72.845703125
  0
ARC
  5
3FC
330
22
100
AcDbEntity
  8
_0-2_メッセン
  6
Continuous
 62
     6
100
AcDbCircle
 10
14308.97584175164
 20
15791.03332015981
 30
0.0
 40
75.69292429331188
100
AcDbArc
 50
107.154296875
 51
162.8448028564453
  0
ARC
  5
3FD
330
22
100
AcDbEntity
  8
_0-2_メッセン
  6
Continuous
 62
     6
100
AcDbCircle
 10
14308.97584175164
 20
15635.6831763148
 30
0.0
 40
75.69292429331188
100
AcDbArc
 50
197.1551971435547
 51
252.845703125
  0
ARC
  5
3FE
330
22
100
AcDbEntity
  8
_0-2_メッセン
  6
Continuous
 62
     6
100
AcDbCircle
 10
14264.32532575713
 20
15635.6831763148
 30
0.0
 40
75.69292429331188
100
AcDbArc
 50
287.154296875
 51
342.8448028564452
  0
ARC
  5
3FF
330
22
100
AcDbEntity
  8
_0-2_メッセン
  6
Continuous
 62
     6
100
AcDbCircle
 10
13829.02918977741
 20
15724.24436323414
 30
0.0
 40
73.94480060886691
100
AcDbArc
 50
51.34999084472659
 51
108.4802856445313
  0
ARC
  5
400
330
22
100
AcDbEntity
  8
_0-2_メッセン
  6
Continuous
 62
     6
100
AcDbCircle
 10
13863.34166998222
 20
15748.19653806522
 30
0.0
 40
73.94480060886691
100
AcDbArc
 50
141.3532867431641
 51
198.4770812988281
  0
ARC
  5
401
330
22
100
AcDbEntity
  8
_0-2_メッセン
  6
Continuous
 62
     6
100
AcDbCircle
 10
13953.86505469506
 20
15618.51332702214
 30
0.0
 40
73.94480060886691
100
AcDbArc
 50
231.3499908447266
 51
288.4795074462891
  0
ARC
  5
402
330
22
100
AcDbEntity
  8
_0-2_メッセン
  6
Continuous
 62
     6
100
AcDbCircle
 10
13919.55257449024
 20
15594.56115219106
 30
0.0
 40
73.94480060886691
100
AcDbArc
 50
321.3523254394532
 51
18.47904968261719
  0
CIRCLE
  5
403
330
22
100
AcDbEntity
  8
_0-2_メッセン
  6
Continuous
 62
     6
100
AcDbCircle
 10
14824.94973190156
 20
15876.3777893849
 30
0.0
 40
50.00000064437454
  0
ARC
  5
404
330
22
100
AcDbEntity
  8
_0-2_メッセン
  6
Continuous
 62
     6
100
AcDbCircle
 10
14744.2744521296
 20
15724.24436323414
 30
0.0
 40
73.94480060886691
100
AcDbArc
 50
71.51971435546878
 51
128.6500091552734
  0
ARC
  5
405
330
22
100
AcDbEntity
  8
_0-2_メッセン
  6
Continuous
 62
     6
100
AcDbCircle
 10
14709.96197192479
 20
15748.19653806522
 30
0.0
 40
73.94480060886691
100
AcDbArc
 50
341.5229187011719
 51
38.64671325683595
  0
ARC
  5
406
330
22
100
AcDbEntity
  8
_0-2_メッセン
  6
Continuous
 62
     6
100
AcDbCircle
 10
14619.43858721195
 20
15618.51332702214
 30
0.0
 40
73.94480060886691
100
AcDbArc
 50
251.5209350585938
 51
308.6504516601562
  0
ARC
  5
407
330
22
100
AcDbEntity
  8
_0-2_メッセン
  6
Continuous
 62
     6
100
AcDbCircle
 10
14653.75106741676
 20
15594.56115219106
 30
0.0
 40
73.94480060886691
100
AcDbArc
 50
161.5209503173828
 51
218.6476745605469
  0
CIRCLE
  5
408
330
22
100
AcDbEntity
  8
_0-2_メッセン
  6
Continuous
 62
     6
100
AcDbCircle
 10
21286.65264575292
 20
15963.3578358376
 30
0.0
 40
50.00000064437454
  0
CIRCLE
  5
409
330
22
100
AcDbEntity
  8
_0-2_メッセン
  6
Continuous
 62
     6
100
AcDbCircle
 10
20748.35473480486
 20
15876.3777893849
 30
0.0
 40
50.00000064437454
  0
ARC
  5
40A
330
22
100
AcDbEntity
  8
_0-2_メッセン
  6
Continuous
 62
     6
100
AcDbCircle
 10
21264.32615055654
 20
15791.03332015981
 30
0.0
 40
75.69292429331188
100
AcDbArc
 50
17.15519714355468
 51
72.845703125
  0
ARC
  5
40B
330
22
100
AcDbEntity
  8
_0-2_メッセン
  6
Continuous
 62
     6
100
AcDbCircle
 10
21308.97666655106
 20
15791.03332015981
 30
0.0
 40
75.69292429331188
100
AcDbArc
 50
107.154296875
 51
162.8448028564453
  0
ARC
  5
40C
330
22
100
AcDbEntity
  8
_0-2_メッセン
  6
Continuous
 62
     6
100
AcDbCircle
 10
21308.97666655106
 20
15635.6831763148
 30
0.0
 40
75.69292429331188
100
AcDbArc
 50
197.1551971435547
 51
252.845703125
  0
ARC
  5
40D
330
22
100
AcDbEntity
  8
_0-2_メッセン
  6
Continuous
 62
     6
100
AcDbCircle
 10
21264.32615055654
 20
15635.6831763148
 30
0.0
 40
75.69292429331188
100
AcDbArc
 50
287.154296875
 51
342.8448028564452
  0
ARC
  5
40E
330
22
100
AcDbEntity
  8
_0-2_メッセン
  6
Continuous
 62
     6
100
AcDbCircle
 10
20829.03001457682
 20
15724.24436323414
 30
0.0
 40
73.94480060886691
100
AcDbArc
 50
51.34999084472659
 51
108.4802856445313
  0
ARC
  5
40F
330
22
100
AcDbEntity
  8
_0-2_メッセン
  6
Continuous
 62
     6
100
AcDbCircle
 10
20863.34249478163
 20
15748.19653806522
 30
0.0
 40
73.94480060886691
100
AcDbArc
 50
141.3532867431641
 51
198.4770812988281
  0
ARC
  5
410
330
22
100
AcDbEntity
  8
_0-2_メッセン
  6
Continuous
 62
     6
100
AcDbCircle
 10
20953.86587949447
 20
15618.51332702214
 30
0.0
 40
73.94480060886691
100
AcDbArc
 50
231.3499908447266
 51
288.4795074462891
  0
ARC
  5
411
330
22
100
AcDbEntity
  8
_0-2_メッセン
  6
Continuous
 62
     6
100
AcDbCircle
 10
20919.55339928966
 20
15594.56115219106
 30
0.0
 40
73.94480060886691
100
AcDbArc
 50
321.3523254394532
 51
18.47904968261719
  0
CIRCLE
  5
412
330
22
100
AcDbEntity
  8
_0-2_メッセン
  6
Continuous
 62
     6
100
AcDbCircle
 10
21824.95055670098
 20
15876.3777893849
 30
0.0
 40
50.00000064437454
  0
ARC
  5
413
330
22
100
AcDbEntity
  8
_0-2_メッセン
  6
Continuous
 62
     6
100
AcDbCircle
 10
21744.27527692901
 20
15724.24436323414
 30
0.0
 40
73.94480060886691
100
AcDbArc
 50
71.51971435546878
 51
128.6500091552734
  0
ARC
  5
414
330
22
100
AcDbEntity
  8
_0-2_メッセン
  6
Continuous
 62
     6
100
AcDbCircle
 10
21709.96032232598
 20
15748.19653806522
 30
0.0
 40
73.94480060886691
100
AcDbArc
 50
341.5229187011719
 51
38.64671325683595
  0
ARC
  5
415
330
22
100
AcDbEntity
  8
_0-2_メッセン
  6
Continuous
 62
     6
100
AcDbCircle
 10
21619.43693761314
 20
15618.51332702214
 30
0.0
 40
73.94480060886691
100
AcDbArc
 50
251.5209350585938
 51
308.6504516601562
  0
ARC
  5
416
330
22
100
AcDbEntity
  8
_0-2_メッセン
  6
Continuous
 62
     6
100
AcDbCircle
 10
21653.75189221617
 20
15594.56115219106
 30
0.0
 40
73.94480060886691
100
AcDbArc
 50
161.5209503173828
 51
218.6476745605469
  0
CIRCLE
  5
417
330
22
100
AcDbEntity
  8
_0-2_メッセン
  6
Continuous
 62
     6
100
AcDbCircle
 10
28286.65347055233
 20
15963.3578358376
 30
0.0
 40
50.00000064437454
  0
CIRCLE
  5
418
330
22
100
AcDbEntity
  8
_0-2_メッセン
  6
Continuous
 62
     6
100
AcDbCircle
 10
27748.35555960427
 20
15876.3777893849
 30
0.0
 40
50.00000064437454
  0
ARC
  5
419
330
22
100
AcDbEntity
  8
_0-2_メッセン
  6
Continuous
 62
     6
100
AcDbCircle
 10
28264.32697535596
 20
15791.03332015981
 30
0.0
 40
75.69292429331188
100
AcDbArc
 50
17.15519714355468
 51
72.845703125
  0
ARC
  5
41A
330
22
100
AcDbEntity
  8
_0-2_メッセン
  6
Continuous
 62
     6
100
AcDbCircle
 10
28308.97749135046
 20
15791.03332015981
 30
0.0
 40
75.69292429331188
100
AcDbArc
 50
107.154296875
 51
162.8448028564453
  0
ARC
  5
41B
330
22
100
AcDbEntity
  8
_0-2_メッセン
  6
Continuous
 62
     6
100
AcDbCircle
 10
28308.97749135046
 20
15635.6831763148
 30
0.0
 40
75.69292429331188
100
AcDbArc
 50
197.1551971435547
 51
252.845703125
  0
ARC
  5
41C
330
22
100
AcDbEntity
  8
_0-2_メッセン
  6
Continuous
 62
     6
100
AcDbCircle
 10
28264.32697535596
 20
15635.6831763148
 30
0.0
 40
75.69292429331188
100
AcDbArc
 50
287.154296875
 51
342.8448028564452
  0
ARC
  5
41D
330
22
100
AcDbEntity
  8
_0-2_メッセン
  6
Continuous
 62
     6
100
AcDbCircle
 10
27829.03083937623
 20
15724.24436323414
 30
0.0
 40
73.94480060886691
100
AcDbArc
 50
51.34999084472659
 51
108.4802856445313
  0
ARC
  5
41E
330
22
100
AcDbEntity
  8
_0-2_メッセン
  6
Continuous
 62
     6
100
AcDbCircle
 10
27863.34331958104
 20
15748.19653806522
 30
0.0
 40
73.94480060886691
100
AcDbArc
 50
141.3532867431641
 51
198.4770812988281
  0
ARC
  5
41F
330
22
100
AcDbEntity
  8
_0-2_メッセン
  6
Continuous
 62
     6
100
AcDbCircle
 10
27953.86670429389
 20
15618.51332702214
 30
0.0
 40
73.94480060886691
100
AcDbArc
 50
231.3499908447266
 51
288.4795074462891
  0
ARC
  5
420
330
22
100
AcDbEntity
  8
_0-2_メッセン
  6
Continuous
 62
     6
100
AcDbCircle
 10
27919.55422408906
 20
15594.56115219106
 30
0.0
 40
73.94480060886691
100
AcDbArc
 50
321.3523254394532
 51
18.47904968261719
  0
CIRCLE
  5
421
330
22
100
AcDbEntity
  8
_0-2_メッセン
  6
Continuous
 62
     6
100
AcDbCircle
 10
28824.95138150038
 20
15876.3777893849
 30
0.0
 40
50.00000064437454
  0
ARC
  5
422
330
22
100
AcDbEntity
  8
_0-2_メッセン
  6
Continuous
 62
     6
100
AcDbCircle
 10
28744.27610172842
 20
15724.24436323414
 30
0.0
 40
73.94480060886691
100
AcDbArc
 50
71.51971435546878
 51
128.6500091552734
  0
ARC
  5
423
330
22
100
AcDbEntity
  8
_0-2_メッセン
  6
Continuous
 62
     6
100
AcDbCircle
 10
28709.96362152361
 20
15748.19653806522
 30
0.0
 40
73.94480060886691
100
AcDbArc
 50
341.5229187011719
 51
38.64671325683595
  0
ARC
  5
424
330
22
100
AcDbEntity
  8
_0-2_メッセン
  6
Continuous
 62
     6
100
AcDbCircle
 10
28619.44023681077
 20
15618.51332702214
 30
0.0
 40
73.94480060886691
100
AcDbArc
 50
251.5209350585938
 51
308.6504516601562
  0
ARC
  5
425
330
22
100
AcDbEntity
  8
_0-2_メッセン
  6
Continuous
 62
     6
100
AcDbCircle
 10
28653.75271701558
 20
15594.56115219106
 30
0.0
 40
73.94480060886691
100
AcDbArc
 50
161.5209503173828
 51
218.6476745605469
  0
ARC
  5
426
330
22
100
AcDbEntity
  8
_0-2_メッセン
  6
Continuous
 62
     6
100
AcDbCircle
 10
28330.12369859287
 20
24861.23818383697
 30
0.0
 40
68.31586844212302
100
AcDbArc
 50
182.4142456054686
 51
230.4832458496093
  0
ARC
  5
427
330
22
100
AcDbEntity
  8
_0-2_メッセン
  6
Continuous
 62
     6
100
AcDbCircle
 10
28243.18324251178
 20
24861.23818383697
 30
0.0
 40
68.31586844212302
100
AcDbArc
 50
309.5167541503906
 51
357.5857543945312
  0
ARC
  5
428
330
22
100
AcDbEntity
  8
_0-2_メッセン
  6
Continuous
 62
     6
100
AcDbCircle
 10
14330.12204899405
 20
24861.23818383697
 30
0.0
 40
68.31586844212302
100
AcDbArc
 50
182.4142456054686
 51
230.4811248779297
  0
ARC
  5
429
330
22
100
AcDbEntity
  8
_0-2_メッセン
  6
Continuous
 62
     6
100
AcDbCircle
 10
14243.18159291296
 20
24861.23818383697
 30
0.0
 40
68.31586844212302
100
AcDbArc
 50
309.5188751220703
 51
357.5857543945312
  0
ARC
  5
42A
330
22
100
AcDbEntity
  8
_0-2_メッセン
  6
Continuous
 62
     6
100
AcDbCircle
 10
21329.25683441424
 20
24861.94091293326
 30
0.0
 40
68.57971565143484
100
AcDbArc
 50
182.9926910400391
 51
231.3784484863281
  0
ARC
  5
42B
330
22
100
AcDbEntity
  8
_0-2_メッセン
  6
Continuous
 62
     6
100
AcDbCircle
 10
21243.64760457893
 20
24861.94091293326
 30
0.0
 40
68.57971565143484
100
AcDbArc
 50
308.6215515136719
 51
357.0073089599609
  0
CIRCLE
  5
42C
330
22
100
AcDbEntity
  8
_0-3_寸法
  6
Continuous
 62
     4
100
AcDbCircle
 10
6786.651820953506
 20
25518.35917201265
 30
0.0
 40
300.0000038662473
  0
CIRCLE
  5
42D
330
22
100
AcDbEntity
  8
_0-3_寸法
  6
Continuous
 62
     4
100
AcDbCircle
 10
6798.439854103846
 20
20383.73664971007
 30
0.0
 40
300.0000038662473
  0
CIRCLE
  5
42E
330
22
100
AcDbEntity
  8
_0-3_寸法
  6
Continuous
 62
     4
100
AcDbCircle
 10
6778.167109435344
 20
15734.49703228503
 30
0.0
 40
300.0000038662473
  0
TEXT
  5
42F
330
22
100
AcDbEntity
  8
_0-1_ＧＬ
 62
     4
100
AcDbText
 10
4909.852830343021
 20
15474.49097825736
 30
0.0
 40
250.0
  1
ＧＬ
100
AcDbText
  0
TEXT
  5
430
330
22
100
AcDbEntity
  8
_0-3_寸法
 62
     4
100
AcDbText
 10
2736.650831194215
 20
18343.35776985365
 30
0.0
 40
250.0
  1
13,000
 50
90.0
100
AcDbText
  0
TEXT
  5
431
330
22
100
AcDbEntity
  8
_0-3_寸法
 62
     4
100
AcDbText
 10
3236.652480793033
 20
13405.85673885439
 30
0.0
 40
250.0
  1
3,000
 50
90.0
100
AcDbText
  0
TEXT
  5
432
330
22
100
AcDbEntity
  8
_0-3_寸法
 62
     4
100
AcDbText
 10
3236.652480793033
 20
19843.35776985365
 30
0.0
 40
250.0
  1
10,000
 50
90.0
100
AcDbText
  0
TEXT
  5
433
330
22
100
AcDbEntity
  8
_0-3_寸法
 62
     4
100
AcDbText
 10
3736.651655993625
 20
14828.48003811801
 30
0.0
 40
250.0
  1
400
 50
90.0
100
AcDbText
  0
TEXT
  5
434
330
22
100
AcDbEntity
  8
_0-3_寸法
 62
     4
100
AcDbText
 10
3736.651655993625
 20
13205.85855341309
 30
0.0
 40
250.0
  1
2,600
 50
90.0
100
AcDbText
  0
TEXT
  5
435
330
22
100
AcDbEntity
  8
_0-3_寸法
 62
     4
100
AcDbText
 10
3736.651655993625
 20
15248.82070501781
 30
0.0
 40
250.0
  1
50
 50
90.0
100
AcDbText
  0
TEXT
  5
436
330
22
100
AcDbEntity
  8
_0-3_寸法
 62
     4
100
AcDbText
 10
3736.651655993625
 20
24865.85541092734
 30
0.0
 40
250.0
  1
200
 50
90.0
100
AcDbText
  0
TEXT
  5
437
330
22
100
AcDbEntity
  8
_0-3_寸法
 62
     4
100
AcDbText
 10
3736.651655993625
 20
22183.35885034088
 30
0.0
 40
250.0
  1
4,850
 50
90.0
100
AcDbText
  0
TEXT
  5
438
330
22
100
AcDbEntity
  8
_0-3_寸法
 62
     4
100
AcDbText
 10
3736.651655993625
 20
17398.35766262972
 30
0.0
 40
250.0
  1
4,900
 50
90.0
100
AcDbText
  0
TEXT
  5
439
330
22
100
AcDbEntity
  8
_0-6_仕上
 62
     7
100
AcDbText
 10
6358.172652087375
 20
21958.9581495913
 30
0.0
 40
300.0
  1
PC　POLE
 50
90.0
100
AcDbText
  0
TEXT
  5
43A
330
22
100
AcDbEntity
  8
_0-6_仕上
 62
     7
100
AcDbText
 10
8380.614371761151
 20
25761.24610191129
 30
0.0
 40
300.0
  1
ｼﾞｮｲﾝﾄﾋﾞｰﾑ
100
AcDbText
  0
TEXT
  5
43B
330
22
100
AcDbEntity
  8
_0-6_仕上
 62
     7
100
AcDbText
 10
8449.897666438884
 20
14073.48175370078
 30
0.0
 40
300.0
  1
ﾈｶｾ
100
AcDbText
  0
TEXT
  5
43C
330
22
100
AcDbEntity
  8
_0-3_寸法
 62
     7
100
AcDbText
 10
6636.651820953506
 20
25368.358677133
 30
0.0
 40
300.0
  1
Ａ
100
AcDbText
  0
TEXT
  5
43D
330
22
100
AcDbEntity
  8
_0-3_寸法
 62
     7
100
AcDbText
 10
6648.439854103846
 20
20233.73615483043
 30
0.0
 40
300.0
  1
Ｂ
100
AcDbText
  0
TEXT
  5
43E
330
22
100
AcDbEntity
  8
_0-3_寸法
 62
     7
100
AcDbText
 10
6628.167109435344
 20
15584.49653740538
 30
0.0
 40
300.0
  1
Ｃ
100
AcDbText
  0
TEXT
  5
43F
330
22
100
AcDbEntity
  8
_0-6_仕上
 62
     7
100
AcDbText
 10
6700.829792870734
 20
21790.87780423129
 30
0.0
 40
300.0
  1
13-19-1000
 50
90.0
100
AcDbText
  0
POINT
  5
440
330
22
100
AcDbEntity
  8
_0-3_寸法
 62
     4
100
AcDbPoint
 10
7286.650996154094
 20
9718.357769853653
 30
0.0
  0
POINT
  5
441
330
22
100
AcDbEntity
  8
_0-3_寸法
 62
     4
100
AcDbPoint
 10
14286.6518209535
 20
9718.357769853653
 30
0.0
  0
POINT
  5
442
330
22
100
AcDbEntity
  8
_0-3_寸法
 62
     4
100
AcDbPoint
 10
21286.65264575292
 20
9718.357769853653
 30
0.0
  0
POINT
  5
443
330
22
100
AcDbEntity
  8
_0-3_寸法
 62
     4
100
AcDbPoint
 10
28286.65099615409
 20
9718.357769853653
 30
0.0
  0
POINT
  5
444
330
22
100
AcDbEntity
  8
_0-3_寸法
 62
     4
100
AcDbPoint
 10
2786.650996154094
 20
25218.35818225335
 30
0.0
  0
POINT
  5
445
330
22
100
AcDbEntity
  8
_0-3_寸法
 62
     4
100
AcDbPoint
 10
2786.650996154094
 20
12218.3579760535
 30
0.0
  0
POINT
  5
446
330
22
100
AcDbEntity
  8
_0-3_寸法
 62
     4
100
AcDbPoint
 10
3286.652645752912
 20
12218.3579760535
 30
0.0
  0
POINT
  5
447
330
22
100
AcDbEntity
  8
_0-3_寸法
 62
     4
100
AcDbPoint
 10
3286.652645752912
 20
15218.35859465305
 30
0.0
  0
POINT
  5
448
330
22
100
AcDbEntity
  8
_0-3_寸法
 62
     4
100
AcDbPoint
 10
3286.652645752912
 20
25218.35818225335
 30
0.0
  0
POINT
  5
449
330
22
100
AcDbEntity
  8
_0-3_寸法
 62
     4
100
AcDbPoint
 10
3786.651820953505
 20
25218.35818225335
 30
0.0
  0
POINT
  5
44A
330
22
100
AcDbEntity
  8
_0-3_寸法
 62
     4
100
AcDbPoint
 10
3786.651820953505
 20
24888.35758839778
 30
0.0
  0
POINT
  5
44B
330
22
100
AcDbEntity
  8
_0-3_寸法
 62
     4
100
AcDbPoint
 10
3786.651820953505
 20
20103.36011228397
 30
0.0
  0
POINT
  5
44C
330
22
100
AcDbEntity
  8
_0-3_寸法
 62
     4
100
AcDbPoint
 10
3786.651820953505
 20
15318.35645017459
 30
0.0
  0
POINT
  5
44D
330
22
100
AcDbEntity
  8
_0-3_寸法
 62
     4
100
AcDbPoint
 10
3786.651820953505
 20
15218.35859465305
 30
0.0
  0
POINT
  5
44E
330
22
100
AcDbEntity
  8
_0-3_寸法
 62
     4
100
AcDbPoint
 10
3786.651820953505
 20
14818.357274974
 30
0.0
  0
POINT
  5
44F
330
22
100
AcDbEntity
  8
_0-3_寸法
 62
     4
100
AcDbPoint
 10
3786.651820953505
 20
12218.3579760535
 30
0.0
  0
TEXT
  5
450
330
22
100
AcDbEntity
  8
_0-3_寸法
 62
     4
100
AcDbText
 10
10146.36781353013
 20
9306.108531128549
 30
0.0
 40
250.0
  1
（12,000）
100
AcDbText
  0
TEXT
  5
451
330
22
100
AcDbEntity
  8
_0-3_寸法
 62
     4
100
AcDbText
 10
10474.15078995424
 20
9768.357934813533
 30
0.0
 40
250.0
  1
9,000
100
AcDbText
  0
TEXT
  5
452
330
22
100
AcDbEntity
  8
_0-3_寸法
 62
     4
100
AcDbText
 10
17113.13088079459
 20
9306.108531128549
 30
0.0
 40
250.0
  1
（12,000）
100
AcDbText
  0
TEXT
  5
453
330
22
100
AcDbEntity
  8
_0-3_寸法
 62
     4
100
AcDbText
 10
17440.91385721871
 20
9768.357934813533
 30
0.0
 40
250.0
  1
9,000
100
AcDbText
  0
TEXT
  5
454
330
22
100
AcDbEntity
  8
_0-3_寸法
 62
     4
100
AcDbText
 10
24147.33963051839
 20
9306.108531128549
 30
0.0
 40
250.0
  1
（12,000）
100
AcDbText
  0
TEXT
  5
455
330
22
100
AcDbEntity
  8
_0-3_寸法
 62
     4
100
AcDbText
 10
24475.12260694251
 20
9768.357934813533
 30
0.0
 40
250.0
  1
9,000
100
AcDbText
  0
TEXT
  5
456
330
22
100
AcDbEntity
  8
_0-6_仕上
 62
     7
100
AcDbText
 10
9349.287335496368
 20
23769.65740628208
 30
0.0
 40
300.0
  1
ﾌﾞﾚｰｽﾜｲﾔｰ　55m㎡
100
AcDbText
  0
TEXT
  5
457
330
22
100
AcDbEntity
  8
_0-6_仕上
 62
     7
100
AcDbText
 10
17835.86908631457
 20
25471.50396719846
 30
0.0
 40
300.0
  1
横ﾜｲﾔｰ 38m㎡
100
AcDbText
  0
TEXT
  5
458
330
22
100
AcDbEntity
  8
_0-6_仕上
 62
     7
100
AcDbText
 10
17835.86908631457
 20
20687.91194927721
 30
0.0
 40
300.0
  1
横ﾜｲﾔｰ 38m㎡
100
AcDbText
  0
TEXT
  5
459
330
22
100
AcDbEntity
  8
_0-6_仕上
 62
     7
100
AcDbText
 10
17835.86908631457
 20
15900.21614189757
 30
0.0
 40
300.0
  1
横ﾜｲﾔｰ 38m㎡
100
AcDbText
  0
TEXT
  5
45A
330
22
100
AcDbEntity
  8
_0-6_仕上
 62
     7
100
AcDbText
 10
14950.8345767073
 20
21994.54020228608
 30
0.0
 40
300.0
  1
縦ﾜｲﾔｰ 38m㎡
100
AcDbText
  0
TEXT
  5
45B
330
22
100
AcDbEntity
  8
_0-5_枠
 62
     7
100
AcDbText
 10
3186.940973130113
 20
8113.294094415282
 30
0.0
 40
400.0
  1
設計条件
100
AcDbText
  0
TEXT
  5
45C
330
22
100
AcDbEntity
  8
_0-5_枠
 62
     7
100
AcDbText
 10
4186.940973130112
 20
6663.294094415282
 30
0.0
 40
300.0
  1
基準風速・・・３４ｍ／ｓｅｃ
100
AcDbText
  0
TEXT
  5
45D
330
22
100
AcDbEntity
  8
_0-5_枠
 62
     7
100
AcDbText
 10
4186.940973130112
 20
6163.294094415284
 30
0.0
 40
300.0
  1
地表面粗度区分・・・Ⅲ
100
AcDbText
  0
TEXT
  5
45E
330
22
100
AcDbEntity
  8
_0-5_枠
 62
     7
100
AcDbText
 10
4186.940973130112
 20
5663.294094415284
 30
0.0
 40
300.0
  1
基礎　普通土質（Ｂ）を選定
100
AcDbText
  0
TEXT
  5
45F
330
22
100
AcDbEntity
  8
_0-5_枠
 62
     7
100
AcDbText
 10
3686.940973130113
 20
7663.294094415282
 30
0.0
 40
300.0
  1
・設計荷重　建築基準法・同施工令
100
AcDbText
  0
TEXT
  5
460
330
22
100
AcDbEntity
  8
_0-5_枠
 62
     7
100
AcDbText
 10
3926.398851652749
 20
7163.294094415282
 30
0.0
 40
300.0
  1
（平成１２年６月）に基づく風圧力による。
100
AcDbText
  0
LINE
  5
461
330
22
100
AcDbEntity
  8
_0-6_仕上
  6
Continuous
 62
     4
100
AcDbLine
 10
28916.89507079515
 20
24759.99570600758
 30
0.0
 11
30222.13111382778
 21
27020.72529885373
 31
0.0
  0
LINE
  5
462
330
22
100
AcDbEntity
  8
_0-5_枠
  6
Continuous
 62
     4
100
AcDbLine
 10
30909.35315642702
 20
27427.6301895843
 30
0.0
 11
31091.75837047897
 21
27427.6301895843
 31
0.0
  0
LINE
  5
463
330
22
100
AcDbEntity
  8
_0-5_枠
  6
Continuous
 62
     4
100
AcDbLine
 10
30909.35315642702
 20
27020.72529885373
 30
0.0
 11
30222.13111382778
 21
27020.72529885373
 31
0.0
  0
TEXT
  5
464
330
22
100
AcDbEntity
  8
_0-5_枠
 62
     7
100
AcDbText
 10
31164.98777358812
 20
27537.97845288668
 30
0.0
 40
300.0
  1
NET
100
AcDbText
  0
LINE
  5
465
330
22
100
AcDbEntity
  8
_0-5_枠
  6
Continuous
 62
     4
100
AcDbLine
 10
30909.35315642702
 20
27427.6301895843
 30
0.0
 11
30909.35315642702
 21
26212.01888747371
 31
0.0
  0
LINE
  5
466
330
22
100
AcDbEntity
  8
_0-5_枠
  6
Continuous
 62
     4
100
AcDbLine
 10
30909.35315642702
 20
26212.01888747371
 30
0.0
 11
31091.75837047897
 21
26212.01888747371
 31
0.0
  0
TEXT
  5
467
330
22
100
AcDbEntity
  8
_0-5_枠
 62
     7
100
AcDbText
 10
30975.35340840476
 20
26246.42708763901
 30
0.0
 40
300.0
  1
（KSP-24 37.5㎜目 ｽｰﾊﾟｰﾎﾟﾘｴﾁﾚﾝ）
100
AcDbText
  0
TEXT
  5
468
330
22
100
AcDbEntity
  8
_0-5_枠
 62
     7
100
AcDbText
 10
31147.88250608918
 20
27090.87943736725
 30
0.0
 40
300.0
  1
ｸﾚﾓﾅ250D/80本×37.5㎜目
100
AcDbText
  0
TEXT
  5
469
330
22
100
AcDbEntity
  8
_0-5_枠
 62
     7
100
AcDbText
 10
30975.35340840476
 20
26667.92753966386
 30
0.0
 40
300.0
  1
（KRP-40 1800D/18本×40㎜目 ｴｺﾛﾈｯﾄ）
100
AcDbText
  0
TEXT
  5
46A
330
22
100
AcDbEntity
  8
_0-6_仕上
 62
     7
100
AcDbText
 10
22737.60113072086
 20
25676.25052283613
 30
0.0
 40
300.0
  1
ポリロープ4φにてかがりどめ
100
AcDbText
  0
LINE
  5
46B
330
22
100
AcDbEntity
  8
_0-6_仕上
  6
Continuous
 62
     4
100
AcDbLine
 10
22651.58065590033
 20
25626.55965765454
 30
0.0
 11
27450.49766881359
 21
25626.55965765454
 31
0.0
  0
LINE
  5
46C
330
22
100
AcDbEntity
  8
_0-6_仕上
  6
Continuous
 62
     4
100
AcDbLine
 10
22251.5818106195
 20
24933.73805186906
 30
0.0
 11
22651.58065590033
 21
25626.55965765454
 31
0.0
  0
LINE
  5
46D
330
22
100
AcDbEntity
  8
_0-6_仕上
  6
Continuous
 62
     4
100
AcDbLine
 10
22251.5818106195
 20
24933.73805186906
 30
0.0
 11
22251.5818106195
 21
25033.73838178883
 31
0.0
  0
TEXT
  5
46E
330
22
100
AcDbEntity
  8
_0-6_仕上
 62
     7
100
AcDbText
 10
14958.37423306288
 20
23618.89232235048
 30
0.0
 40
300.0
  1
ﾎﾟﾘﾛｰﾌﾟ6φ押え
100
AcDbText
  0
ENDSEC
  0
SECTION
  2
OBJECTS
  0
DICTIONARY
  5
C
330
0
100
AcDbDictionary
281
     1
  3
ACAD_COLOR
350
1B
  3
ACAD_GROUP
350
D
  3
ACAD_LAYOUT
350
19
  3
ACAD_MATERIAL
350
1A
  3
ACAD_MLINESTYLE
350
16
  3
ACAD_PLOTSETTINGS
350
18
  3
ACAD_PLOTSTYLENAME
350
E
  3
ACAD_TABLESTYLE
350
1C
  3
ACDBHEADERROUNDTRIPXREC
350
A48
  3
AcDbVariableDictionary
350
75F
  3
ADE_QUERY_LIBRARY
350
75D
  3
AEC_VARS
350
49F
  3
ASE_INDEX_DICTIONARY
350
759
  3
Autodesk_MAP
350
471
  3
Root
350
76E
1001
ADE
1000
ADE02C004
1000
[Query]
1000
CaseSensitiveMatch=0
1000
SaveCurrQueryInSession=1
1000
MkSelSetWithQryObj=0
1000
ShowBlockAsInsPt=0
1000
CreateAssociativeHatchObjects=0
1000
ReferenceBoundaryForAreaLocation=1
1000
ShowImageAsBoundary=1
1000
DefaultJoinOperator=2
1000
ColorForAdd=red
1000
ColorForRemove=red
1000
BlockLocnForQuery=1
1000
TextLocnForQuery=1
1000
IncludeAllObjectsInGroups=0
1000
AlwaysUseLibraryDefinitions=0
1000
PreviewDefinitionsFrom=2
1000
[Save Back]
1000
RedefineBlockDefinitions=1
1000
RedefineLayerDefinitions=1
1000
RedefineTextStyleDefinitions=1
1000
RemoveUnusedGroups=1
1000
EraseSavedBackObjects=1
1000
RemoveLockAfterSave=1
1000
CreateHistoryFileOfChanges=0
1000
CreateBackupFileOfSourceDwg=1
1000
DontAddObjectsToSaveSet=0
1000
MarkObjectsForEditingWithoutPrompting=0
1000
[Coordinate Transformation]
1000
RestoreLastActiveDwgsOnStartup=1
1000
ActivateDwgsOnAttach=1
1000
AdjustSizesAndScalesForChangesInUnits=1
1000
AdjustRotationsForMapDistortions=1
1000
AdjustSizesAndScalesForMapDistortions=1
1000
AdjustElevations=1
1000
AdjustZeroRotationObjects=1
1000
ReconnectDbOnWSOpen=1
1000
NoOfSQLConditionsInHistory=10
  0
DICTIONARY
  5
1B
102
{ACAD_REACTORS
330
C
102
}
330
C
100
AcDbDictionary
281
     1
  0
DICTIONARY
  5
D
102
{ACAD_REACTORS
330
C
102
}
330
C
100
AcDbDictionary
281
     1
  0
DICTIONARY
  5
19
102
{ACAD_REACTORS
330
C
102
}
330
C
100
AcDbDictionary
281
     1
  3
Model
350
25
  3
レイアウト1
350
21
  0
DICTIONARY
  5
1A
102
{ACAD_REACTORS
330
C
102
}
330
C
100
AcDbDictionary
281
     1
  0
DICTIONARY
  5
16
102
{ACAD_REACTORS
330
C
102
}
330
C
100
AcDbDictionary
281
     1
  3
Standard
350
17
  0
DICTIONARY
  5
18
102
{ACAD_REACTORS
330
C
102
}
330
C
100
AcDbDictionary
281
     1
  0
ACDBDICTIONARYWDFLT
  5
E
102
{ACAD_REACTORS
330
C
102
}
330
C
100
AcDbDictionary
281
     1
  3
Normal
350
F
100
AcDbDictionaryWithDefault
340
F
  0
DICTIONARY
  5
1C
102
{ACAD_REACTORS
330
C
102
}
330
C
100
AcDbDictionary
281
     1
  3
Legend
350
475
  3
Standard
350
1D
  0
DICTIONARY
  5
A48
102
{ACAD_REACTORS
330
C
102
}
330
C
100
AcDbDictionary
281
     1
  0
DICTIONARY
  5
75F
102
{ACAD_REACTORS
330
C
102
}
330
C
100
AcDbDictionary
281
     1
  3
CTABLESTYLE
350
760
  3
DIMASSOC
350
761
  3
PROJECTNAME
350
762
  0
DICTIONARY
  5
75D
102
{ACAD_REACTORS
330
C
102
}
330
C
100
AcDbDictionary
281
     1
  3
_CurrQry
350
A46
  0
DICTIONARY
  5
49F
102
{ACAD_REACTORS
330
C
102
}
330
C
100
AcDbDictionary
281
     1
  3
AEC_VARS_DWG_SETUP
350
793
  0
DICTIONARY
  5
759
102
{ACAD_REACTORS
330
C
102
}
330
C
100
AcDbDictionary
281
     1
  3
ASEBlockHierarchyIndexRecord
350
75B
1001
DCO15
1040
1621942830.671
  0
DICTIONARY
  5
471
102
{ACAD_REACTORS
330
C
102
}
330
C
100
AcDbDictionary
281
     1
  3
MAP_DISPLAY_MANAGEMENT_DICTIONARY
350
472
  3
MAP_DISPLAY_STYLELIBRARY_DICTIONARY
350
473
  0
LAYOUT
  5
25
102
{ACAD_XDICTIONARY
360
A4B
102
}
102
{ACAD_REACTORS
330
19
102
}
330
19
100
AcDbPlotSettings
  1

  2
DCColor a450_newosk
  4

  6

 40
0.0
 41
0.0
 42
0.0
 43
0.0
 44
0.0
 45
0.0
 46
0.0
 47
0.0
 48
0.0
 49
0.0
140
0.0
141
0.0
142
1.0
143
1.0
 70
  1712
 72
     0
 73
     0
 74
     0
  7

 75
     0
147
1.0
148
0.0
149
0.0
100
AcDbLayout
  1
Model
 70
     1
 71
     0
 10
0.0
 20
0.0
 11
12.0
 21
9.0
 12
0.0
 22
0.0
 32
0.0
 14
0.0
 24
0.0
 34
0.0
 15
0.0
 25
0.0
 35
0.0
146
0.0
 13
0.0
 23
0.0
 33
0.0
 16
1.0
 26
0.0
 36
0.0
 17
0.0
 27
1.0
 37
0.0
 76
     0
330
22
  0
LAYOUT
  5
21
102
{ACAD_XDICTIONARY
360
A49
102
}
102
{ACAD_REACTORS
330
19
102
}
330
19
100
AcDbPlotSettings
  1

  2
DCColor a450_newosk
  4

  6

 40
0.0
 41
0.0
 42
0.0
 43
0.0
 44
0.0
 45
0.0
 46
0.0
 47
0.0
 48
0.0
 49
0.0
140
0.0
141
0.0
142
1.0
143
1.0
 70
   688
 72
     0
 73
     0
 74
     5
  7

 75
    16
147
1.0
148
0.0
149
0.0
100
AcDbLayout
  1
レイアウト1
 70
     1
 71
     1
 10
0.0
 20
0.0
 11
12.0
 21
9.0
 12
0.0
 22
0.0
 32
0.0
 14
1.000000000000000E+20
 24
1.000000000000000E+20
 34
1.000000000000000E+20
 15
-1.000000000000000E+20
 25
-1.000000000000000E+20
 35
-1.000000000000000E+20
146
0.0
 13
0.0
 23
0.0
 33
0.0
 16
1.0
 26
0.0
 36
0.0
 17
0.0
 27
1.0
 37
0.0
 76
     0
330
1E
  0
MLINESTYLE
  5
17
102
{ACAD_REACTORS
330
16
102
}
330
16
100
AcDbMlineStyle
  2
STANDARD
 70
     0
  3

 62
   256
 51
90.0
 52
90.0
 71
     2
 49
0.5
 62
   256
  6
BYLAYER
 49
-0.5
 62
   256
  6
BYLAYER
  0
ACDBPLACEHOLDER
  5
F
102
{ACAD_REACTORS
330
E
102
}
330
E
  0
TABLESTYLE
  5
475
102
{ACAD_REACTORS
330
1C
102
}
330
1C
100
AcDbTableStyle
  3

 70
     0
 71
     1
 40
0.06
 41
0.06
280
     0
281
     0
  7
STANDARD
140
0.4
170
     4
 62
     0
 63
     7
283
     0
274
    -2
284
     0
 64
     0
275
    -2
285
     0
 65
     0
276
    -2
286
     1
 66
     0
277
    -2
287
     1
 67
     0
278
    -2
288
     0
 68
     0
279
    -2
289
     1
 69
     0
  7
STANDARD
140
0.5
170
     5
 62
     0
 63
     7
283
     0
274
    -2
284
     1
 64
     0
275
    -2
285
     0
 65
     0
276
    -2
286
     1
 66
     0
277
    -2
287
     1
 67
     0
278
    -2
288
     0
 68
     0
279
    -2
289
     1
 69
     0
  7
STANDARD
140
0.4
170
     4
 62
     0
 63
     7
283
     0
274
    -2
284
     1
 64
     0
275
    -2
285
     0
 65
     0
276
    -2
286
     1
 66
     0
277
    -2
287
     1
 67
     0
278
    -2
288
     0
 68
     0
279
    -2
289
     1
 69
     0
  0
TABLESTYLE
  5
1D
102
{ACAD_REACTORS
330
1C
102
}
330
1C
100
AcDbTableStyle
  3
Standard
 70
     0
 71
     0
 40
0.06
 41
0.06
280
     0
281
     0
  7
STANDARD
140
0.18
170
     2
 62
     0
 63
     7
283
     0
274
    -2
284
     1
 64
     0
275
    -2
285
     1
 65
     0
276
    -2
286
     1
 66
     0
277
    -2
287
     1
 67
     0
278
    -2
288
     1
 68
     0
279
    -2
289
     1
 69
     0
  7
STANDARD
140
0.25
170
     5
 62
     0
 63
     7
283
     0
274
    -2
284
     1
 64
     0
275
    -2
285
     1
 65
     0
276
    -2
286
     1
 66
     0
277
    -2
287
     1
 67
     0
278
    -2
288
     1
 68
     0
279
    -2
289
     1
 69
     0
  7
STANDARD
140
0.18
170
     5
 62
     0
 63
     7
283
     0
274
    -2
284
     1
 64
     0
275
    -2
285
     1
 65
     0
276
    -2
286
     1
 66
     0
277
    -2
287
     1
 67
     0
278
    -2
288
     1
 68
     0
279
    -2
289
     1
 69
     0
  0
DICTIONARYVAR
  5
760
102
{ACAD_REACTORS
330
75F
102
}
330
75F
100
DictionaryVariables
280
     0
  1
STANDARD
  0
DICTIONARYVAR
  5
761
102
{ACAD_REACTORS
330
75F
102
}
330
75F
100
DictionaryVariables
280
     0
  1
1
  0
DICTIONARYVAR
  5
762
102
{ACAD_REACTORS
330
75F
102
}
330
75F
100
DictionaryVariables
280
     0
  1

  0
XRECORD
  5
A46
102
{ACAD_REACTORS
330
75D
102
}
330
75D
100
AcDbXrecord
280
     1
1000
ADE02C001
1070
     1
1070
     0
1002
{
1002
}
1002
{
1002
}
1002
{
1002
}
1000

  0
XRECORD
  5
75B
102
{ACAD_REACTORS
330
759
102
}
330
759
100
AcDbXrecord
280
     1
  0
DMMAPMANAGER
  5
472
102
{ACAD_REACTORS
330
471
102
}
330
471
100
AcDbDictionary
281
     1
  3
DisplayMap1
350
474
100
AcDbDictionaryWithDefault
340
474
100
AcMapDMMapManager
 70
     1
340
474
  0
DMSTYLELIBRARY
  5
473
102
{ACAD_REACTORS
330
471
102
}
330
471
100
AcMapDMStyleLibrary
 70
     1
 70
     1
360
479
  0
DICTIONARY
  5
A4B
330
25
100
AcDbDictionary
280
     1
281
     1
  3
ACAD_XREC_ROUNDTRIP
360
A4C
  0
DICTIONARY
  5
A49
330
21
100
AcDbDictionary
280
     1
281
     1
  3
ACAD_XREC_ROUNDTRIP
360
A4A
  0
DMMAP
  5
474
102
{ACAD_REACTORS
330
472
330
476
102
}
330
472
100
AcMapDMMap
 70
     1
  1
既定値
 70
     1
330
0
100
AcMapDMMap
 70
     1
 90
        1
360
476
 90
        1
 40
1.797693134862314E+99
 70
     1
100
AcMapDMMap
 70
     2
 70
     0
 40
1.797693134862314E+99
290
     0
290
     1
 40
1.0
 40
3.0
  1
Legend
 90
        1
 40
1.797693134862314E+99
  1

 70
     0
 40
100.0
 70
     1
 90
        0
 90
        1
360
477
  0
DMSTYLECATEGORY
  5
479
102
{ACAD_REACTORS
330
473
102
}
330
473
100
AcMapDMStyleCategory
 70
     1
  1
スタイルを表示
 70
     0
  0
XRECORD
  5
A4C
102
{ACAD_REACTORS
330
A4B
102
}
330
A4B
100
AcDbXrecord
280
     1
102
SHADEPLOT
 70
     0
102
SHADEPLOTRESLEVEL
 70
     2
102
SHADEPLOTCUSTOMDPI
 70
   300
  0
XRECORD
  5
A4A
102
{ACAD_REACTORS
330
A49
102
}
330
A49
100
AcDbXrecord
280
     1
102
SHADEPLOT
 70
     0
102
SHADEPLOTRESLEVEL
 70
     2
102
SHADEPLOTCUSTOMDPI
 70
   300
  0
DMBASEELEMENT
  5
476
102
{ACAD_REACTORS
330
474
102
}
330
474
100
AcMapDMBaseElement
 70
     1
  1
マップ ベース
 70
     1
330
474
100
AcMapDMBaseElement
 70
     1
  1

 70
     2
  1

 70
     1
 40
1.797693134862314E+99
 70
     1
 70
     1
 70
     1
 70
     1
360
478
100
AcMapDMBaseElement
 70
     1
  0
DMDEFAULTSTYLE
  5
477
102
{ACAD_REACTORS
330
474
102
}
330
474
100
AcMapDMDefaultStyle
 70
     1
 90
        1
  1
既定値
100
AcMapDMDefaultStyle
 70
     1
280
   100
 90
     0
  0
DMSTYLEREFERENCE
  5
478
330
476
100
AcMapDMStyleReference
 70
     1
 70
     0
340
477
330
474
  0
ENDSEC
  0
EOF
