  0
SECTION
  2
HEADER
  9
$ACADVER
  1
AC1015
  9
$ACADMAINTVER
 70
    20
  9
$DWGCODEPAGE
  3
ANSI_932
  9
$INSBASE
 10
0.0
 20
0.0
 30
0.0
  9
$EXTMIN
 10
3499.999175200591
 20
2918.837263777449
 30
0.0
  9
$EXTMAX
 10
41116.19888801897
 20
27918.83808857686
 30
0.0
  9
$LIMMIN
 10
0.0
 20
0.0
  9
$LIMMAX
 10
42000.0
 20
29700.0
  9
$ORTHOMODE
 70
     0
  9
$REGENMODE
 70
     1
  9
$FILLMODE
 70
     1
  9
$QTEXTMODE
 70
     0
  9
$MIRRTEXT
 70
     0
  9
$LTSCALE
 40
100.0
  9
$ATTMODE
 70
     1
  9
$TEXTSIZE
 40
0.2
  9
$TRACEWID
 40
0.05
  9
$TEXTSTYLE
  7
STANDARD
  9
$CLAYER
  8
0
  9
$CELTYPE
  6
CONTINUOUS
  9
$CECOLOR
 62
   256
  9
$CELTSCALE
 40
1.0
  9
$DISPSILH
 70
     0
  9
$DIMSCALE
 40
40.0
  9
$DIMASZ
 40
0.18
  9
$DIMEXO
 40
0.0625
  9
$DIMDLI
 40
0.38
  9
$DIMRND
 40
0.0
  9
$DIMDLE
 40
0.0
  9
$DIMEXE
 40
0.18
  9
$DIMTP
 40
0.0
  9
$DIMTM
 40
0.0
  9
$DIMTXT
 40
0.18
  9
$DIMCEN
 40
0.09
  9
$DIMTSZ
 40
0.0
  9
$DIMTOL
 70
     0
  9
$DIMLIM
 70
     0
  9
$DIMTIH
 70
     1
  9
$DIMTOH
 70
     1
  9
$DIMSE1
 70
     0
  9
$DIMSE2
 70
     0
  9
$DIMTAD
 70
     0
  9
$DIMZIN
 70
     0
  9
$DIMBLK
  1

  9
$DIMASO
 70
     1
  9
$DIMSHO
 70
     1
  9
$DIMPOST
  1

  9
$DIMAPOST
  1

  9
$DIMALT
 70
     0
  9
$DIMALTD
 70
     2
  9
$DIMALTF
 40
25.4
  9
$DIMLFAC
 40
1.0
  9
$DIMTOFL
 70
     0
  9
$DIMTVP
 40
0.0
  9
$DIMTIX
 70
     0
  9
$DIMSOXD
 70
     0
  9
$DIMSAH
 70
     0
  9
$DIMBLK1
  1

  9
$DIMBLK2
  1

  9
$DIMSTYLE
  2
Standard
  9
$DIMCLRD
 70
     0
  9
$DIMCLRE
 70
     0
  9
$DIMCLRT
 70
     0
  9
$DIMTFAC
 40
1.0
  9
$DIMGAP
 40
0.09
  9
$DIMJUST
 70
     0
  9
$DIMSD1
 70
     0
  9
$DIMSD2
 70
     0
  9
$DIMTOLJ
 70
     1
  9
$DIMTZIN
 70
     0
  9
$DIMALTZ
 70
     0
  9
$DIMALTTZ
 70
     0
  9
$DIMUPT
 70
     0
  9
$DIMDEC
 70
     4
  9
$DIMTDEC
 70
     4
  9
$DIMALTU
 70
     2
  9
$DIMALTTD
 70
     2
  9
$DIMTXSTY
  7
STANDARD
  9
$DIMAUNIT
 70
     0
  9
$DIMADEC
 70
     0
  9
$DIMALTRND
 40
0.0
  9
$DIMAZIN
 70
     0
  9
$DIMDSEP
 70
    46
  9
$DIMATFIT
 70
     3
  9
$DIMFRAC
 70
     0
  9
$DIMLDRBLK
  1

  9
$DIMLUNIT
 70
     2
  9
$DIMLWD
 70
    -2
  9
$DIMLWE
 70
    -2
  9
$DIMTMOVE
 70
     0
  9
$LUNITS
 70
     2
  9
$LUPREC
 70
     4
  9
$SKETCHINC
 40
0.1
  9
$FILLETRAD
 40
0.0
  9
$AUNITS
 70
     0
  9
$AUPREC
 70
     0
  9
$MENU
  1
.
  9
$ELEVATION
 40
0.0
  9
$PELEVATION
 40
0.0
  9
$THICKNESS
 40
0.0
  9
$LIMCHECK
 70
     0
  9
$CHAMFERA
 40
0.0
  9
$CHAMFERB
 40
0.0
  9
$CHAMFERC
 40
0.0
  9
$CHAMFERD
 40
0.0
  9
$SKPOLY
 70
     0
  9
$TDCREATE
 40
2454575.699290359
  9
$TDUCREATE
 40
2454575.324290359
  9
$TDUPDATE
 40
2454575.699916620
  9
$TDUUPDATE
 40
2454575.324916620
  9
$TDINDWG
 40
0.0006271759
  9
$TDUSRTIMER
 40
0.0006271759
  9
$USRTIMER
 70
     1
  9
$ANGBASE
 50
0.0
  9
$ANGDIR
 70
     0
  9
$PDMODE
 70
     0
  9
$PDSIZE
 40
0.0
  9
$PLINEWID
 40
0.0
  9
$SPLFRAME
 70
     0
  9
$SPLINETYPE
 70
     6
  9
$SPLINESEGS
 70
     8
  9
$HANDSEED
  5
752
  9
$SURFTAB1
 70
     6
  9
$SURFTAB2
 70
     6
  9
$SURFTYPE
 70
     6
  9
$SURFU
 70
     6
  9
$SURFV
 70
     6
  9
$UCSBASE
  2

  9
$UCSNAME
  2

  9
$UCSORG
 10
0.0
 20
0.0
 30
0.0
  9
$UCSXDIR
 10
1.0
 20
0.0
 30
0.0
  9
$UCSYDIR
 10
0.0
 20
1.0
 30
0.0
  9
$UCSORTHOREF
  2

  9
$UCSORTHOVIEW
 70
     0
  9
$UCSORGTOP
 10
0.0
 20
0.0
 30
0.0
  9
$UCSORGBOTTOM
 10
0.0
 20
0.0
 30
0.0
  9
$UCSORGLEFT
 10
0.0
 20
0.0
 30
0.0
  9
$UCSORGRIGHT
 10
0.0
 20
0.0
 30
0.0
  9
$UCSORGFRONT
 10
0.0
 20
0.0
 30
0.0
  9
$UCSORGBACK
 10
0.0
 20
0.0
 30
0.0
  9
$PUCSBASE
  2

  9
$PUCSNAME
  2

  9
$PUCSORG
 10
0.0
 20
0.0
 30
0.0
  9
$PUCSXDIR
 10
1.0
 20
0.0
 30
0.0
  9
$PUCSYDIR
 10
0.0
 20
1.0
 30
0.0
  9
$PUCSORTHOREF
  2

  9
$PUCSORTHOVIEW
 70
     0
  9
$PUCSORGTOP
 10
0.0
 20
0.0
 30
0.0
  9
$PUCSORGBOTTOM
 10
0.0
 20
0.0
 30
0.0
  9
$PUCSORGLEFT
 10
0.0
 20
0.0
 30
0.0
  9
$PUCSORGRIGHT
 10
0.0
 20
0.0
 30
0.0
  9
$PUCSORGFRONT
 10
0.0
 20
0.0
 30
0.0
  9
$PUCSORGBACK
 10
0.0
 20
0.0
 30
0.0
  9
$USERI1
 70
     0
  9
$USERI2
 70
     0
  9
$USERI3
 70
     0
  9
$USERI4
 70
     0
  9
$USERI5
 70
     0
  9
$USERR1
 40
0.0
  9
$USERR2
 40
0.0
  9
$USERR3
 40
0.0
  9
$USERR4
 40
0.0
  9
$USERR5
 40
0.0
  9
$WORLDVIEW
 70
     1
  9
$SHADEDGE
 70
     3
  9
$SHADEDIF
 70
    70
  9
$TILEMODE
 70
     1
  9
$MAXACTVP
 70
    64
  9
$PINSBASE
 10
0.0
 20
0.0
 30
0.0
  9
$PLIMCHECK
 70
     0
  9
$PEXTMIN
 10
1.000000000000000E+20
 20
1.000000000000000E+20
 30
1.000000000000000E+20
  9
$PEXTMAX
 10
-1.000000000000000E+20
 20
-1.000000000000000E+20
 30
-1.000000000000000E+20
  9
$PLIMMIN
 10
0.0
 20
0.0
  9
$PLIMMAX
 10
12.0
 20
9.0
  9
$UNITMODE
 70
     0
  9
$VISRETAIN
 70
     1
  9
$PLINEGEN
 70
     0
  9
$PSLTSCALE
 70
     1
  9
$TREEDEPTH
 70
  3020
  9
$CMLSTYLE
  2
Standard
  9
$CMLJUST
 70
     0
  9
$CMLSCALE
 40
1.0
  9
$PROXYGRAPHICS
 70
     1
  9
$MEASUREMENT
 70
     0
  9
$CELWEIGHT
370
    -1
  9
$ENDCAPS
280
     0
  9
$JOINSTYLE
280
     0
  9
$LWDISPLAY
290
     0
  9
$INSUNITS
 70
     2
  9
$HYPERLINKBASE
  1

  9
$STYLESHEET
  1

  9
$XEDIT
290
     1
  9
$CEPSNTYPE
380
     0
  9
$PSTYLEMODE
290
     1
  9
$FINGERPRINTGUID
  2
{6CFB3882-2C9D-4A26-AD5F-ACC5CC22C200}
  9
$VERSIONGUID
  2
{F32CFB3B-2F1F-467D-8032-2FB32AA991B8}
  9
$EXTNAMES
290
     1
  9
$PSVPSCALE
 40
0.0
  9
$OLESTARTUP
290
     0
  0
ENDSEC
  0
SECTION
  2
CLASSES
  0
CLASS
  1
ACDBDICTIONARYWDFLT
  2
AcDbDictionaryWithDefault
  3
ObjectDBX Classes
 90
        0
280
     0
281
     0
  0
CLASS
  1
TABLESTYLE
  2
AcDbTableStyle
  3
ObjectDBX Classes
 90
     2047
280
     0
281
     0
  0
CLASS
  1
AECC_TREE_NODE
  2
AeccDbTreeNode
  3
AeccvBase10|Product Desc: Autodesk Civil 3D |Company: Autodesk,Inc. |WEB Address: www.autodesk.com
 90
     1023
280
     0
281
     0
  0
CLASS
  1
AECC_CLASS_NODE
  2
AeccDbClassNode
  3
AeccLand10|Product Desc: Autodesk Civil 3D |Company: Autodesk,Inc. |WEB Address: www.autodesk.com
 90
     1023
280
     0
281
     0
  0
CLASS
  1
AECC_ROOT_SETTINGS_NODE
  2
AeccDbRootSettingsNode
  3
AeccvBase10|Product Desc: Autodesk Civil 3D |Company: Autodesk,Inc. |WEB Address: www.autodesk.com
 90
     1023
280
     0
281
     0
  0
CLASS
  1
AEC_VARS_DWG_SETUP
  2
AecDbVarsDwgSetup
  3
AecBase40|Product Desc: Autodesk Architectural Desktop 2005 |Company: Autodesk,Inc. |WEB Address: www.autodesk.com
 90
      129
280
     0
281
     0
  0
CLASS
  1
DMMAPMANAGER
  2
AcMapDMMapManager
  3
AcMapDisplayManagement
 90
     1024
280
     0
281
     0
  0
CLASS
  1
DMSTYLELIBRARY
  2
AcMapDMStyleLibrary
  3
AcMapDisplayManagement
 90
     1024
280
     0
281
     0
  0
CLASS
  1
DMMAP
  2
AcMapDMMap
  3
AcMapDisplayManagement
 90
     1024
280
     0
281
     0
  0
CLASS
  1
DMBASEELEMENT
  2
AcMapDMBaseElement
  3
AcMapDisplayManagement
 90
     1024
280
     0
281
     0
  0
CLASS
  1
DMDEFAULTSTYLE
  2
AcMapDMDefaultStyle
  3
AcMapDisplayManagement
 90
     1024
280
     0
281
     0
  0
CLASS
  1
DMSTYLEREFERENCE
  2
AcMapDMStyleReference
  3
AcMapDisplayManagement
 90
     1024
280
     0
281
     0
  0
CLASS
  1
DMSTYLECATEGORY
  2
AcMapDMStyleCategory
  3
AcMapDisplayManagement
 90
     1024
280
     0
281
     0
  0
CLASS
  1
AECC_SETTINGS_NODE
  2
AeccDbSettingsNode
  3
AeccvBase10|Product Desc: Autodesk Civil 3D |Company: Autodesk,Inc. |WEB Address: www.autodesk.com
 90
     1023
280
     0
281
     0
  0
CLASS
  1
AECC_PROFILE_VIEW_STYLE
  2
AeccDbGraphStyleProfile
  3
AeccLand10|Product Desc: Autodesk Civil 3D |Company: Autodesk,Inc. |WEB Address: www.autodesk.com
 90
      129
280
     0
281
     0
  0
CLASS
  1
AECC_PROFILE_VIEW_BAND_STYLE_SET
  2
AeccDbGraphProfileBandStyleSet
  3
AeccLand10|Product Desc: Autodesk Civil 3D |Company: Autodesk,Inc. |WEB Address: www.autodesk.com
 90
      129
280
     0
281
     0
  0
CLASS
  1
AECC_PROFILE_VIEW_DATA_BAND_STYLE
  2
AeccDbGraphStyleProfileDataBands
  3
AeccLand10|Product Desc: Autodesk Civil 3D |Company: Autodesk,Inc. |WEB Address: www.autodesk.com
 90
      129
280
     0
281
     0
  0
CLASS
  1
AECC_LABEL_NODE
  2
AeccDbLabelNode
  3
AeccLand10|Product Desc: Autodesk Civil 3D |Company: Autodesk,Inc. |WEB Address: www.autodesk.com
 90
     1023
280
     0
281
     0
  0
CLASS
  1
AECC_LABEL_COLLECTOR_STYLE
  2
AeccDbLabelStyleCollector
  3
AeccLand10|Product Desc: Autodesk Civil 3D |Company: Autodesk,Inc. |WEB Address: www.autodesk.com
 90
     1023
280
     0
281
     0
  0
CLASS
  1
AECC_LABEL_TEXT_STYLE
  2
AeccDbLabelStyleText
  3
AeccLand10|Product Desc: Autodesk Civil 3D |Company: Autodesk,Inc. |WEB Address: www.autodesk.com
 90
     1023
280
     0
281
     0
  0
CLASS
  1
AECC_PROFILE_VIEW_HORIZONTAL_GEOMETRY_BAND_STYLE
  2
AeccDbGraphStyleHorGeometryBands
  3
AeccLand10|Product Desc: Autodesk Civil 3D |Company: Autodesk,Inc. |WEB Address: www.autodesk.com
 90
      129
280
     0
281
     0
  0
CLASS
  1
AECC_PROFILE_VIEW_VERTICAL_GEOMETRY_BAND_STYLE
  2
AeccDbGraphStyleVertGeometryBands
  3
AeccLand10|Product Desc: Autodesk Civil 3D |Company: Autodesk,Inc. |WEB Address: www.autodesk.com
 90
      129
280
     0
281
     0
  0
CLASS
  1
AECC_LABEL_RADIAL_LINE_STYLE
  2
AeccDbLabelStyleRadialLine
  3
AeccLand10|Product Desc: Autodesk Civil 3D |Company: Autodesk,Inc. |WEB Address: www.autodesk.com
 90
     1023
280
     0
281
     0
  0
CLASS
  1
AECC_POINT_STYLE
  2
AeccDbPointStyle
  3
AeccLand10|Product Desc: Autodesk Civil 3D |Company: Autodesk,Inc. |WEB Address: www.autodesk.com
 90
      895
280
     0
281
     0
  0
CLASS
  1
AECC_PROFILE_LABEL_SET
  2
AeccDbVAlignStnLabelsDlgTemplate
  3
AeccLand10|Product Desc: Autodesk Civil 3D |Company: Autodesk,Inc. |WEB Address: www.autodesk.com
 90
     1023
280
     0
281
     0
  0
CLASS
  1
AECC_SECTION_VIEW_STYLE
  2
AeccDbGraphStyleCrossSection
  3
AeccLand10|Product Desc: Autodesk Civil 3D |Company: Autodesk,Inc. |WEB Address: www.autodesk.com
 90
      129
280
     0
281
     0
  0
CLASS
  1
AECC_SECTION_VIEW_BAND_STYLE_SET
  2
AeccDbGraphSectionBandStyleSet
  3
AeccLand10|Product Desc: Autodesk Civil 3D |Company: Autodesk,Inc. |WEB Address: www.autodesk.com
 90
      129
280
     0
281
     0
  0
CLASS
  1
AECC_SECTION_VIEW_DATA_BAND_STYLE
  2
AeccDbGraphStyleSectionDataBands
  3
AeccLand10|Product Desc: Autodesk Civil 3D |Company: Autodesk,Inc. |WEB Address: www.autodesk.com
 90
      129
280
     0
281
     0
  0
CLASS
  1
AECC_SECTION_LABEL_SET
  2
AeccDbSectionLabelsDlgTemplate
  3
AeccLand10|Product Desc: Autodesk Civil 3D |Company: Autodesk,Inc. |WEB Address: www.autodesk.com
 90
     1023
280
     0
281
     0
  0
CLASS
  1
AECC_ALIGNMENT_STYLE
  2
AeccDbAlignmentStyle
  3
AeccLand10|Product Desc: Autodesk Civil 3D |Company: Autodesk,Inc. |WEB Address: www.autodesk.com
 90
     1023
280
     0
281
     0
  0
CLASS
  1
AECC_LABEL_VECTOR_ARROW_STYLE
  2
AeccDbLabelStyleVectorArrow
  3
AeccLand10|Product Desc: Autodesk Civil 3D |Company: Autodesk,Inc. |WEB Address: www.autodesk.com
 90
     1023
280
     0
281
     0
  0
CLASS
  1
AECC_ALIGNMENT_LABEL_SET
  2
AeccDbAlignStnLabelsDlgTemplate
  3
AeccLand10|Product Desc: Autodesk Civil 3D |Company: Autodesk,Inc. |WEB Address: www.autodesk.com
 90
     1023
280
     0
281
     0
  0
CLASS
  1
AECC_SURFACE_STYLE
  2
AeccDbSurfaceStyle
  3
AeccLand10|Product Desc: Autodesk Civil 3D |Company: Autodesk,Inc. |WEB Address: www.autodesk.com
 90
      129
280
     0
281
     0
  0
CLASS
  1
AECC_LEGEND_TABLE_STYLE
  2
AeccDbLegendScheduleTableStyle
  3
AeccLand10|Product Desc: Autodesk Civil 3D |Company: Autodesk,Inc. |WEB Address: www.autodesk.com
 90
     1023
280
     0
281
     0
  0
CLASS
  1
AECC_SECTION_STYLE
  2
AeccDbSectionStyle
  3
AeccLand10|Product Desc: Autodesk Civil 3D |Company: Autodesk,Inc. |WEB Address: www.autodesk.com
 90
     1023
280
     0
281
     0
  0
CLASS
  1
AECC_GRADING_STYLE
  2
AeccDbGradingStyle
  3
AeccLand10|Product Desc: Autodesk Civil 3D |Company: Autodesk,Inc. |WEB Address: www.autodesk.com
 90
     1023
280
     0
281
     0
  0
CLASS
  1
AECC_GRADING_CRITERIA
  2
AeccDbGradingCriteria
  3
AeccLand10|Product Desc: Autodesk Civil 3D |Company: Autodesk,Inc. |WEB Address: www.autodesk.com
 90
     1023
280
     0
281
     0
  0
CLASS
  1
AECC_PARCEL_STYLE
  2
AeccDbParcelStyle
  3
AeccLand10|Product Desc: Autodesk Civil 3D |Company: Autodesk,Inc. |WEB Address: www.autodesk.com
 90
      129
280
     0
281
     0
  0
CLASS
  1
AECC_SAMPLE_LINE_GROUP_STYLE
  2
AeccDbSampleLineGroupStyle
  3
AeccLand10|Product Desc: Autodesk Civil 3D |Company: Autodesk,Inc. |WEB Address: www.autodesk.com
 90
      129
280
     0
281
     0
  0
CLASS
  1
AECC_SHEET_STYLE
  2
AeccDbSheetStyle
  3
AeccLand10|Product Desc: Autodesk Civil 3D |Company: Autodesk,Inc. |WEB Address: www.autodesk.com
 90
      129
280
     0
281
     0
  0
CLASS
  1
AECC_SAMPLE_LINE_STYLE
  2
AeccDbSampleLineStyle
  3
AeccLand10|Product Desc: Autodesk Civil 3D |Company: Autodesk,Inc. |WEB Address: www.autodesk.com
 90
     1023
280
     0
281
     0
  0
CLASS
  1
AECC_PROFILE_STYLE
  2
AeccDbVAlignmentStyle
  3
AeccLand10|Product Desc: Autodesk Civil 3D |Company: Autodesk,Inc. |WEB Address: www.autodesk.com
 90
     1023
280
     0
281
     0
  0
CLASS
  1
AECC_STATION_FORMAT_STYLE
  2
AeccDbStationFormatStyle
  3
AeccLand10|Product Desc: Autodesk Civil 3D |Company: Autodesk,Inc. |WEB Address: www.autodesk.com
 90
     1023
280
     0
281
     0
  0
CLASS
  1
AECC_TABLE_STYLE
  2
AeccDbScheduleTableStyle
  3
AeccLand10|Product Desc: Autodesk Civil 3D |Company: Autodesk,Inc. |WEB Address: www.autodesk.com
 90
     1023
280
     0
281
     0
  0
CLASS
  1
AECC_GRADING_CRITERIA_SET
  2
AeccDbGradingCriteriaSet
  3
AeccLand10|Product Desc: Autodesk Civil 3D |Company: Autodesk,Inc. |WEB Address: www.autodesk.com
 90
     1023
280
     0
281
     0
  0
CLASS
  1
AECC_FORMAT_MANAGER_OBJECT
  2
AeccDbFormatManagerObject
  3
AeccLand10|Product Desc: Autodesk Civil 3D |Company: Autodesk,Inc. |WEB Address: www.autodesk.com
 90
     1023
280
     0
281
     0
  0
CLASS
  1
AECC_POINT_DESCRIPTION_KEY_SET_NODE
  2
AeccDbPointDescKeySetsNode
  3
AeccvBase10|Product Desc: Autodesk Civil 3D |Company: Autodesk,Inc. |WEB Address: www.autodesk.com
 90
     1023
280
     0
281
     0
  0
CLASS
  1
DICTIONARYVAR
  2
AcDbDictionaryVar
  3
ObjectDBX Classes
 90
        0
280
     0
281
     0
  0
CLASS
  1
ACDBPLACEHOLDER
  2
AcDbPlaceHolder
  3
ObjectDBX Classes
 90
        0
280
     0
281
     0
  0
CLASS
  1
LAYOUT
  2
AcDbLayout
  3
ObjectDBX Classes
 90
        0
280
     0
281
     0
  0
ENDSEC
  0
SECTION
  2
TABLES
  0
TABLE
  2
VPORT
  5
8
330
0
100
AcDbSymbolTable
 70
     2
  0
VPORT
  5
74C
330
8
100
AcDbSymbolTableRecord
100
AcDbViewportTableRecord
  2
*Active
 70
     0
 10
0.0
 20
0.0
 11
1.0
 21
1.0
 12
47222.36429329623
 22
19977.44521888542
 13
0.0
 23
0.0
 14
1.0
 24
1.0
 15
0.0
 25
0.0
 16
0.0
 26
0.0
 36
1.0
 17
0.0
 27
0.0
 37
0.0
 40
55835.61802337267
 41
1.937399678972712
 42
50.0
 43
0.0
 44
0.0
 50
0.0
 51
0.0
 71
     0
 72
   100
 73
     1
 74
     1
 75
     0
 76
     0
 77
     0
 78
     0
281
     0
 65
     1
110
0.0
120
0.0
130
0.0
111
1.0
121
0.0
131
0.0
112
0.0
122
1.0
132
0.0
 79
     0
146
0.0
  0
ENDTAB
  0
TABLE
  2
LTYPE
  5
5
330
0
100
AcDbSymbolTable
 70
    35
  0
LTYPE
  5
13
330
5
100
AcDbSymbolTableRecord
100
AcDbLinetypeTableRecord
  2
ByBlock
 70
     0
  3

 72
    65
 73
     0
 40
0.0
  0
LTYPE
  5
14
330
5
100
AcDbSymbolTableRecord
100
AcDbLinetypeTableRecord
  2
ByLayer
 70
     0
  3

 72
    65
 73
     0
 40
0.0
  0
LTYPE
  5
15
330
5
100
AcDbSymbolTableRecord
100
AcDbLinetypeTableRecord
  2
CONTINUOUS
 70
     0
  3
実線
 72
    65
 73
     0
 40
0.0
  0
LTYPE
  5
26
330
5
100
AcDbSymbolTableRecord
100
AcDbLinetypeTableRecord
  2
DASHED1
 70
     0
  3
--  --  --  --  --  --  --  --  
 72
    65
 73
     2
 40
2.5
 49
1.25
 74
     0
 49
-1.25
 74
     0
  0
LTYPE
  5
27
330
5
100
AcDbSymbolTableRecord
100
AcDbLinetypeTableRecord
  2
DASHED2
 70
     0
  3
----    ----    ----    ----    
 72
    65
 73
     2
 40
5.0
 49
2.5
 74
     0
 49
-2.5
 74
     0
  0
LTYPE
  5
28
330
5
100
AcDbSymbolTableRecord
100
AcDbLinetypeTableRecord
  2
DASHED3
 70
     0
  3
------  ------  ------  ------  
 72
    65
 73
     2
 40
5.0
 49
3.75
 74
     0
 49
-1.25
 74
     0
  0
LTYPE
  5
29
330
5
100
AcDbSymbolTableRecord
100
AcDbLinetypeTableRecord
  2
CENTER1
 70
     0
  3
----- - ----- - ----- - ----- - 
 72
    65
 73
     4
 40
10.0
 49
6.25
 74
     0
 49
-1.25
 74
     0
 49
1.25
 74
     0
 49
-1.25
 74
     0
  0
LTYPE
  5
2A
330
5
100
AcDbSymbolTableRecord
100
AcDbLinetypeTableRecord
  2
CENTER2
 70
     0
  3
----------  --  ----------  --  
 72
    65
 73
     4
 40
20.0
 49
12.5
 74
     0
 49
-2.5
 74
     0
 49
2.5
 74
     0
 49
-2.5
 74
     0
  0
LTYPE
  5
2B
330
5
100
AcDbSymbolTableRecord
100
AcDbLinetypeTableRecord
  2
PHANTOM1
 70
     0
  3
--- - - --- - - --- - - --- - - 
 72
    65
 73
     6
 40
10.0
 49
3.25
 74
     0
 49
-1.25
 74
     0
 49
1.25
 74
     0
 49
-1.25
 74
     0
 49
1.25
 74
     0
 49
-1.25
 74
     0
  0
LTYPE
  5
2C
330
5
100
AcDbSymbolTableRecord
100
AcDbLinetypeTableRecord
  2
PHANTOM2
 70
     0
  3
--------  -  -  --------  -  -  
 72
    65
 73
     6
 40
20.0
 49
10.0
 74
     0
 49
-2.5
 74
     0
 49
1.25
 74
     0
 49
-2.5
 74
     0
 49
1.25
 74
     0
 49
-2.5
 74
     0
  0
LTYPE
  5
2D
330
5
100
AcDbSymbolTableRecord
100
AcDbLinetypeTableRecord
  2
DOT
 70
     0
  3
-   -   -   -   -   -   -   -   
 72
    65
 73
     2
 40
2.5
 49
0.625
 74
     0
 49
-1.875
 74
     0
  0
LTYPE
  5
2E
330
5
100
AcDbSymbolTableRecord
100
AcDbLinetypeTableRecord
  2
DUMMY
 70
     0
  3
ダミー
 72
    65
 73
     0
 40
0.0
  0
LTYPE
  5
2F
330
5
100
AcDbSymbolTableRecord
100
AcDbLinetypeTableRecord
  2
RAND1
 70
     0
  3
ランダム線1
 72
    65
 73
     4
 40
10.0
 49
1.0
 74
     0
 49
-2.0
 74
     0
 49
3.0
 74
     0
 49
-4.0
 74
     0
  0
LTYPE
  5
30
330
5
100
AcDbSymbolTableRecord
100
AcDbLinetypeTableRecord
  2
RAND2
 70
     0
  3
ランダム線2
 72
    65
 73
     4
 40
14.0
 49
2.0
 74
     0
 49
-3.0
 74
     0
 49
4.0
 74
     0
 49
-5.0
 74
     0
  0
LTYPE
  5
31
330
5
100
AcDbSymbolTableRecord
100
AcDbLinetypeTableRecord
  2
RAND3
 70
     0
  3
ランダム線3
 72
    65
 73
     4
 40
18.0
 49
3.0
 74
     0
 49
-4.0
 74
     0
 49
5.0
 74
     0
 49
-6.0
 74
     0
  0
LTYPE
  5
32
330
5
100
AcDbSymbolTableRecord
100
AcDbLinetypeTableRecord
  2
RAND4
 70
     0
  3
ランダム線4
 72
    65
 73
     4
 40
22.0
 49
4.0
 74
     0
 49
-5.0
 74
     0
 49
6.0
 74
     0
 49
-7.0
 74
     0
  0
LTYPE
  5
33
330
5
100
AcDbSymbolTableRecord
100
AcDbLinetypeTableRecord
  2
RAND5
 70
     0
  3
ランダム線5
 72
    65
 73
     4
 40
26.0
 49
5.0
 74
     0
 49
-6.0
 74
     0
 49
7.0
 74
     0
 49
-8.0
 74
     0
  0
LTYPE
  5
34
330
5
100
AcDbSymbolTableRecord
100
AcDbLinetypeTableRecord
  2
LONG1
 70
     0
  3
----------  --  ----------  --  
 72
    65
 73
     4
 40
40.0
 49
32.5
 74
     0
 49
-2.5
 74
     0
 49
2.5
 74
     0
 49
-2.5
 74
     0
  0
LTYPE
  5
35
330
5
100
AcDbSymbolTableRecord
100
AcDbLinetypeTableRecord
  2
LONG2
 70
     0
  3
--------  -  -  --------  -  -  
 72
    65
 73
     6
 40
40.0
 49
30.0
 74
     0
 49
-2.5
 74
     0
 49
1.25
 74
     0
 49
-2.5
 74
     0
 49
1.25
 74
     0
 49
-2.5
 74
     0
  0
LTYPE
  5
36
330
5
100
AcDbSymbolTableRecord
100
AcDbLinetypeTableRecord
  2
LONG3
 70
     0
  3
+++++++++++++++..+++++++++++++++
 72
    65
 73
     2
 40
40.0
 49
37.5
 74
     0
 49
-2.5
 74
     0
  0
LTYPE
  5
37
330
5
100
AcDbSymbolTableRecord
100
AcDbLinetypeTableRecord
  2
LONG4
 70
     0
  3
+++++++++++++++..+++++++++++++++
 72
    65
 73
     2
 40
80.0
 49
75.0
 74
     0
 49
-5.0
 74
     0
  0
LTYPE
  5
38
330
5
100
AcDbSymbolTableRecord
100
AcDbLinetypeTableRecord
  2
LONG5
 70
     0
  3
----------  --  ----------  --  
 72
    65
 73
     4
 40
60.0
 49
37.5
 74
     0
 49
-7.5
 74
     0
 49
7.5
 74
     0
 49
-7.5
 74
     0
  0
LTYPE
  5
39
330
5
100
AcDbSymbolTableRecord
100
AcDbLinetypeTableRecord
  2
DASHED
 70
     0
  3
-------   -------------   ------
 72
    65
 73
     2
 40
7.5
 49
6.0
 74
     0
 49
-1.5
 74
     0
  0
LTYPE
  5
3A
330
5
100
AcDbSymbolTableRecord
100
AcDbLinetypeTableRecord
  2
DASHED_SPACED
 70
     0
  3
----        --------        ----
 72
    65
 73
     2
 40
12.0
 49
6.0
 74
     0
 49
-6.0
 74
     0
  0
LTYPE
  5
3B
330
5
100
AcDbSymbolTableRecord
100
AcDbLinetypeTableRecord
  2
LONG_DASHED_DOTTED
 70
     0
  3
------------- --- --------------
 72
    65
 73
     4
 40
15.25
 49
12.0
 74
     0
 49
-1.5
 74
     0
 49
0.25
 74
     0
 49
-1.5
 74
     0
  0
LTYPE
  5
3C
330
5
100
AcDbSymbolTableRecord
100
AcDbLinetypeTableRecord
  2
LONG_DASHED_DOUBLE-DOTTED
 70
     0
  3
----------- --- --- ------------
 72
    65
 73
     6
 40
17.0
 49
12.0
 74
     0
 49
-1.5
 74
     0
 49
0.25
 74
     0
 49
-1.5
 74
     0
 49
0.25
 74
     0
 49
-1.5
 74
     0
  0
LTYPE
  5
3D
330
5
100
AcDbSymbolTableRecord
100
AcDbLinetypeTableRecord
  2
LONG_DASHED_TRIPLICATE-DOTTED
 70
     0
  3
--------- --- --- --- ----------
 72
    65
 73
     8
 40
18.75
 49
12.0
 74
     0
 49
-1.5
 74
     0
 49
0.25
 74
     0
 49
-1.5
 74
     0
 49
0.25
 74
     0
 49
-1.5
 74
     0
 49
0.25
 74
     0
 49
-1.5
 74
     0
  0
LTYPE
  5
3E
330
5
100
AcDbSymbolTableRecord
100
AcDbLinetypeTableRecord
  2
DOTTED
 70
     0
  3
   -       -       -       -    
 72
    65
 73
     2
 40
1.75
 49
0.25
 74
     0
 49
-1.5
 74
     0
  0
LTYPE
  5
3F
330
5
100
AcDbSymbolTableRecord
100
AcDbLinetypeTableRecord
  2
CHAIN
 70
     0
  3
-------------- -- --------------
 72
    65
 73
     4
 40
18.5
 49
12.0
 74
     0
 49
-1.5
 74
     0
 49
3.5
 74
     0
 49
-1.5
 74
     0
  0
LTYPE
  5
40
330
5
100
AcDbSymbolTableRecord
100
AcDbLinetypeTableRecord
  2
CHAIN_DOUBLE_DASH
 70
     0
  3
------------ -- -- -------------
 72
    65
 73
     6
 40
23.5
 49
12.0
 74
     0
 49
-1.5
 74
     0
 49
3.5
 74
     0
 49
-1.5
 74
     0
 49
3.5
 74
     0
 49
-1.5
 74
     0
  0
LTYPE
  5
41
330
5
100
AcDbSymbolTableRecord
100
AcDbLinetypeTableRecord
  2
DASHED_DOTTED
 70
     0
  3
-----------     -     ----------
 72
    65
 73
     4
 40
9.25
 49
6.0
 74
     0
 49
-1.5
 74
     0
 49
0.25
 74
     0
 49
-1.5
 74
     0
  0
LTYPE
  5
42
330
5
100
AcDbSymbolTableRecord
100
AcDbLinetypeTableRecord
  2
DOUBLE-DASHED_DOTTED
 70
     0
  3
------   -----------   -   -----
 72
    65
 73
     6
 40
16.75
 49
6.0
 74
     0
 49
-1.5
 74
     0
 49
6.0
 74
     0
 49
-1.5
 74
     0
 49
0.25
 74
     0
 49
-1.5
 74
     0
  0
LTYPE
  5
43
330
5
100
AcDbSymbolTableRecord
100
AcDbLinetypeTableRecord
  2
DASHED_DOUBLE-DOTTED
 70
     0
  3
---------    -    -    ---------
 72
    65
 73
     6
 40
11.0
 49
6.0
 74
     0
 49
-1.5
 74
     0
 49
0.25
 74
     0
 49
-1.5
 74
     0
 49
0.25
 74
     0
 49
-1.5
 74
     0
  0
LTYPE
  5
44
330
5
100
AcDbSymbolTableRecord
100
AcDbLinetypeTableRecord
  2
DOUBLE-DASHED_DOUBLE-DOTTED
 70
     0
  3
-----   ---------   -   -   ----
 72
    65
 73
     8
 40
18.5
 49
6.0
 74
     0
 49
-1.5
 74
     0
 49
6.0
 74
     0
 49
-1.5
 74
     0
 49
0.25
 74
     0
 49
-1.5
 74
     0
 49
0.25
 74
     0
 49
-1.5
 74
     0
  0
LTYPE
  5
45
330
5
100
AcDbSymbolTableRecord
100
AcDbLinetypeTableRecord
  2
DASHED_TRIPLICATE-DOTTED
 70
     0
  3
-------    -    -    -    ------
 72
    65
 73
     8
 40
12.75
 49
6.0
 74
     0
 49
-1.5
 74
     0
 49
0.25
 74
     0
 49
-1.5
 74
     0
 49
0.25
 74
     0
 49
-1.5
 74
     0
 49
0.25
 74
     0
 49
-1.5
 74
     0
  0
LTYPE
  5
46
330
5
100
AcDbSymbolTableRecord
100
AcDbLinetypeTableRecord
  2
DOUBLE-DASHED_TRIPLICATE-DOTTED
 70
     0
  3
-----  ---------  -  -  -  -----
 72
    65
 73
    10
 40
20.25
 49
6.0
 74
     0
 49
-1.5
 74
     0
 49
6.0
 74
     0
 49
-1.5
 74
     0
 49
0.25
 74
     0
 49
-1.5
 74
     0
 49
0.25
 74
     0
 49
-1.5
 74
     0
 49
0.25
 74
     0
 49
-1.5
 74
     0
  0
LTYPE
  5
47
330
5
100
AcDbSymbolTableRecord
100
AcDbLinetypeTableRecord
  2
UNDEFINED
 70
     0
  3
--------------------------------
 72
    65
 73
     0
 40
0.0
  0
ENDTAB
  0
TABLE
  2
LAYER
  5
2
330
0
100
AcDbSymbolTable
 70
    11
  0
LAYER
  5
10
330
2
100
AcDbSymbolTableRecord
100
AcDbLayerTableRecord
  2
0
 70
     0
 62
     7
  6
CONTINUOUS
370
    -3
390
F
  0
LAYER
  5
49
330
2
100
AcDbSymbolTableRecord
100
AcDbLayerTableRecord
  2
_0-0_
 70
     0
 62
     7
  6
CONTINUOUS
370
    -3
390
F
  0
LAYER
  5
4A
330
2
100
AcDbSymbolTableRecord
100
AcDbLayerTableRecord
  2
_0-2_
 70
     0
 62
     7
  6
CONTINUOUS
370
    -3
390
F
  0
LAYER
  5
4B
330
2
100
AcDbSymbolTableRecord
100
AcDbLayerTableRecord
  2
_0-3_
 70
     0
 62
     7
  6
CONTINUOUS
370
    -3
390
F
  0
LAYER
  5
4C
330
2
100
AcDbSymbolTableRecord
100
AcDbLayerTableRecord
  2
_0-6_
 70
     0
 62
     7
  6
CONTINUOUS
370
    -3
390
F
  0
LAYER
  5
4D
330
2
100
AcDbSymbolTableRecord
100
AcDbLayerTableRecord
  2
_0-7_
 70
     0
 62
     7
  6
CONTINUOUS
370
    -3
390
F
  0
LAYER
  5
4E
330
2
100
AcDbSymbolTableRecord
100
AcDbLayerTableRecord
  2
_0-9_
 70
     0
 62
     7
  6
CONTINUOUS
370
    -3
390
F
  0
LAYER
  5
4F
330
2
100
AcDbSymbolTableRecord
100
AcDbLayerTableRecord
  2
_0-B_
 70
     0
 62
     7
  6
CONTINUOUS
370
    -3
390
F
  0
LAYER
  5
50
330
2
100
AcDbSymbolTableRecord
100
AcDbLayerTableRecord
  2
_0-E_
 70
     0
 62
     7
  6
CONTINUOUS
370
    -3
390
F
  0
LAYER
  5
51
330
2
100
AcDbSymbolTableRecord
100
AcDbLayerTableRecord
  2
_0-F_
 70
     0
 62
     7
  6
CONTINUOUS
370
    -3
390
F
  0
LAYER
  5
52
330
2
100
AcDbSymbolTableRecord
100
AcDbLayerTableRecord
  2
ADD_LINE
 70
     0
 62
     7
  6
CONTINUOUS
370
    -3
390
F
  0
ENDTAB
  0
TABLE
  2
STYLE
  5
3
330
0
100
AcDbSymbolTable
 70
     2
  0
STYLE
  5
11
330
3
100
AcDbSymbolTableRecord
100
AcDbTextStyleTableRecord
  2
STANDARD
 70
     0
 40
0.0
 41
1.0
 50
0.0
 71
     0
 42
0.2
  3
MS Gothic.ttf
  4

1001
ACAD
1000
MS Gothic
1071
    32817
  0
STYLE
  5
48
330
3
100
AcDbSymbolTableRecord
100
AcDbTextStyleTableRecord
  2
TATEGAKI
 70
     4
 40
0.0
 41
1.0
 50
0.0
 71
     0
 42
1.0
  3
txt
  4
bigfont.shx
  0
ENDTAB
  0
TABLE
  2
VIEW
  5
6
330
0
100
AcDbSymbolTable
 70
     0
  0
ENDTAB
  0
TABLE
  2
UCS
  5
7
330
0
100
AcDbSymbolTable
 70
     0
  0
ENDTAB
  0
TABLE
  2
APPID
  5
9
330
0
100
AcDbSymbolTable
 70
     3
  0
APPID
  5
12
330
9
100
AcDbSymbolTableRecord
100
AcDbRegAppTableRecord
  2
ACAD
 70
     0
  0
APPID
  5
743
330
9
100
AcDbSymbolTableRecord
100
AcDbRegAppTableRecord
  2
DCO15
 70
     0
  0
APPID
  5
745
330
9
100
AcDbSymbolTableRecord
100
AcDbRegAppTableRecord
  2
ADE
 70
     0
  0
ENDTAB
  0
TABLE
  2
DIMSTYLE
  5
A
330
0
100
AcDbSymbolTable
 70
     1
100
AcDbDimStyleTable
 71
     0
  0
DIMSTYLE
105
45D
330
A
100
AcDbSymbolTableRecord
100
AcDbDimStyleTableRecord
  2
Standard
 70
     0
340
11
  0
ENDTAB
  0
TABLE
  2
BLOCK_RECORD
  5
1
330
0
100
AcDbSymbolTable
 70
     0
  0
BLOCK_RECORD
  5
22
330
1
100
AcDbSymbolTableRecord
100
AcDbBlockTableRecord
  2
*Model_Space
340
25
  0
BLOCK_RECORD
  5
1E
330
1
100
AcDbSymbolTableRecord
100
AcDbBlockTableRecord
  2
*Paper_Space
340
21
  0
ENDTAB
  0
ENDSEC
  0
SECTION
  2
BLOCKS
  0
BLOCK
  5
23
330
22
100
AcDbEntity
  8
0
100
AcDbBlockBegin
  2
*Model_Space
 70
     0
 10
0.0
 20
0.0
 30
0.0
  3
*Model_Space
  1

  0
ENDBLK
  5
24
330
22
100
AcDbEntity
  8
0
100
AcDbBlockEnd
  0
BLOCK
  5
1F
330
1E
100
AcDbEntity
 67
     1
  8
0
100
AcDbBlockBegin
  2
*Paper_Space
 70
     0
 10
0.0
 20
0.0
 30
0.0
  3
*Paper_Space
  1

  0
ENDBLK
  5
20
330
1E
100
AcDbEntity
 67
     1
  8
0
100
AcDbBlockEnd
  0
ENDSEC
  0
SECTION
  2
ENTITIES
  0
LINE
  5
56
330
22
100
AcDbEntity
  8
_0-F_
  6
Continuous
 62
     2
100
AcDbLine
 10
37999.9991752006
 20
26918.83726377744
 30
0.0
 11
37999.9991752006
 21
27918.83808857686
 31
0.0
  0
LINE
  5
57
330
22
100
AcDbEntity
  8
_0-F_
  6
Continuous
 62
     2
100
AcDbLine
 10
37999.9991752006
 20
26918.83726377744
 30
0.0
 11
40500.0
 21
26918.83726377744
 31
0.0
  0
LINE
  5
58
330
22
100
AcDbEntity
  8
_0-F_
  6
Continuous
 62
     2
100
AcDbLine
 10
3499.999175200591
 20
27918.83808857686
 30
0.0
 11
40500.0
 21
27918.83808857686
 31
0.0
  0
LINE
  5
59
330
22
100
AcDbEntity
  8
_0-F_
  6
Continuous
 62
     2
100
AcDbLine
 10
3499.999175200591
 20
2918.837263777449
 30
0.0
 11
3499.999175200591
 21
27918.83808857686
 31
0.0
  0
LINE
  5
5A
330
22
100
AcDbEntity
  8
_0-F_
  6
Continuous
 62
     2
100
AcDbLine
 10
40500.0
 20
2918.837263777449
 30
0.0
 11
3499.999175200591
 21
2918.837263777449
 31
0.0
  0
LINE
  5
5B
330
22
100
AcDbEntity
  8
_0-F_
  6
Continuous
 62
     2
100
AcDbLine
 10
40500.0
 20
27918.83808857686
 30
0.0
 11
40500.0
 21
2918.837263777449
 31
0.0
  0
TEXT
  5
5C
330
22
100
AcDbEntity
  8
_0-F_
 62
     7
100
AcDbText
 10
37937.74050055125
 20
27185.69863809122
 30
0.0
 40
400.0
  1
１４．９Ｍ
100
AcDbText
  0
LINE
  5
5D
330
22
100
AcDbEntity
  8
_0-3_
  6
Continuous
 62
     6
100
AcDbLine
 10
12614.12946254865
 20
10340.18872612676
 30
0.0
 11
18539.6240947541
 21
10340.18872612676
 31
0.0
  0
LINE
  5
5E
330
22
100
AcDbEntity
  8
_0-2_
  6
Continuous
 62
     7
100
AcDbLine
 10
12353.44294900874
 20
7240.190252005674
 30
0.0
 11
12800.44298859912
 21
7240.190252005674
 31
0.0
  0
LINE
  5
5F
330
22
100
AcDbEntity
  8
_0-2_
  6
Continuous
 62
     7
100
AcDbLine
 10
12466.94359565148
 20
24240.19252020404
 30
0.0
 11
12686.94234195638
 21
24240.19252020404
 31
0.0
  0
LINE
  5
60
330
22
100
AcDbEntity
  8
_0-2_
  6
Continuous
 62
     7
100
AcDbLine
 10
18353.44294900874
 20
7240.190252005674
 30
0.0
 11
18800.44298859912
 21
7240.190252005674
 31
0.0
  0
LINE
  5
61
330
22
100
AcDbEntity
  8
_0-B_
  6
Continuous
 62
     3
100
AcDbLine
 10
9353.442949008746
 20
10240.18963340612
 30
0.0
 11
12373.47320265106
 21
10240.18963340612
 31
0.0
  0
LINE
  5
62
330
22
100
AcDbEntity
  8
_0-B_
  6
Continuous
 62
     3
100
AcDbLine
 10
18780.41397215592
 20
10240.18963340612
 30
0.0
 11
24373.47320265106
 21
10240.18963340612
 31
0.0
  0
LINE
  5
63
330
22
100
AcDbEntity
  8
_0-9_
  6
Continuous
 62
     4
100
AcDbLine
 10
12577.57641474988
 20
4667.175812242423
 30
0.0
 11
30577.57394035165
 21
4667.175812242423
 31
0.0
  0
LINE
  5
64
330
22
100
AcDbEntity
  8
_0-9_
  6
Continuous
 62
     4
100
AcDbLine
 10
12577.57641474988
 20
5740.190252005669
 30
0.0
 11
12577.57641474988
 21
4667.175812242423
 31
0.0
  0
LINE
  5
65
330
22
100
AcDbEntity
  8
_0-9_
  6
Continuous
 62
     4
100
AcDbLine
 10
18577.57641474988
 20
5740.190252005669
 30
0.0
 11
18577.57641474988
 21
4667.175812242423
 31
0.0
  0
LINE
  5
66
330
22
100
AcDbEntity
  8
_0-9_
  6
Continuous
 62
     4
100
AcDbLine
 10
24577.57641474988
 20
5740.190252005669
 30
0.0
 11
24577.57641474988
 21
4667.175812242423
 31
0.0
  0
LINE
  5
67
330
22
100
AcDbEntity
  8
_0-9_
  6
Continuous
 62
     4
100
AcDbLine
 10
30577.57394035165
 20
5740.190252005669
 30
0.0
 11
30577.57394035165
 21
4667.175812242423
 31
0.0
  0
LINE
  5
68
330
22
100
AcDbEntity
  8
_0-9_
  6
Continuous
 62
     4
100
AcDbLine
 10
8076.942968803932
 20
24240.19252020404
 30
0.0
 11
8076.942968803932
 21
7240.191489204784
 31
0.0
  0
LINE
  5
69
330
22
100
AcDbEntity
  8
_0-9_
  6
Continuous
 62
     4
100
AcDbLine
 10
8576.942144004521
 20
10240.19210780434
 30
0.0
 11
8576.942144004521
 21
24240.19252020404
 31
0.0
  0
LINE
  5
6A
330
22
100
AcDbEntity
  8
_0-2_
  6
Continuous
 62
     7
100
AcDbLine
 10
12551.94288632399
 20
24025.12772396249
 30
0.0
 11
12551.94288632399
 21
24125.12805388225
 31
0.0
  0
LINE
  5
6B
330
22
100
AcDbEntity
  8
_0-2_
  6
Continuous
 62
     7
100
AcDbLine
 10
12551.94288632399
 20
24125.12805388225
 30
0.0
 11
12601.94305128387
 21
24125.12805388225
 31
0.0
  0
LINE
  5
6C
330
22
100
AcDbEntity
  8
_0-2_
  6
Continuous
 62
     7
100
AcDbLine
 10
12601.94305128387
 20
24125.12805388225
 30
0.0
 11
12601.94305128387
 21
24025.12772396249
 31
0.0
  0
LINE
  5
6D
330
22
100
AcDbEntity
  8
_0-2_
  6
Continuous
 62
     7
100
AcDbLine
 10
12601.94305128387
 20
24025.12772396249
 30
0.0
 11
12551.94288632399
 21
24025.12772396249
 31
0.0
  0
LINE
  5
6E
330
22
100
AcDbEntity
  8
_0-2_
  6
Continuous
 62
     7
100
AcDbLine
 10
12788.94322284215
 20
24105.12996741688
 30
0.0
 11
12788.94322284215
 21
24215.12686617111
 31
0.0
  0
LINE
  5
6F
330
22
100
AcDbEntity
  8
_0-2_
  6
Continuous
 62
     7
100
AcDbLine
 10
12788.94322284215
 20
24215.12686617111
 30
0.0
 11
12988.94264548256
 21
24215.12686617111
 31
0.0
  0
LINE
  5
70
330
22
100
AcDbEntity
  8
_0-2_
  6
Continuous
 62
     7
100
AcDbLine
 10
11870.80167736601
 20
9740.189839605967
 30
0.0
 11
11870.80167736601
 21
9940.187406447712
 31
0.0
  0
LINE
  5
71
330
22
100
AcDbEntity
  8
_0-2_
  6
Continuous
 62
     7
100
AcDbLine
 10
12370.80208976571
 20
9740.189839605967
 30
0.0
 11
11870.80167736601
 21
9740.189839605967
 31
0.0
  0
LINE
  5
72
330
22
100
AcDbEntity
  8
_0-2_
  6
Continuous
 62
     7
100
AcDbLine
 10
13283.08426024185
 20
9940.187406447712
 30
0.0
 11
13283.08426024185
 21
9740.189839605967
 31
0.0
  0
LINE
  5
73
330
22
100
AcDbEntity
  8
_0-2_
  6
Continuous
 62
     7
100
AcDbLine
 10
12351.94346368358
 20
9815.190087045792
 30
0.0
 11
12351.94346368358
 21
9865.189633406117
 31
0.0
  0
LINE
  5
74
330
22
100
AcDbEntity
  8
_0-2_
  6
Continuous
 62
     7
100
AcDbLine
 10
12351.94346368358
 20
9865.189633406117
 30
0.0
 11
12801.94247392429
 21
9865.189633406117
 31
0.0
  0
LINE
  5
75
330
22
100
AcDbEntity
  8
_0-2_
  6
Continuous
 62
     7
100
AcDbLine
 10
12801.94247392429
 20
9865.189633406117
 30
0.0
 11
12801.94247392429
 21
9815.190087045792
 31
0.0
  0
LINE
  5
76
330
22
100
AcDbEntity
  8
_0-2_
  6
Continuous
 62
     7
100
AcDbLine
 10
12801.94247392429
 20
9815.190087045792
 30
0.0
 11
12351.94346368358
 21
9815.190087045792
 31
0.0
  0
LINE
  5
77
330
22
100
AcDbEntity
  8
_0-2_
  6
Continuous
 62
     7
100
AcDbLine
 10
12370.80208976571
 20
9740.189839605967
 30
0.0
 11
12353.44294900874
 21
7240.190252005674
 31
0.0
  0
LINE
  5
78
330
22
100
AcDbEntity
  8
_0-2_
  6
Continuous
 62
     7
100
AcDbLine
 10
12370.80208976571
 20
9815.190087045792
 30
0.0
 11
12370.80208976571
 21
9740.189839605967
 31
0.0
  0
LINE
  5
79
330
22
100
AcDbEntity
  8
_0-2_
  6
Continuous
 62
     7
100
AcDbLine
 10
12783.25086972243
 20
9815.190087045792
 30
0.0
 11
12800.44298859912
 21
7240.190252005674
 31
0.0
  0
LINE
  5
7A
330
22
100
AcDbEntity
  8
_0-2_
  6
Continuous
 62
     7
100
AcDbLine
 10
13283.08426024185
 20
9740.189839605967
 30
0.0
 11
12783.75069816415
 21
9740.189839605967
 31
0.0
  0
LINE
  5
7B
330
22
100
AcDbEntity
  8
_0-2_
  6
Continuous
 62
     7
100
AcDbLine
 10
12782.41699752015
 20
9940.187406447712
 30
0.0
 11
13283.08426024185
 21
9940.187406447712
 31
0.0
  0
LINE
  5
7C
330
22
100
AcDbEntity
  8
_0-2_
  6
Continuous
 62
     7
100
AcDbLine
 10
11870.80167736601
 20
9940.187406447712
 30
0.0
 11
12371.46894008771
 21
9940.187406447712
 31
0.0
  0
LINE
  5
7D
330
22
100
AcDbEntity
  8
_0-2_
  6
Continuous
 62
     7
100
AcDbLine
 10
17870.80167736601
 20
9740.188602406856
 30
0.0
 11
17870.80167736601
 21
9940.188643646823
 31
0.0
  0
LINE
  5
7E
330
22
100
AcDbEntity
  8
_0-2_
  6
Continuous
 62
     7
100
AcDbLine
 10
18370.80208976571
 20
9740.189839605967
 30
0.0
 11
17870.80167736601
 21
9740.189839605967
 31
0.0
  0
LINE
  5
7F
330
22
100
AcDbEntity
  8
_0-2_
  6
Continuous
 62
     7
100
AcDbLine
 10
19283.08426024185
 20
9940.188643646823
 30
0.0
 11
19283.08426024185
 21
9740.188602406856
 31
0.0
  0
LINE
  5
80
330
22
100
AcDbEntity
  8
_0-2_
  6
Continuous
 62
     7
100
AcDbLine
 10
18351.94346368357
 20
9815.190087045792
 30
0.0
 11
18351.94346368357
 21
9865.189633406117
 31
0.0
  0
LINE
  5
81
330
22
100
AcDbEntity
  8
_0-2_
  6
Continuous
 62
     7
100
AcDbLine
 10
18351.94346368357
 20
9865.189633406117
 30
0.0
 11
18801.94247392429
 21
9865.189633406117
 31
0.0
  0
LINE
  5
82
330
22
100
AcDbEntity
  8
_0-2_
  6
Continuous
 62
     7
100
AcDbLine
 10
18801.94247392429
 20
9865.189633406117
 30
0.0
 11
18801.94247392429
 21
9815.190087045792
 31
0.0
  0
LINE
  5
83
330
22
100
AcDbEntity
  8
_0-2_
  6
Continuous
 62
     7
100
AcDbLine
 10
18801.94247392429
 20
9815.190087045792
 30
0.0
 11
18351.94346368357
 21
9815.190087045792
 31
0.0
  0
LINE
  5
84
330
22
100
AcDbEntity
  8
_0-2_
  6
Continuous
 62
     7
100
AcDbLine
 10
19283.08426024185
 20
9740.189839605967
 30
0.0
 11
18783.75069816415
 21
9740.189839605967
 31
0.0
  0
LINE
  5
85
330
22
100
AcDbEntity
  8
_0-2_
  6
Continuous
 62
     7
100
AcDbLine
 10
18782.41699752015
 20
9940.187406447712
 30
0.0
 11
19283.08426024185
 21
9940.187406447712
 31
0.0
  0
LINE
  5
86
330
22
100
AcDbEntity
  8
_0-2_
  6
Continuous
 62
     7
100
AcDbLine
 10
17870.80167736601
 20
9940.187406447712
 30
0.0
 11
18371.46894008772
 21
9940.187406447712
 31
0.0
  0
LINE
  5
87
330
22
100
AcDbEntity
  8
_0-2_
  6
Continuous
 62
     7
100
AcDbLine
 10
18370.80208976571
 20
9815.190087045792
 30
0.0
 11
18370.80208976571
 21
9740.189839605967
 31
0.0
  0
LINE
  5
88
330
22
100
AcDbEntity
  8
_0-2_
  6
Continuous
 62
     7
100
AcDbLine
 10
18370.63506788544
 20
9815.190087045792
 30
0.0
 11
18353.44294900874
 21
7240.190252005674
 31
0.0
  0
LINE
  5
89
330
22
100
AcDbEntity
  8
_0-2_
  6
Continuous
 62
     7
100
AcDbLine
 10
18783.25086972243
 20
9815.190087045792
 30
0.0
 11
18800.44298859912
 21
7240.190252005674
 31
0.0
  0
LINE
  5
8A
330
22
100
AcDbEntity
  8
_0-2_
  6
Continuous
 62
     7
100
AcDbLine
 10
12414.94287972559
 20
24085.12693215506
 30
0.0
 11
12414.94287972559
 21
24185.12726207482
 31
0.0
  0
LINE
  5
8B
330
22
100
AcDbEntity
  8
_0-2_
  6
Continuous
 62
     7
100
AcDbLine
 10
12414.94287972559
 20
24185.12726207482
 30
0.0
 11
12738.94305788227
 21
24185.12726207482
 31
0.0
  0
LINE
  5
8C
330
22
100
AcDbEntity
  8
_0-2_
  6
Continuous
 62
     7
100
AcDbLine
 10
12738.94305788227
 20
24085.12693215506
 30
0.0
 11
12738.94305788227
 21
24185.12726207482
 31
0.0
  0
LINE
  5
8D
330
22
100
AcDbEntity
  8
_0-2_
  6
Continuous
 62
     7
100
AcDbLine
 10
12551.94288632399
 20
24085.12693215506
 30
0.0
 11
12414.94287972559
 21
24085.12693215506
 31
0.0
  0
LINE
  5
8E
330
22
100
AcDbEntity
  8
_0-2_
  6
Continuous
 62
     7
100
AcDbLine
 10
12738.94305788227
 20
24085.12693215506
 30
0.0
 11
12601.94305128387
 21
24085.12693215506
 31
0.0
  0
LINE
  5
8F
330
22
100
AcDbEntity
  8
_0-2_
  6
Continuous
 62
     7
100
AcDbLine
 10
12988.94264548256
 20
24215.12686617111
 30
0.0
 11
12988.94264548256
 21
24105.12996741688
 31
0.0
  0
LINE
  5
90
330
22
100
AcDbEntity
  8
_0-2_
  6
Continuous
 62
     7
100
AcDbLine
 10
12988.94264548256
 20
24205.13029733665
 30
0.0
 11
18164.94329212529
 21
24205.13029733665
 31
0.0
  0
LINE
  5
91
330
22
100
AcDbEntity
  8
_0-2_
  6
Continuous
 62
     7
100
AcDbLine
 10
12988.94264548256
 20
24115.12653625135
 30
0.0
 11
18164.94329212529
 21
24115.12653625135
 31
0.0
  0
LINE
  5
92
330
22
100
AcDbEntity
  8
_0-2_
  6
Continuous
 62
     7
100
AcDbLine
 10
18686.94234195638
 20
24240.19252020404
 30
0.0
 11
18466.94359565148
 21
24240.19252020404
 31
0.0
  0
LINE
  5
93
330
22
100
AcDbEntity
  8
_0-2_
  6
Continuous
 62
     7
100
AcDbLine
 10
18601.94305128388
 20
24025.12772396249
 30
0.0
 11
18601.94305128388
 21
24125.12805388225
 31
0.0
  0
LINE
  5
94
330
22
100
AcDbEntity
  8
_0-2_
  6
Continuous
 62
     7
100
AcDbLine
 10
18601.94305128388
 20
24125.12805388225
 30
0.0
 11
18551.94288632399
 21
24125.12805388225
 31
0.0
  0
LINE
  5
95
330
22
100
AcDbEntity
  8
_0-2_
  6
Continuous
 62
     7
100
AcDbLine
 10
18551.94288632399
 20
24125.12805388225
 30
0.0
 11
18551.94288632399
 21
24025.12772396249
 31
0.0
  0
LINE
  5
96
330
22
100
AcDbEntity
  8
_0-2_
  6
Continuous
 62
     7
100
AcDbLine
 10
18364.94271476571
 20
24105.12996741688
 30
0.0
 11
18364.94271476571
 21
24215.12686617111
 31
0.0
  0
LINE
  5
97
330
22
100
AcDbEntity
  8
_0-2_
  6
Continuous
 62
     7
100
AcDbLine
 10
18364.94271476571
 20
24215.12686617111
 30
0.0
 11
18164.94329212529
 21
24215.12686617111
 31
0.0
  0
LINE
  5
98
330
22
100
AcDbEntity
  8
_0-2_
  6
Continuous
 62
     7
100
AcDbLine
 10
18738.94305788227
 20
24085.12693215506
 30
0.0
 11
18738.94305788227
 21
24185.12726207482
 31
0.0
  0
LINE
  5
99
330
22
100
AcDbEntity
  8
_0-2_
  6
Continuous
 62
     7
100
AcDbLine
 10
18738.94305788227
 20
24185.12726207482
 30
0.0
 11
18414.9428797256
 21
24185.12726207482
 31
0.0
  0
LINE
  5
9A
330
22
100
AcDbEntity
  8
_0-2_
  6
Continuous
 62
     7
100
AcDbLine
 10
18414.9428797256
 20
24085.12693215506
 30
0.0
 11
18414.9428797256
 21
24185.12726207482
 31
0.0
  0
LINE
  5
9B
330
22
100
AcDbEntity
  8
_0-2_
  6
Continuous
 62
     7
100
AcDbLine
 10
18601.94305128388
 20
24085.12693215506
 30
0.0
 11
18738.94305788227
 21
24085.12693215506
 31
0.0
  0
LINE
  5
9C
330
22
100
AcDbEntity
  8
_0-2_
  6
Continuous
 62
     7
100
AcDbLine
 10
18164.94329212529
 20
24215.12686617111
 30
0.0
 11
18164.94329212529
 21
24105.12996741688
 31
0.0
  0
LINE
  5
9D
330
22
100
AcDbEntity
  8
_0-2_
  6
Continuous
 62
     7
100
AcDbLine
 10
12414.94287972559
 20
24135.12462271671
 30
0.0
 11
12738.94305788227
 21
24135.12462271671
 31
0.0
  0
LINE
  5
9E
330
22
100
AcDbEntity
  8
_0-3_
  6
Continuous
 62
     6
100
AcDbLine
 10
12527.01703579084
 20
10641.27473950831
 30
0.0
 11
12527.01703579084
 21
10845.02287546164
 31
0.0
  0
LINE
  5
9F
330
22
100
AcDbEntity
  8
_0-3_
  6
Continuous
 62
     6
100
AcDbLine
 10
12627.0173657106
 20
10635.7902358396
 30
0.0
 11
12627.0173657106
 21
10840.30048644665
 31
0.0
  0
LINE
  5
A0
330
22
100
AcDbEntity
  8
_0-2_
  6
Continuous
 62
     7
100
AcDbLine
 10
24800.44051420089
 20
7240.190252005674
 30
0.0
 11
24353.44047461052
 21
7240.190252005674
 31
0.0
  0
LINE
  5
A1
330
22
100
AcDbEntity
  8
_0-2_
  6
Continuous
 62
     7
100
AcDbLine
 10
24686.93986755816
 20
24240.19252020404
 30
0.0
 11
24466.94112125326
 21
24240.19252020404
 31
0.0
  0
LINE
  5
A2
330
22
100
AcDbEntity
  8
_0-2_
  6
Continuous
 62
     7
100
AcDbLine
 10
25283.08178584363
 20
9740.188602406856
 30
0.0
 11
25283.08178584363
 21
9940.188643646823
 31
0.0
  0
LINE
  5
A3
330
22
100
AcDbEntity
  8
_0-2_
  6
Continuous
 62
     7
100
AcDbLine
 10
24783.08013624481
 20
9740.188602406856
 30
0.0
 11
25283.08178584363
 21
9740.188602406856
 31
0.0
  0
LINE
  5
A4
330
22
100
AcDbEntity
  8
_0-2_
  6
Continuous
 62
     7
100
AcDbLine
 10
23870.79920296779
 20
9940.188643646823
 30
0.0
 11
23870.79920296779
 21
9740.188602406856
 31
0.0
  0
LINE
  5
A5
330
22
100
AcDbEntity
  8
_0-2_
  6
Continuous
 62
     7
100
AcDbLine
 10
24801.93999952606
 20
9815.190087045792
 30
0.0
 11
24801.93999952606
 21
9865.189633406117
 31
0.0
  0
LINE
  5
A6
330
22
100
AcDbEntity
  8
_0-2_
  6
Continuous
 62
     7
100
AcDbLine
 10
24801.93999952606
 20
9865.189633406117
 30
0.0
 11
24351.94098928536
 21
9865.189633406117
 31
0.0
  0
LINE
  5
A7
330
22
100
AcDbEntity
  8
_0-2_
  6
Continuous
 62
     7
100
AcDbLine
 10
24351.94098928536
 20
9865.189633406117
 30
0.0
 11
24351.94098928536
 21
9815.190087045792
 31
0.0
  0
LINE
  5
A8
330
22
100
AcDbEntity
  8
_0-2_
  6
Continuous
 62
     7
100
AcDbLine
 10
24351.94098928536
 20
9815.190087045792
 30
0.0
 11
24801.93999952606
 21
9815.190087045792
 31
0.0
  0
LINE
  5
A9
330
22
100
AcDbEntity
  8
_0-2_
  6
Continuous
 62
     7
100
AcDbLine
 10
24783.08013624481
 20
9740.188602406856
 30
0.0
 11
24800.44051420089
 21
7240.190252005674
 31
0.0
  0
LINE
  5
AA
330
22
100
AcDbEntity
  8
_0-2_
  6
Continuous
 62
     7
100
AcDbLine
 10
24783.08013624481
 20
9815.190087045792
 30
0.0
 11
24783.08013624481
 21
9740.188602406856
 31
0.0
  0
LINE
  5
AB
330
22
100
AcDbEntity
  8
_0-2_
  6
Continuous
 62
     7
100
AcDbLine
 10
24370.63259348721
 20
9815.190087045792
 30
0.0
 11
24353.44047461052
 21
7240.190252005674
 31
0.0
  0
LINE
  5
AC
330
22
100
AcDbEntity
  8
_0-2_
  6
Continuous
 62
     7
100
AcDbLine
 10
23870.79920296779
 20
9740.188602406856
 30
0.0
 11
24370.8008525666
 21
9740.188602406856
 31
0.0
  0
LINE
  5
AD
330
22
100
AcDbEntity
  8
_0-2_
  6
Continuous
 62
     7
100
AcDbLine
 10
24371.46894008772
 20
9940.188643646823
 30
0.0
 11
23870.79920296779
 21
9940.188643646823
 31
0.0
  0
LINE
  5
AE
330
22
100
AcDbEntity
  8
_0-2_
  6
Continuous
 62
     7
100
AcDbLine
 10
25283.08178584363
 20
9940.188643646823
 30
0.0
 11
24782.41699752015
 21
9940.188643646823
 31
0.0
  0
LINE
  5
AF
330
22
100
AcDbEntity
  8
_0-2_
  6
Continuous
 62
     7
100
AcDbLine
 10
18783.08384784215
 20
9740.188602406856
 30
0.0
 11
19283.08426024185
 21
9740.188602406856
 31
0.0
  0
LINE
  5
B0
330
22
100
AcDbEntity
  8
_0-2_
  6
Continuous
 62
     7
100
AcDbLine
 10
17870.80167736601
 20
9740.188602406856
 30
0.0
 11
18370.13523944371
 21
9740.188602406856
 31
0.0
  0
LINE
  5
B1
330
22
100
AcDbEntity
  8
_0-2_
  6
Continuous
 62
     7
100
AcDbLine
 10
18371.46894008772
 20
9940.188643646823
 30
0.0
 11
17870.80167736601
 21
9940.188643646823
 31
0.0
  0
LINE
  5
B2
330
22
100
AcDbEntity
  8
_0-2_
  6
Continuous
 62
     7
100
AcDbLine
 10
19283.08426024185
 20
9940.188643646823
 30
0.0
 11
18782.41699752015
 21
9940.188643646823
 31
0.0
  0
LINE
  5
B3
330
22
100
AcDbEntity
  8
_0-2_
  6
Continuous
 62
     7
100
AcDbLine
 10
18783.08384784215
 20
9815.190087045792
 30
0.0
 11
18783.08384784215
 21
9740.188602406856
 31
0.0
  0
LINE
  5
B4
330
22
100
AcDbEntity
  8
_0-2_
  6
Continuous
 62
     7
100
AcDbLine
 10
30800.44298859913
 20
7240.190252005674
 30
0.0
 11
30353.44294900875
 21
7240.190252005674
 31
0.0
  0
LINE
  5
B5
330
22
100
AcDbEntity
  8
_0-B_
  6
Continuous
 62
     3
100
AcDbLine
 10
30373.47072825284
 20
10240.18963340612
 30
0.0
 11
24780.4127349568
 21
10240.18963340612
 31
0.0
  0
LINE
  5
B6
330
22
100
AcDbEntity
  8
_0-2_
  6
Continuous
 62
     7
100
AcDbLine
 10
31283.08426024186
 20
9740.188602406856
 30
0.0
 11
31283.08426024186
 21
9940.188643646823
 31
0.0
  0
LINE
  5
B7
330
22
100
AcDbEntity
  8
_0-2_
  6
Continuous
 62
     7
100
AcDbLine
 10
30783.08261064304
 20
9740.188602406856
 30
0.0
 11
31283.08426024186
 21
9740.188602406856
 31
0.0
  0
LINE
  5
B8
330
22
100
AcDbEntity
  8
_0-2_
  6
Continuous
 62
     7
100
AcDbLine
 10
29870.80167736601
 20
9940.188643646823
 30
0.0
 11
29870.80167736601
 21
9740.188602406856
 31
0.0
  0
LINE
  5
B9
330
22
100
AcDbEntity
  8
_0-2_
  6
Continuous
 62
     7
100
AcDbLine
 10
30801.94247392429
 20
9815.190087045792
 30
0.0
 11
30801.94247392429
 21
9865.189633406117
 31
0.0
  0
LINE
  5
BA
330
22
100
AcDbEntity
  8
_0-2_
  6
Continuous
 62
     7
100
AcDbLine
 10
30801.94247392429
 20
9865.189633406117
 30
0.0
 11
30351.94346368358
 21
9865.189633406117
 31
0.0
  0
LINE
  5
BB
330
22
100
AcDbEntity
  8
_0-2_
  6
Continuous
 62
     7
100
AcDbLine
 10
30351.94346368358
 20
9865.189633406117
 30
0.0
 11
30351.94346368358
 21
9815.190087045792
 31
0.0
  0
LINE
  5
BC
330
22
100
AcDbEntity
  8
_0-2_
  6
Continuous
 62
     7
100
AcDbLine
 10
30351.94346368358
 20
9815.190087045792
 30
0.0
 11
30801.94247392429
 21
9815.190087045792
 31
0.0
  0
LINE
  5
BD
330
22
100
AcDbEntity
  8
_0-2_
  6
Continuous
 62
     7
100
AcDbLine
 10
29870.80167736601
 20
9740.188602406856
 30
0.0
 11
30370.80332696483
 21
9740.188602406856
 31
0.0
  0
LINE
  5
BE
330
22
100
AcDbEntity
  8
_0-2_
  6
Continuous
 62
     7
100
AcDbLine
 10
30371.46646568948
 20
9940.188643646823
 30
0.0
 11
29870.80167736601
 21
9940.188643646823
 31
0.0
  0
LINE
  5
BF
330
22
100
AcDbEntity
  8
_0-2_
  6
Continuous
 62
     7
100
AcDbLine
 10
31283.08426024186
 20
9940.188643646823
 30
0.0
 11
30782.41452312192
 21
9940.188643646823
 31
0.0
  0
LINE
  5
C0
330
22
100
AcDbEntity
  8
_0-2_
  6
Continuous
 62
     7
100
AcDbLine
 10
30783.08261064304
 20
9815.190087045792
 30
0.0
 11
30783.08261064304
 21
9740.188602406856
 31
0.0
  0
LINE
  5
C1
330
22
100
AcDbEntity
  8
_0-2_
  6
Continuous
 62
     7
100
AcDbLine
 10
30783.25086972243
 20
9815.190087045792
 30
0.0
 11
30800.44298859913
 21
7240.190252005674
 31
0.0
  0
LINE
  5
C2
330
22
100
AcDbEntity
  8
_0-2_
  6
Continuous
 62
     7
100
AcDbLine
 10
30370.63506788544
 20
9815.190087045792
 30
0.0
 11
30353.44294900875
 21
7240.190252005674
 31
0.0
  0
LINE
  5
C3
330
22
100
AcDbEntity
  8
_0-2_
  6
Continuous
 62
     7
100
AcDbLine
 10
30466.94359565149
 20
24240.19252020404
 30
0.0
 11
30686.94234195638
 21
24240.19252020404
 31
0.0
  0
LINE
  5
C4
330
22
100
AcDbEntity
  8
_0-2_
  6
Continuous
 62
     7
100
AcDbLine
 10
24370.8008525666
 20
9740.188602406856
 30
0.0
 11
24353.44047461052
 21
7240.190252005674
 31
0.0
  0
LINE
  5
C5
330
22
100
AcDbEntity
  8
_0-2_
  6
Continuous
 62
     7
100
AcDbLine
 10
24370.8008525666
 20
9815.190087045792
 30
0.0
 11
24370.8008525666
 21
9740.188602406856
 31
0.0
  0
LINE
  5
C6
330
22
100
AcDbEntity
  8
_0-2_
  6
Continuous
 62
     7
100
AcDbLine
 10
24783.2483953242
 20
9815.190087045792
 30
0.0
 11
24800.44051420089
 21
7240.190252005674
 31
0.0
  0
LINE
  5
C7
330
22
100
AcDbEntity
  8
_0-2_
  6
Continuous
 62
     7
100
AcDbLine
 10
30370.80332696483
 20
9815.190087045792
 30
0.0
 11
30370.80332696483
 21
9740.188602406856
 31
0.0
  0
LINE
  5
C8
330
22
100
AcDbEntity
  8
_0-2_
  6
Continuous
 62
     7
100
AcDbLine
 10
18738.94305788227
 20
24135.12462271671
 30
0.0
 11
18414.9428797256
 21
24135.12462271671
 31
0.0
  0
LINE
  5
C9
330
22
100
AcDbEntity
  8
_0-2_
  6
Continuous
 62
     7
100
AcDbLine
 10
12738.94305788227
 20
24185.12726207482
 30
0.0
 11
12788.94322284215
 21
24205.13029733665
 31
0.0
  0
LINE
  5
CA
330
22
100
AcDbEntity
  8
_0-2_
  6
Continuous
 62
     7
100
AcDbLine
 10
12738.94305788227
 20
24135.12462271671
 30
0.0
 11
12788.94322284215
 21
24115.12653625135
 31
0.0
  0
LINE
  5
CB
330
22
100
AcDbEntity
  8
_0-2_
  6
Continuous
 62
     7
100
AcDbLine
 10
18414.9428797256
 20
24185.12726207482
 30
0.0
 11
18364.94271476571
 21
24205.13029733665
 31
0.0
  0
LINE
  5
CC
330
22
100
AcDbEntity
  8
_0-2_
  6
Continuous
 62
     7
100
AcDbLine
 10
18414.9428797256
 20
24135.12462271671
 30
0.0
 11
18364.94271476571
 21
24115.12653625135
 31
0.0
  0
LINE
  5
CD
330
22
100
AcDbEntity
  8
_0-B_
  6
Continuous
 62
     3
100
AcDbLine
 10
33576.9404944057
 20
10240.18963340612
 30
0.0
 11
30780.41520935503
 21
10240.18963340612
 31
0.0
  0
LINE
  5
CE
330
22
100
AcDbEntity
  8
_0-0_
  6
Continuous
 62
     7
100
AcDbLine
 10
12539.4459380818
 20
19664.99060930878
 30
0.0
 11
12614.44494832251
 21
19664.99060930878
 31
0.0
  0
LINE
  5
CF
330
22
100
AcDbEntity
  8
_0-0_
  6
Continuous
 62
     7
100
AcDbLine
 10
12539.4459380818
 20
19664.99060930878
 30
0.0
 11
12539.4459380818
 21
19514.98887723001
 31
0.0
  0
LINE
  5
D0
330
22
100
AcDbEntity
  8
_0-0_
  6
Continuous
 62
     7
100
AcDbLine
 10
12539.4459380818
 20
19514.98887723001
 30
0.0
 11
12614.44494832251
 21
19514.98887723001
 31
0.0
  0
LINE
  5
D1
330
22
100
AcDbEntity
  8
_0-0_
  6
Continuous
 62
     7
100
AcDbLine
 10
12614.44494832251
 20
19664.99060930878
 30
0.0
 11
12614.44494832251
 21
19514.98887723001
 31
0.0
  0
LINE
  5
D2
330
22
100
AcDbEntity
  8
_0-0_
  6
Continuous
 62
     7
100
AcDbLine
 10
12386.44894695005
 20
19589.99036186895
 30
0.0
 11
12539.4459380818
 21
19589.99036186895
 31
0.0
  0
LINE
  5
D3
330
22
100
AcDbEntity
  8
_0-0_
  6
Continuous
 62
     7
100
AcDbLine
 10
12386.44894695005
 20
19689.9894545896
 30
0.0
 11
12767.44688825072
 21
19689.9894545896
 31
0.0
  0
LINE
  5
D4
330
22
100
AcDbEntity
  8
_0-0_
  6
Continuous
 62
     7
100
AcDbLine
 10
12767.44688825072
 20
19589.99036186895
 30
0.0
 11
12614.44494832251
 21
19589.99036186895
 31
0.0
  0
LINE
  5
D5
330
22
100
AcDbEntity
  8
_0-0_
  6
Continuous
 62
     7
100
AcDbLine
 10
12386.44894695005
 20
19689.9894545896
 30
0.0
 11
12386.44894695005
 21
19589.99036186895
 31
0.0
  0
LINE
  5
D6
330
22
100
AcDbEntity
  8
_0-0_
  6
Continuous
 62
     7
100
AcDbLine
 10
12767.44688825072
 20
19689.9894545896
 30
0.0
 11
12767.44688825072
 21
19589.99036186895
 31
0.0
  0
LINE
  5
D7
330
22
100
AcDbEntity
  8
_0-0_
  6
Continuous
 62
     7
100
AcDbLine
 10
18539.6240947541
 20
10465.28440285818
 30
0.0
 11
18614.61815619836
 21
10465.28440285818
 31
0.0
  0
LINE
  5
D8
330
22
100
AcDbEntity
  8
_0-0_
  6
Continuous
 62
     7
100
AcDbLine
 10
18539.6240947541
 20
10465.28440285818
 30
0.0
 11
18539.6240947541
 21
10315.28390797854
 31
0.0
  0
LINE
  5
D9
330
22
100
AcDbEntity
  8
_0-0_
  6
Continuous
 62
     7
100
AcDbLine
 10
18539.6240947541
 20
10315.28390797854
 30
0.0
 11
18614.61815619836
 21
10315.28390797854
 31
0.0
  0
LINE
  5
DA
330
22
100
AcDbEntity
  8
_0-0_
  6
Continuous
 62
     7
100
AcDbLine
 10
18614.61815619836
 20
10465.28440285818
 30
0.0
 11
18614.61815619836
 21
10315.28390797854
 31
0.0
  0
LINE
  5
DB
330
22
100
AcDbEntity
  8
_0-0_
  6
Continuous
 62
     7
100
AcDbLine
 10
18327.84035056069
 20
10390.28291821924
 30
0.0
 11
18539.6240947541
 21
10390.28291821924
 31
0.0
  0
LINE
  5
DC
330
22
100
AcDbEntity
  8
_0-0_
  6
Continuous
 62
     7
100
AcDbLine
 10
18825.66452972032
 20
10390.28291821924
 30
0.0
 11
18614.61815619836
 21
10390.28291821924
 31
0.0
  0
LINE
  5
DD
330
22
100
AcDbEntity
  8
_0-0_
  6
Continuous
 62
     7
100
AcDbLine
 10
18327.84035056069
 20
10490.28324813901
 30
0.0
 11
18327.84035056069
 21
10390.28291821924
 31
0.0
  0
LINE
  5
DE
330
22
100
AcDbEntity
  8
_0-0_
  6
Continuous
 62
     7
100
AcDbLine
 10
18327.84035056069
 20
10490.28324813901
 30
0.0
 11
18825.66452972032
 21
10490.28324813901
 31
0.0
  0
LINE
  5
DF
330
22
100
AcDbEntity
  8
_0-0_
  6
Continuous
 62
     7
100
AcDbLine
 10
18825.66452972032
 20
10490.28324813901
 30
0.0
 11
18825.66452972032
 21
10390.28291821924
 31
0.0
  0
LINE
  5
E0
330
22
100
AcDbEntity
  8
_0-0_
  6
Continuous
 62
     7
100
AcDbLine
 10
30539.43851488713
 20
19664.40912572558
 30
0.0
 11
30614.43752512785
 21
19664.40912572558
 31
0.0
  0
LINE
  5
E1
330
22
100
AcDbEntity
  8
_0-0_
  6
Continuous
 62
     7
100
AcDbLine
 10
30539.43851488713
 20
19664.40912572558
 30
0.0
 11
30539.43851488713
 21
19514.40739364682
 31
0.0
  0
LINE
  5
E2
330
22
100
AcDbEntity
  8
_0-0_
  6
Continuous
 62
     7
100
AcDbLine
 10
30539.43851488713
 20
19514.40739364682
 30
0.0
 11
30614.43752512785
 21
19514.40739364682
 31
0.0
  0
LINE
  5
E3
330
22
100
AcDbEntity
  8
_0-0_
  6
Continuous
 62
     7
100
AcDbLine
 10
30614.43752512785
 20
19664.40912572558
 30
0.0
 11
30614.43752512785
 21
19514.40739364682
 31
0.0
  0
LINE
  5
E4
330
22
100
AcDbEntity
  8
_0-0_
  6
Continuous
 62
     7
100
AcDbLine
 10
30386.44152375537
 20
19589.40640388753
 30
0.0
 11
30539.43851488713
 21
19589.40640388753
 31
0.0
  0
LINE
  5
E5
330
22
100
AcDbEntity
  8
_0-0_
  6
Continuous
 62
     7
100
AcDbLine
 10
30386.44152375537
 20
19689.40920820552
 30
0.0
 11
30767.43946505605
 21
19689.40920820552
 31
0.0
  0
LINE
  5
E6
330
22
100
AcDbEntity
  8
_0-0_
  6
Continuous
 62
     7
100
AcDbLine
 10
30767.43946505605
 20
19589.40640388753
 30
0.0
 11
30614.43752512785
 21
19589.40640388753
 31
0.0
  0
LINE
  5
E7
330
22
100
AcDbEntity
  8
_0-0_
  6
Continuous
 62
     7
100
AcDbLine
 10
30386.44152375537
 20
19689.40920820552
 30
0.0
 11
30386.44152375537
 21
19589.40640388753
 31
0.0
  0
LINE
  5
E8
330
22
100
AcDbEntity
  8
_0-0_
  6
Continuous
 62
     7
100
AcDbLine
 10
30767.43946505605
 20
19689.40920820552
 30
0.0
 11
30767.43946505605
 21
19589.40640388753
 31
0.0
  0
LINE
  5
E9
330
22
100
AcDbEntity
  8
_0-0_
  6
Continuous
 62
     7
100
AcDbLine
 10
18539.44098928535
 20
19664.99060930878
 30
0.0
 11
18614.43999952606
 21
19664.99060930878
 31
0.0
  0
LINE
  5
EA
330
22
100
AcDbEntity
  8
_0-0_
  6
Continuous
 62
     7
100
AcDbLine
 10
18539.44098928535
 20
19664.99060930878
 30
0.0
 11
18539.44098928535
 21
19514.98887723001
 31
0.0
  0
LINE
  5
EB
330
22
100
AcDbEntity
  8
_0-0_
  6
Continuous
 62
     7
100
AcDbLine
 10
18539.44098928535
 20
19514.98887723001
 30
0.0
 11
18614.43999952606
 21
19514.98887723001
 31
0.0
  0
LINE
  5
EC
330
22
100
AcDbEntity
  8
_0-0_
  6
Continuous
 62
     7
100
AcDbLine
 10
18614.43999952606
 20
19664.99060930878
 30
0.0
 11
18614.43999952606
 21
19514.98887723001
 31
0.0
  0
LINE
  5
ED
330
22
100
AcDbEntity
  8
_0-0_
  6
Continuous
 62
     7
100
AcDbLine
 10
18386.4439981536
 20
19589.98788747073
 30
0.0
 11
18539.44098928535
 21
19589.98788747073
 31
0.0
  0
LINE
  5
EE
330
22
100
AcDbEntity
  8
_0-0_
  6
Continuous
 62
     7
100
AcDbLine
 10
18386.4439981536
 20
19689.99069178872
 30
0.0
 11
18767.44193945427
 21
19689.99069178872
 31
0.0
  0
LINE
  5
EF
330
22
100
AcDbEntity
  8
_0-0_
  6
Continuous
 62
     7
100
AcDbLine
 10
18767.44193945427
 20
19589.98788747073
 30
0.0
 11
18614.43999952606
 21
19589.98788747073
 31
0.0
  0
LINE
  5
F0
330
22
100
AcDbEntity
  8
_0-0_
  6
Continuous
 62
     7
100
AcDbLine
 10
18386.4439981536
 20
19689.99069178872
 30
0.0
 11
18386.4439981536
 21
19589.98788747073
 31
0.0
  0
LINE
  5
F1
330
22
100
AcDbEntity
  8
_0-0_
  6
Continuous
 62
     7
100
AcDbLine
 10
18767.44193945427
 20
19689.99069178872
 30
0.0
 11
18767.44193945427
 21
19589.98788747073
 31
0.0
  0
LINE
  5
F2
330
22
100
AcDbEntity
  8
_0-0_
  6
Continuous
 62
     7
100
AcDbLine
 10
30539.44346368357
 20
15164.25942463289
 30
0.0
 11
30614.44247392429
 21
15164.25942463289
 31
0.0
  0
LINE
  5
F3
330
22
100
AcDbEntity
  8
_0-0_
  6
Continuous
 62
     7
100
AcDbLine
 10
30539.44346368357
 20
15164.25942463289
 30
0.0
 11
30539.44346368357
 21
15014.25892975324
 31
0.0
  0
LINE
  5
F4
330
22
100
AcDbEntity
  8
_0-0_
  6
Continuous
 62
     7
100
AcDbLine
 10
30539.44346368357
 20
15014.25892975324
 30
0.0
 11
30614.44247392429
 21
15014.25892975324
 31
0.0
  0
LINE
  5
F5
330
22
100
AcDbEntity
  8
_0-0_
  6
Continuous
 62
     7
100
AcDbLine
 10
30614.44247392429
 20
15164.25942463289
 30
0.0
 11
30614.44247392429
 21
15014.25892975324
 31
0.0
  0
LINE
  5
F6
330
22
100
AcDbEntity
  8
_0-0_
  6
Continuous
 62
     7
100
AcDbLine
 10
30359.04993538966
 20
15189.25950711283
 30
0.0
 11
30794.83105342176
 21
15189.25950711283
 31
0.0
  0
LINE
  5
F7
330
22
100
AcDbEntity
  8
_0-0_
  6
Continuous
 62
     7
100
AcDbLine
 10
30359.04993538966
 20
15189.25950711283
 30
0.0
 11
30359.04993538966
 21
15089.25917719306
 31
0.0
  0
LINE
  5
F8
330
22
100
AcDbEntity
  8
_0-0_
  6
Continuous
 62
     7
100
AcDbLine
 10
30359.04993538966
 20
15089.25917719306
 30
0.0
 11
30539.44346368357
 21
15089.25917719306
 31
0.0
  0
LINE
  5
F9
330
22
100
AcDbEntity
  8
_0-0_
  6
Continuous
 62
     7
100
AcDbLine
 10
30794.83105342176
 20
15189.25950711283
 30
0.0
 11
30794.83105342176
 21
15089.25917719306
 31
0.0
  0
LINE
  5
FA
330
22
100
AcDbEntity
  8
_0-0_
  6
Continuous
 62
     7
100
AcDbLine
 10
30794.83105342176
 20
15089.25917719306
 30
0.0
 11
30614.44247392429
 21
15089.25917719306
 31
0.0
  0
LINE
  5
FB
330
22
100
AcDbEntity
  8
_0-0_
  6
Continuous
 62
     7
100
AcDbLine
 10
30794.8261046253
 20
15189.25950711283
 30
0.0
 11
30794.8261046253
 21
15089.25917719306
 31
0.0
  0
LINE
  5
FC
330
22
100
AcDbEntity
  8
_0-0_
  6
Continuous
 62
     7
100
AcDbLine
 10
30414.94164252649
 20
24089.59569535185
 30
0.0
 11
30414.94164252649
 21
24189.59602527161
 31
0.0
  0
LINE
  5
FD
330
22
100
AcDbEntity
  8
_0-0_
  6
Continuous
 62
     7
100
AcDbLine
 10
30414.94164252649
 20
24189.59602527161
 30
0.0
 11
30738.93934628493
 21
24189.59602527161
 31
0.0
  0
LINE
  5
FE
330
22
100
AcDbEntity
  8
_0-0_
  6
Continuous
 62
     7
100
AcDbLine
 10
30738.93934628493
 20
24189.59602527161
 30
0.0
 11
30738.93934628493
 21
24089.59569535185
 31
0.0
  0
LINE
  5
FF
330
22
100
AcDbEntity
  8
_0-0_
  6
Continuous
 62
     7
100
AcDbLine
 10
24539.4360404889
 20
15164.25942463289
 30
0.0
 11
24614.43505072961
 21
15164.25942463289
 31
0.0
  0
LINE
  5
100
330
22
100
AcDbEntity
  8
_0-0_
  6
Continuous
 62
     7
100
AcDbLine
 10
24539.4360404889
 20
15164.25942463289
 30
0.0
 11
24539.4360404889
 21
15014.25892975324
 31
0.0
  0
LINE
  5
101
330
22
100
AcDbEntity
  8
_0-0_
  6
Continuous
 62
     7
100
AcDbLine
 10
24539.4360404889
 20
15014.25892975324
 30
0.0
 11
24614.43505072961
 21
15014.25892975324
 31
0.0
  0
LINE
  5
102
330
22
100
AcDbEntity
  8
_0-0_
  6
Continuous
 62
     7
100
AcDbLine
 10
24614.43505072961
 20
15164.25942463289
 30
0.0
 11
24614.43505072961
 21
15014.25892975324
 31
0.0
  0
LINE
  5
103
330
22
100
AcDbEntity
  8
ADD_LINE
  6
DOT
 62
     7
100
AcDbLine
 10
24576.93307121103
 20
15244.74046414408
 30
0.0
 11
24576.93307121103
 21
14982.25135149627
 31
0.0
  0
LINE
  5
104
330
22
100
AcDbEntity
  8
_0-0_
  6
Continuous
 62
     7
100
AcDbLine
 10
24359.04251219498
 20
15189.25950711283
 30
0.0
 11
24794.82363022707
 21
15189.25950711283
 31
0.0
  0
LINE
  5
105
330
22
100
AcDbEntity
  8
_0-0_
  6
Continuous
 62
     7
100
AcDbLine
 10
24359.04251219498
 20
15189.25950711283
 30
0.0
 11
24359.04251219498
 21
15089.25917719306
 31
0.0
  0
LINE
  5
106
330
22
100
AcDbEntity
  8
_0-0_
  6
Continuous
 62
     7
100
AcDbLine
 10
24359.04251219498
 20
15089.25917719306
 30
0.0
 11
24539.4360404889
 21
15089.25917719306
 31
0.0
  0
LINE
  5
107
330
22
100
AcDbEntity
  8
_0-0_
  6
Continuous
 62
     7
100
AcDbLine
 10
24794.82363022707
 20
15189.25950711283
 30
0.0
 11
24794.82363022707
 21
15089.25917719306
 31
0.0
  0
LINE
  5
108
330
22
100
AcDbEntity
  8
_0-0_
  6
Continuous
 62
     7
100
AcDbLine
 10
24794.82363022707
 20
15089.25917719306
 30
0.0
 11
24614.43505072961
 21
15089.25917719306
 31
0.0
  0
LINE
  5
109
330
22
100
AcDbEntity
  8
_0-0_
  6
Continuous
 62
     7
100
AcDbLine
 10
24794.81868143062
 20
15189.25950711283
 30
0.0
 11
24794.81868143062
 21
15089.25917719306
 31
0.0
  0
LINE
  5
10A
330
22
100
AcDbEntity
  8
_0-0_
  6
Continuous
 62
     7
100
AcDbLine
 10
18539.4360404889
 20
15164.25942463289
 30
0.0
 11
18614.4350507296
 21
15164.25942463289
 31
0.0
  0
LINE
  5
10B
330
22
100
AcDbEntity
  8
_0-0_
  6
Continuous
 62
     7
100
AcDbLine
 10
18539.4360404889
 20
15164.25942463289
 30
0.0
 11
18539.4360404889
 21
15014.25892975324
 31
0.0
  0
LINE
  5
10C
330
22
100
AcDbEntity
  8
_0-0_
  6
Continuous
 62
     7
100
AcDbLine
 10
18539.4360404889
 20
15014.25892975324
 30
0.0
 11
18614.4350507296
 21
15014.25892975324
 31
0.0
  0
LINE
  5
10D
330
22
100
AcDbEntity
  8
_0-0_
  6
Continuous
 62
     7
100
AcDbLine
 10
18614.4350507296
 20
15164.25942463289
 30
0.0
 11
18614.4350507296
 21
15014.25892975324
 31
0.0
  0
LINE
  5
10E
330
22
100
AcDbEntity
  8
_0-0_
  6
Continuous
 62
     7
100
AcDbLine
 10
18359.04251219498
 20
15189.25950711283
 30
0.0
 11
18794.82363022707
 21
15189.25950711283
 31
0.0
  0
LINE
  5
10F
330
22
100
AcDbEntity
  8
_0-0_
  6
Continuous
 62
     7
100
AcDbLine
 10
18359.04251219498
 20
15189.25950711283
 30
0.0
 11
18359.04251219498
 21
15089.25917719306
 31
0.0
  0
LINE
  5
110
330
22
100
AcDbEntity
  8
_0-0_
  6
Continuous
 62
     7
100
AcDbLine
 10
18359.04251219498
 20
15089.25917719306
 30
0.0
 11
18539.4360404889
 21
15089.25917719306
 31
0.0
  0
LINE
  5
111
330
22
100
AcDbEntity
  8
_0-0_
  6
Continuous
 62
     7
100
AcDbLine
 10
18794.82363022707
 20
15189.25950711283
 30
0.0
 11
18794.82363022707
 21
15089.25917719306
 31
0.0
  0
LINE
  5
112
330
22
100
AcDbEntity
  8
_0-0_
  6
Continuous
 62
     7
100
AcDbLine
 10
18794.82363022707
 20
15089.25917719306
 30
0.0
 11
18614.4350507296
 21
15089.25917719306
 31
0.0
  0
LINE
  5
113
330
22
100
AcDbEntity
  8
_0-0_
  6
Continuous
 62
     7
100
AcDbLine
 10
18794.81868143062
 20
15189.25950711283
 30
0.0
 11
18794.81868143062
 21
15089.25917719306
 31
0.0
  0
LINE
  5
114
330
22
100
AcDbEntity
  8
_0-0_
  6
Continuous
 62
     7
100
AcDbLine
 10
12539.4459380818
 20
15164.25942463289
 30
0.0
 11
12614.44494832251
 21
15164.25942463289
 31
0.0
  0
LINE
  5
115
330
22
100
AcDbEntity
  8
_0-0_
  6
Continuous
 62
     7
100
AcDbLine
 10
12539.4459380818
 20
15164.25942463289
 30
0.0
 11
12539.4459380818
 21
15014.25892975324
 31
0.0
  0
LINE
  5
116
330
22
100
AcDbEntity
  8
_0-0_
  6
Continuous
 62
     7
100
AcDbLine
 10
12539.4459380818
 20
15014.25892975324
 30
0.0
 11
12614.44494832251
 21
15014.25892975324
 31
0.0
  0
LINE
  5
117
330
22
100
AcDbEntity
  8
_0-0_
  6
Continuous
 62
     7
100
AcDbLine
 10
12614.44494832251
 20
15164.25942463289
 30
0.0
 11
12614.44494832251
 21
15014.25892975324
 31
0.0
  0
LINE
  5
118
330
22
100
AcDbEntity
  8
_0-0_
  6
Continuous
 62
     7
100
AcDbLine
 10
12359.05240978788
 20
15189.25950711283
 30
0.0
 11
12794.83352781998
 21
15189.25950711283
 31
0.0
  0
LINE
  5
119
330
22
100
AcDbEntity
  8
_0-0_
  6
Continuous
 62
     7
100
AcDbLine
 10
12359.05240978788
 20
15189.25950711283
 30
0.0
 11
12359.05240978788
 21
15089.25917719306
 31
0.0
  0
LINE
  5
11A
330
22
100
AcDbEntity
  8
_0-0_
  6
Continuous
 62
     7
100
AcDbLine
 10
12359.05240978788
 20
15089.25917719306
 30
0.0
 11
12539.4459380818
 21
15089.25917719306
 31
0.0
  0
LINE
  5
11B
330
22
100
AcDbEntity
  8
_0-0_
  6
Continuous
 62
     7
100
AcDbLine
 10
12794.83352781998
 20
15189.25950711283
 30
0.0
 11
12794.83352781998
 21
15089.25917719306
 31
0.0
  0
LINE
  5
11C
330
22
100
AcDbEntity
  8
_0-0_
  6
Continuous
 62
     7
100
AcDbLine
 10
12794.83352781998
 20
15089.25917719306
 30
0.0
 11
12614.44494832251
 21
15089.25917719306
 31
0.0
  0
LINE
  5
11D
330
22
100
AcDbEntity
  8
_0-0_
  6
Continuous
 62
     7
100
AcDbLine
 10
12794.82857902352
 20
15189.25950711283
 30
0.0
 11
12794.82857902352
 21
15089.25917719306
 31
0.0
  0
LINE
  5
11E
330
22
100
AcDbEntity
  8
_0-2_
  6
Continuous
 62
     7
100
AcDbLine
 10
18164.94329212529
 20
24105.12996741688
 30
0.0
 11
18364.94271476571
 21
24105.12996741688
 31
0.0
  0
LINE
  5
11F
330
22
100
AcDbEntity
  8
_0-2_
  6
Continuous
 62
     7
100
AcDbLine
 10
18414.9428797256
 20
24085.12693215506
 30
0.0
 11
18551.94288632399
 21
24085.12693215506
 31
0.0
  0
LINE
  5
120
330
22
100
AcDbEntity
  8
_0-2_
  6
Continuous
 62
     7
100
AcDbLine
 10
12788.94322284215
 20
24105.12996741688
 30
0.0
 11
12988.94264548256
 21
24105.12996741688
 31
0.0
  0
LINE
  5
121
330
22
100
AcDbEntity
  8
_0-2_
  6
Continuous
 62
     7
100
AcDbLine
 10
18601.94305128388
 20
24025.12772396249
 30
0.0
 11
18551.94288632399
 21
24025.12772396249
 31
0.0
  0
LINE
  5
122
330
22
100
AcDbEntity
  8
_0-0_
  6
Continuous
 62
     7
100
AcDbLine
 10
24414.94411692471
 20
24090.57308265126
 30
0.0
 11
24414.94411692471
 21
24190.57341257103
 31
0.0
  0
LINE
  5
123
330
22
100
AcDbEntity
  8
_0-0_
  6
Continuous
 62
     7
100
AcDbLine
 10
24414.94411692471
 20
24190.57341257103
 30
0.0
 11
24738.94182068316
 21
24190.57341257103
 31
0.0
  0
LINE
  5
124
330
22
100
AcDbEntity
  8
_0-0_
  6
Continuous
 62
     7
100
AcDbLine
 10
24738.94182068316
 20
24190.57341257103
 30
0.0
 11
24738.94182068316
 21
24090.57308265126
 31
0.0
  0
LINE
  5
125
330
22
100
AcDbEntity
  8
_0-B_
  6
Continuous
 62
     3
100
AcDbLine
 10
12780.41397215591
 20
10240.18963340612
 30
0.0
 11
18373.47196545195
 21
10240.18963340612
 31
0.0
  0
LINE
  5
126
330
22
100
AcDbEntity
  8
_0-0_
  6
Continuous
 62
     7
100
AcDbLine
 10
12539.13540110439
 20
10465.28440285818
 30
0.0
 11
12614.12946254865
 21
10465.28440285818
 31
0.0
  0
LINE
  5
127
330
22
100
AcDbEntity
  8
_0-0_
  6
Continuous
 62
     7
100
AcDbLine
 10
12539.13540110439
 20
10465.28440285818
 30
0.0
 11
12539.13540110439
 21
10315.28390797854
 31
0.0
  0
LINE
  5
128
330
22
100
AcDbEntity
  8
_0-0_
  6
Continuous
 62
     7
100
AcDbLine
 10
12539.13540110439
 20
10315.28390797854
 30
0.0
 11
12614.12946254865
 21
10315.28390797854
 31
0.0
  0
LINE
  5
129
330
22
100
AcDbEntity
  8
_0-0_
  6
Continuous
 62
     7
100
AcDbLine
 10
12327.34670811453
 20
10390.28291821924
 30
0.0
 11
12539.13540110439
 21
10390.28291821924
 31
0.0
  0
LINE
  5
12A
330
22
100
AcDbEntity
  8
_0-0_
  6
Continuous
 62
     7
100
AcDbLine
 10
12327.34670811453
 20
10490.28324813901
 30
0.0
 11
12327.34670811453
 21
10390.28291821924
 31
0.0
  0
LINE
  5
12B
330
22
100
AcDbEntity
  8
_0-0_
  6
Continuous
 62
     7
100
AcDbLine
 10
12327.34670811453
 20
10490.28324813901
 30
0.0
 11
12825.17583607061
 21
10490.28324813901
 31
0.0
  0
LINE
  5
12C
330
22
100
AcDbEntity
  8
_0-0_
  6
Continuous
 62
     7
100
AcDbLine
 10
12793.77572257821
 20
10390.28291821924
 30
0.0
 11
12825.17583607061
 21
10390.28291821924
 31
0.0
  0
LINE
  5
12D
330
22
100
AcDbEntity
  8
_0-0_
  6
Continuous
 62
     7
100
AcDbLine
 10
12825.17583607061
 20
10490.28324813901
 30
0.0
 11
12825.17583607061
 21
10390.28291821924
 31
0.0
  0
LINE
  5
12E
330
22
100
AcDbEntity
  8
_0-2_
  6
Continuous
 62
     7
100
AcDbLine
 10
12374.47533393273
 20
10390.28291821924
 30
0.0
 11
12370.96911164599
 21
9865.189633406117
 31
0.0
  0
LINE
  5
12F
330
22
100
AcDbEntity
  8
_0-2_
  6
Continuous
 62
     7
100
AcDbLine
 10
12779.41184087424
 20
10390.28291821924
 30
0.0
 11
12782.91682596187
 21
9865.189633406117
 31
0.0
  0
LINE
  5
130
330
22
100
AcDbEntity
  8
_0-2_
  6
Continuous
 62
     7
100
AcDbLine
 10
12401.38688904252
 20
14421.23227883474
 30
0.0
 11
12375.14218425473
 21
10490.28324813901
 31
0.0
  0
LINE
  5
131
330
22
100
AcDbEntity
  8
_0-2_
  6
Continuous
 62
     7
100
AcDbLine
 10
18374.47409673362
 20
10390.28291821924
 30
0.0
 11
18370.96787444688
 21
9865.189633406117
 31
0.0
  0
LINE
  5
132
330
22
100
AcDbEntity
  8
_0-2_
  6
Continuous
 62
     7
100
AcDbLine
 10
18374.47285953451
 20
10390.28291821924
 30
0.0
 11
18370.96787444688
 21
9865.189633406117
 31
0.0
  0
LINE
  5
133
330
22
100
AcDbEntity
  8
_0-2_
  6
Continuous
 62
     7
100
AcDbLine
 10
18375.3079689359
 20
10515.18930348635
 30
0.0
 11
18375.14218425473
 21
10490.28324813901
 31
0.0
  0
LINE
  5
134
330
22
100
AcDbEntity
  8
_0-2_
  6
Continuous
 62
     7
100
AcDbLine
 10
18779.41307807336
 20
10390.28291821924
 30
0.0
 11
18782.91806316098
 21
9865.189633406117
 31
0.0
  0
LINE
  5
135
330
22
100
AcDbEntity
  8
_0-2_
  6
Continuous
 62
     7
100
AcDbLine
 10
18779.41184087424
 20
10390.28291821924
 30
0.0
 11
18782.91806316098
 21
9865.189633406117
 31
0.0
  0
LINE
  5
136
330
22
100
AcDbEntity
  8
_0-2_
  6
Continuous
 62
     7
100
AcDbLine
 10
18778.57796867196
 20
10515.18930348635
 30
0.0
 11
18778.74375335313
 21
10490.28324813901
 31
0.0
  0
LINE
  5
137
330
22
100
AcDbEntity
  8
_0-0_
  6
Continuous
 62
     7
100
AcDbLine
 10
24539.6240947541
 20
10465.28687725641
 30
0.0
 11
24614.61815619836
 21
10465.28687725641
 31
0.0
  0
LINE
  5
138
330
22
100
AcDbEntity
  8
_0-0_
  6
Continuous
 62
     7
100
AcDbLine
 10
24539.6240947541
 20
10465.28687725641
 30
0.0
 11
24539.6240947541
 21
10315.28638237676
 31
0.0
  0
LINE
  5
139
330
22
100
AcDbEntity
  8
_0-0_
  6
Continuous
 62
     7
100
AcDbLine
 10
24539.6240947541
 20
10315.28638237676
 30
0.0
 11
24614.61815619836
 21
10315.28638237676
 31
0.0
  0
LINE
  5
13A
330
22
100
AcDbEntity
  8
_0-0_
  6
Continuous
 62
     7
100
AcDbLine
 10
24614.61815619836
 20
10465.28687725641
 30
0.0
 11
24614.61815619836
 21
10315.28638237676
 31
0.0
  0
LINE
  5
13B
330
22
100
AcDbEntity
  8
_0-0_
  6
Continuous
 62
     7
100
AcDbLine
 10
24825.66452972032
 20
10390.28539261747
 30
0.0
 11
24614.61815619836
 21
10390.28539261747
 31
0.0
  0
LINE
  5
13C
330
22
100
AcDbEntity
  8
_0-0_
  6
Continuous
 62
     7
100
AcDbLine
 10
24327.84035056069
 20
10490.28572253724
 30
0.0
 11
24327.84035056069
 21
10390.28539261747
 31
0.0
  0
LINE
  5
13D
330
22
100
AcDbEntity
  8
_0-0_
  6
Continuous
 62
     7
100
AcDbLine
 10
24539.6240947541
 20
10390.28539261747
 30
0.0
 11
24327.84035056069
 21
10390.28539261747
 31
0.0
  0
LINE
  5
13E
330
22
100
AcDbEntity
  8
_0-0_
  6
Continuous
 62
     7
100
AcDbLine
 10
24327.84035056069
 20
10490.28572253724
 30
0.0
 11
24825.66452972032
 21
10490.28572253724
 31
0.0
  0
LINE
  5
13F
330
22
100
AcDbEntity
  8
_0-0_
  6
Continuous
 62
     7
100
AcDbLine
 10
24825.66452972032
 20
10490.28572253724
 30
0.0
 11
24825.66452972032
 21
10390.28539261747
 31
0.0
  0
LINE
  5
140
330
22
100
AcDbEntity
  8
_0-2_
  6
Continuous
 62
     7
100
AcDbLine
 10
24375.30425733856
 20
10515.19054068546
 30
0.0
 11
24375.14094705562
 21
10490.28572253724
 31
0.0
  0
LINE
  5
141
330
22
100
AcDbEntity
  8
_0-2_
  6
Continuous
 62
     7
100
AcDbLine
 10
24778.57673147285
 20
10515.19054068546
 30
0.0
 11
24778.74004175579
 21
10490.28572253724
 31
0.0
  0
LINE
  5
142
330
22
100
AcDbEntity
  8
_0-2_
  6
Continuous
 62
     7
100
AcDbLine
 10
24374.4629619416
 20
10388.7289961331
 30
0.0
 11
24370.969111646
 21
9865.189633406117
 31
0.0
  0
LINE
  5
143
330
22
100
AcDbEntity
  8
_0-2_
  6
Continuous
 62
     7
100
AcDbLine
 10
24374.47285953451
 20
10390.28539261747
 30
0.0
 11
24370.969111646
 21
9865.189633406117
 31
0.0
  0
LINE
  5
144
330
22
100
AcDbEntity
  8
_0-2_
  6
Continuous
 62
     7
100
AcDbLine
 10
24779.41307807336
 20
10390.28539261747
 30
0.0
 11
24782.91682596187
 21
9865.189633406117
 31
0.0
  0
LINE
  5
145
330
22
100
AcDbEntity
  8
_0-2_
  6
Continuous
 62
     7
100
AcDbLine
 10
24779.40812927691
 20
10390.28539261747
 30
0.0
 11
24782.91682596187
 21
9865.189633406117
 31
0.0
  0
LINE
  5
146
330
22
100
AcDbEntity
  8
_0-0_
  6
Continuous
 62
     7
100
AcDbLine
 10
30539.62162035588
 20
10465.28687725641
 30
0.0
 11
30614.61568180013
 21
10465.28687725641
 31
0.0
  0
LINE
  5
147
330
22
100
AcDbEntity
  8
_0-0_
  6
Continuous
 62
     7
100
AcDbLine
 10
30539.62162035588
 20
10465.28687725641
 30
0.0
 11
30539.62162035588
 21
10315.28638237676
 31
0.0
  0
LINE
  5
148
330
22
100
AcDbEntity
  8
_0-0_
  6
Continuous
 62
     7
100
AcDbLine
 10
30539.62162035588
 20
10315.28638237676
 30
0.0
 11
30614.61568180013
 21
10315.28638237676
 31
0.0
  0
LINE
  5
149
330
22
100
AcDbEntity
  8
_0-0_
  6
Continuous
 62
     7
100
AcDbLine
 10
30614.61568180013
 20
10465.28687725641
 30
0.0
 11
30614.61568180013
 21
10315.28638237676
 31
0.0
  0
LINE
  5
14A
330
22
100
AcDbEntity
  8
_0-0_
  6
Continuous
 62
     7
100
AcDbLine
 10
30327.83787616247
 20
10490.28572253724
 30
0.0
 11
30327.83787616247
 21
10390.28539261747
 31
0.0
  0
LINE
  5
14B
330
22
100
AcDbEntity
  8
_0-0_
  6
Continuous
 62
     7
100
AcDbLine
 10
30539.62162035588
 20
10390.28539261747
 30
0.0
 11
30327.83787616247
 21
10390.28539261747
 31
0.0
  0
LINE
  5
14C
330
22
100
AcDbEntity
  8
_0-0_
  6
Continuous
 62
     7
100
AcDbLine
 10
30614.61568180013
 20
10390.28539261747
 30
0.0
 11
30825.66205532209
 21
10390.28539261747
 31
0.0
  0
LINE
  5
14D
330
22
100
AcDbEntity
  8
_0-2_
  6
Continuous
 62
     7
100
AcDbLine
 10
30375.30673173679
 20
10515.19054068546
 30
0.0
 11
30375.14342145385
 21
10490.28572253724
 31
0.0
  0
LINE
  5
14E
330
22
100
AcDbEntity
  8
_0-0_
  6
Continuous
 62
     7
100
AcDbLine
 10
30327.83787616247
 20
10490.28572253724
 30
0.0
 11
30825.66205532209
 21
10490.28572253724
 31
0.0
  0
LINE
  5
14F
330
22
100
AcDbEntity
  8
_0-3_
  6
Continuous
 62
     6
100
AcDbLine
 10
18527.01703579084
 20
10641.27597670742
 30
0.0
 11
18527.01703579084
 21
10845.02287546164
 31
0.0
  0
LINE
  5
150
330
22
100
AcDbEntity
  8
_0-3_
  6
Continuous
 62
     6
100
AcDbLine
 10
18627.01736571061
 20
10635.79271023783
 30
0.0
 11
18627.01736571061
 21
10840.30172364576
 31
0.0
  0
LINE
  5
151
330
22
100
AcDbEntity
  8
_0-3_
  6
Continuous
 62
     6
100
AcDbLine
 10
24527.01456139261
 20
10641.27473950831
 30
0.0
 11
24527.01456139261
 21
10845.02287546164
 31
0.0
  0
LINE
  5
152
330
22
100
AcDbEntity
  8
_0-3_
  6
Continuous
 62
     6
100
AcDbLine
 10
24627.01489131238
 20
10635.7902358396
 30
0.0
 11
24627.01489131238
 21
10840.30048644665
 31
0.0
  0
LINE
  5
153
330
22
100
AcDbEntity
  8
_0-2_
  6
Continuous
 62
     7
100
AcDbLine
 10
30374.49512911855
 20
10390.28539261747
 30
0.0
 11
30371.12499873426
 21
9865.189633406117
 31
0.0
  0
LINE
  5
154
330
22
100
AcDbEntity
  8
_0-2_
  6
Continuous
 62
     7
100
AcDbLine
 10
30779.38585969288
 20
10390.28539261747
 30
0.0
 11
30782.76093887361
 21
9865.189633406117
 31
0.0
  0
LINE
  5
155
330
22
100
AcDbEntity
  8
_0-0_
  6
Continuous
 62
     7
100
AcDbLine
 10
24539.44098928536
 20
19664.40912572558
 30
0.0
 11
24614.43999952606
 21
19664.40912572558
 31
0.0
  0
LINE
  5
156
330
22
100
AcDbEntity
  8
_0-0_
  6
Continuous
 62
     7
100
AcDbLine
 10
24539.44098928536
 20
19664.40912572558
 30
0.0
 11
24539.44098928536
 21
19514.40739364682
 31
0.0
  0
LINE
  5
157
330
22
100
AcDbEntity
  8
_0-0_
  6
Continuous
 62
     7
100
AcDbLine
 10
24539.44098928536
 20
19514.40739364682
 30
0.0
 11
24614.43999952606
 21
19514.40739364682
 31
0.0
  0
LINE
  5
158
330
22
100
AcDbEntity
  8
_0-0_
  6
Continuous
 62
     7
100
AcDbLine
 10
24614.43999952606
 20
19664.40912572558
 30
0.0
 11
24614.43999952606
 21
19514.40739364682
 31
0.0
  0
LINE
  5
159
330
22
100
AcDbEntity
  8
_0-0_
  6
Continuous
 62
     7
100
AcDbLine
 10
24386.44399815359
 20
19589.40640388753
 30
0.0
 11
24539.44098928536
 21
19589.40640388753
 31
0.0
  0
LINE
  5
15A
330
22
100
AcDbEntity
  8
_0-0_
  6
Continuous
 62
     7
100
AcDbLine
 10
24386.44399815359
 20
19689.40920820552
 30
0.0
 11
24767.44193945427
 21
19689.40920820552
 31
0.0
  0
LINE
  5
15B
330
22
100
AcDbEntity
  8
_0-0_
  6
Continuous
 62
     7
100
AcDbLine
 10
24767.44193945427
 20
19589.40640388753
 30
0.0
 11
24614.43999952606
 21
19589.40640388753
 31
0.0
  0
LINE
  5
15C
330
22
100
AcDbEntity
  8
_0-0_
  6
Continuous
 62
     7
100
AcDbLine
 10
24386.44399815359
 20
19689.40920820552
 30
0.0
 11
24386.44399815359
 21
19589.40640388753
 31
0.0
  0
LINE
  5
15D
330
22
100
AcDbEntity
  8
_0-0_
  6
Continuous
 62
     7
100
AcDbLine
 10
24767.44193945427
 20
19689.40920820552
 30
0.0
 11
24767.44193945427
 21
19589.40640388753
 31
0.0
  0
LINE
  5
15E
330
22
100
AcDbEntity
  8
_0-2_
  6
Continuous
 62
     7
100
AcDbLine
 10
18688.9453673206
 20
23940.19153044476
 30
0.0
 11
18715.98930273552
 21
19889.69689823931
 31
0.0
  0
LINE
  5
15F
330
22
100
AcDbEntity
  8
_0-0_
  6
CENTER1
 62
     4
100
AcDbLine
 10
12576.94296880393
 20
23975.12755900261
 30
0.0
 11
12576.94296880393
 21
25240.19087060523
 31
0.0
  0
LINE
  5
160
330
22
100
AcDbEntity
  8
_0-2_
  6
Continuous
 62
     7
100
AcDbLine
 10
12466.94359565148
 20
24240.19252020404
 30
0.0
 11
12466.57614751487
 21
24185.12726207482
 31
0.0
  0
LINE
  5
161
330
22
100
AcDbEntity
  8
_0-2_
  6
Continuous
 62
     7
100
AcDbLine
 10
12686.94234195638
 20
24240.19252020404
 30
0.0
 11
12687.30979009299
 21
24185.12726207482
 31
0.0
  0
LINE
  5
162
330
22
100
AcDbEntity
  8
_0-0_
  6
CENTER1
 62
     4
100
AcDbLine
 10
24576.94296880393
 20
25240.19087060523
 30
0.0
 11
24576.94296880393
 21
23965.56895865421
 31
0.0
  0
LINE
  5
163
330
22
100
AcDbEntity
  8
_0-2_
  6
Continuous
 62
     7
100
AcDbLine
 10
12436.56293422834
 20
19689.9894545896
 30
0.0
 11
12465.90682279464
 21
24085.12693215506
 31
0.0
  0
LINE
  5
164
330
22
100
AcDbEntity
  8
_0-2_
  6
Continuous
 62
     7
100
AcDbLine
 10
12687.97911481322
 20
24085.12693215506
 30
0.0
 11
12717.32424057863
 21
19689.9894545896
 31
0.0
  0
LINE
  5
165
330
22
100
AcDbEntity
  8
_0-2_
  6
Continuous
 62
     7
100
AcDbLine
 10
18686.94234195638
 20
24240.19252020404
 30
0.0
 11
18687.309790093
 21
24185.12726207482
 31
0.0
  0
LINE
  5
166
330
22
100
AcDbEntity
  8
_0-2_
  6
Continuous
 62
     7
100
AcDbLine
 10
18466.94359565148
 20
24240.19252020404
 30
0.0
 11
18466.57614751487
 21
24185.12726207482
 31
0.0
  0
LINE
  5
167
330
22
100
AcDbEntity
  8
_0-2_
  6
Continuous
 62
     7
100
AcDbLine
 10
18686.94234195638
 20
24240.19252020404
 30
0.0
 11
18687.31102729211
 21
24185.12726207482
 31
0.0
  0
LINE
  5
168
330
22
100
AcDbEntity
  8
_0-3_
  6
Continuous
 62
     6
100
AcDbLine
 10
30576.9404944057
 20
15164.25942463289
 30
0.0
 11
30576.9404944057
 21
24011.98372058411
 31
0.0
  0
LINE
  5
169
330
22
100
AcDbEntity
  8
_0-2_
  6
Continuous
 62
     7
100
AcDbLine
 10
18687.97787761411
 20
24085.12693215506
 30
0.0
 11
18717.3217661804
 21
19689.99069178872
 31
0.0
  0
LINE
  5
16A
330
22
100
AcDbEntity
  8
_0-2_
  6
Continuous
 62
     7
100
AcDbLine
 10
18436.56293422834
 20
19689.99069178872
 30
0.0
 11
18465.90682279464
 21
24085.12693215506
 31
0.0
  0
LINE
  5
16B
330
22
100
AcDbEntity
  8
ADD_LINE
  6
DOT
 62
     7
100
AcDbLine
 10
12553.84569856005
 20
15040.19186036452
 30
0.0
 11
12601.89603771757
 21
15040.19186036452
 31
0.0
  0
LINE
  5
16C
330
22
100
AcDbEntity
  8
_0-2_
  6
Continuous
 62
     7
100
AcDbLine
 10
12401.38688904252
 20
14421.23227883474
 30
0.0
 11
12405.84699184553
 21
15089.25917719306
 31
0.0
  0
LINE
  5
16D
330
22
100
AcDbEntity
  8
_0-2_
  6
Continuous
 62
     7
100
AcDbLine
 10
12717.99109090063
 20
19589.99036186895
 30
0.0
 11
12747.37209544033
 21
15189.25950711283
 31
0.0
  0
LINE
  5
16E
330
22
100
AcDbEntity
  8
_0-2_
  6
Continuous
 62
     7
100
AcDbLine
 10
12406.51507936664
 20
15189.25950711283
 30
0.0
 11
12435.89484670722
 21
19589.99036186895
 31
0.0
  0
LINE
  5
16F
330
22
100
AcDbEntity
  8
_0-2_
  6
Continuous
 62
     7
100
AcDbLine
 10
18717.98985370152
 20
19589.98788747073
 30
0.0
 11
18747.37209544034
 21
15189.25950711283
 31
0.0
  0
LINE
  5
170
330
22
100
AcDbEntity
  8
_0-2_
  6
Continuous
 62
     7
100
AcDbLine
 10
18746.69534752543
 20
15290.52796612359
 30
0.0
 11
18747.37085824122
 21
15189.25950711283
 31
0.0
  0
LINE
  5
171
330
22
100
AcDbEntity
  8
_0-2_
  6
Continuous
 62
     7
100
AcDbLine
 10
18406.51384216752
 20
15189.25950711283
 30
0.0
 11
18435.89484670722
 21
19589.98788747073
 31
0.0
  0
LINE
  5
172
330
22
100
AcDbEntity
  8
_0-2_
  6
Continuous
 62
     7
100
AcDbLine
 10
18407.19059008243
 20
15290.52796612359
 30
0.0
 11
18406.51507936664
 21
15189.25950711283
 31
0.0
  0
LINE
  5
173
330
22
100
AcDbEntity
  8
_0-2_
  6
Continuous
 62
     7
100
AcDbLine
 10
18405.84699184553
 20
15089.25917719306
 30
0.0
 11
18375.97605645701
 21
10615.18963340611
 31
0.0
  0
LINE
  5
174
330
22
100
AcDbEntity
  8
_0-2_
  6
Continuous
 62
     7
100
AcDbLine
 10
18748.03894576233
 20
15089.25917719306
 30
0.0
 11
18777.90988115085
 21
10615.18963340611
 31
0.0
  0
LINE
  5
175
330
22
100
AcDbEntity
  8
_0-2_
  6
Continuous
 62
     7
100
AcDbLine
 10
18405.84699184553
 20
15089.25917719306
 30
0.0
 11
18375.14094705562
 21
10490.28324813901
 31
0.0
  0
LINE
  5
176
330
22
100
AcDbEntity
  8
_0-2_
  6
Continuous
 62
     7
100
AcDbLine
 10
18748.03894576233
 20
15089.25917719306
 30
0.0
 11
18778.74499055224
 21
10490.28324813901
 31
0.0
  0
LINE
  5
177
330
22
100
AcDbEntity
  8
_0-2_
  6
Continuous
 62
     7
100
AcDbLine
 10
24748.03770856322
 20
15089.25917719306
 30
0.0
 11
24778.74499055225
 21
10490.28572253724
 31
0.0
  0
LINE
  5
178
330
22
100
AcDbEntity
  8
_0-2_
  6
Continuous
 62
     7
100
AcDbLine
 10
30375.14342145385
 20
10490.28572253724
 30
0.0
 11
30405.86060103577
 21
15089.25917719306
 31
0.0
  0
LINE
  5
179
330
22
100
AcDbEntity
  8
_0-2_
  6
Continuous
 62
     7
100
AcDbLine
 10
30748.02533657209
 20
15089.25917719306
 30
0.0
 11
30778.71777217176
 21
10490.28572253724
 31
0.0
  0
LINE
  5
17A
330
22
100
AcDbEntity
  8
_0-2_
  6
Continuous
 62
     7
100
AcDbLine
 10
24717.99356529886
 20
19589.40640388753
 30
0.0
 11
24747.36962104211
 21
15189.25950711283
 31
0.0
  0
LINE
  5
17B
330
22
100
AcDbEntity
  8
_0-2_
  6
Continuous
 62
     7
100
AcDbLine
 10
24435.892372309
 20
19589.40640388753
 30
0.0
 11
24406.51631656576
 21
15189.25950711283
 31
0.0
  0
LINE
  5
17C
330
22
100
AcDbEntity
  8
_0-2_
  6
Continuous
 62
     7
100
AcDbLine
 10
30406.52868855689
 20
15189.25950711283
 30
0.0
 11
30435.89979550368
 21
19589.40640388753
 31
0.0
  0
LINE
  5
17D
330
22
100
AcDbEntity
  8
_0-2_
  6
Continuous
 62
     7
100
AcDbLine
 10
30717.98614210419
 20
19589.40640388753
 30
0.0
 11
30747.35724905098
 21
15189.25950711283
 31
0.0
  0
LINE
  5
17E
330
22
100
AcDbEntity
  8
_0-9_
  6
Continuous
 62
     4
100
AcDbLine
 10
9076.943793603339
 20
24240.19252020404
 30
0.0
 11
9076.943793603339
 21
7240.191489204784
 31
0.0
  0
LINE
  5
17F
330
22
100
AcDbEntity
  8
_0-9_
  6
Continuous
 62
     4
100
AcDbLine
 10
12076.94255640423
 20
24240.19252020404
 30
0.0
 11
8076.942968803932
 21
24240.19252020404
 31
0.0
  0
LINE
  5
180
330
22
100
AcDbEntity
  8
_0-9_
  6
Continuous
 62
     4
100
AcDbLine
 10
12072.43667723404
 20
24040.19186036452
 30
0.0
 11
9076.943793603339
 21
24040.19186036452
 31
0.0
  0
LINE
  5
181
330
22
100
AcDbEntity
  8
_0-9_
  6
Continuous
 62
     4
100
AcDbLine
 10
12072.43667723404
 20
19540.19186036452
 30
0.0
 11
9076.943793603339
 21
19540.19186036452
 31
0.0
  0
LINE
  5
182
330
22
100
AcDbEntity
  8
_0-9_
  6
Continuous
 62
     4
100
AcDbLine
 10
12072.43667723404
 20
15040.19186036452
 30
0.0
 11
9076.943793603339
 21
15040.19186036452
 31
0.0
  0
LINE
  5
183
330
22
100
AcDbEntity
  8
_0-9_
  6
Continuous
 62
     4
100
AcDbLine
 10
12072.43667723404
 20
10240.18963340612
 30
0.0
 11
9076.943793603339
 21
10240.18963340612
 31
0.0
  0
LINE
  5
184
330
22
100
AcDbEntity
  8
_0-9_
  6
Continuous
 62
     4
100
AcDbLine
 10
12072.43667723404
 20
10240.19087060523
 30
0.0
 11
9076.943793603339
 21
10240.19087060523
 31
0.0
  0
LINE
  5
185
330
22
100
AcDbEntity
  8
_0-9_
  6
Continuous
 62
     4
100
AcDbLine
 10
9876.942721364111
 20
10340.18872612676
 30
0.0
 11
9076.943793603339
 21
10340.18872612676
 31
0.0
  0
LINE
  5
186
330
22
100
AcDbEntity
  8
_0-9_
  6
Continuous
 62
     4
100
AcDbLine
 10
9876.942721364111
 20
9840.188932326618
 30
0.0
 11
9076.943793603339
 21
9840.188932326618
 31
0.0
  0
LINE
  5
187
330
22
100
AcDbEntity
  8
_0-9_
  6
Continuous
 62
     4
100
AcDbLine
 10
11558.92357612023
 20
10240.19210780434
 30
0.0
 11
8576.942144004521
 21
10240.19210780434
 31
0.0
  0
LINE
  5
188
330
22
100
AcDbEntity
  8
_0-9_
  6
Continuous
 62
     4
100
AcDbLine
 10
8576.942144004521
 20
7240.191489204784
 30
0.0
 11
8576.942144004521
 21
10240.18963340612
 31
0.0
  0
LINE
  5
189
330
22
100
AcDbEntity
  8
_0-9_
  6
Continuous
 62
     4
100
AcDbLine
 10
12076.94255640423
 20
7240.191489204784
 30
0.0
 11
8076.942968803932
 21
7240.191489204784
 31
0.0
  0
LINE
  5
18A
330
22
100
AcDbEntity
  8
ADD_LINE
  6
DOT
 62
     3
100
AcDbLine
 10
37576.94379360335
 20
6357.379401604488
 30
0.0
 11
37576.94379360335
 21
25242.05161807144
 31
0.0
  0
LINE
  5
18B
330
22
100
AcDbEntity
  8
_0-2_
  6
Continuous
 62
     7
100
AcDbLine
 10
37800.4413390003
 20
7240.190252005674
 30
0.0
 11
37353.44129940993
 21
7240.190252005674
 31
0.0
  0
LINE
  5
18C
330
22
100
AcDbEntity
  8
_0-2_
  6
Continuous
 62
     7
100
AcDbLine
 10
37686.94069235757
 20
24240.19252020404
 30
0.0
 11
37466.94194605267
 21
24240.19252020404
 31
0.0
  0
LINE
  5
18D
330
22
100
AcDbEntity
  8
_0-2_
  6
Continuous
 62
     7
100
AcDbLine
 10
37783.08096104423
 20
9740.188602406856
 30
0.0
 11
37800.4413390003
 21
7240.190252005674
 31
0.0
  0
LINE
  5
18E
330
22
100
AcDbEntity
  8
_0-2_
  6
Continuous
 62
     7
100
AcDbLine
 10
37783.08096104423
 20
9815.190087045792
 30
0.0
 11
37783.08096104423
 21
9740.188602406856
 31
0.0
  0
LINE
  5
18F
330
22
100
AcDbEntity
  8
_0-0_
  6
CENTER1
 62
     4
100
AcDbLine
 10
37576.94379360335
 20
25240.19087060523
 30
0.0
 11
37576.94379360335
 21
6240.189427206264
 31
0.0
  0
LINE
  5
190
330
22
100
AcDbEntity
  8
_0-0_
  6
Continuous
 62
     7
100
AcDbLine
 10
37359.04333699439
 20
15189.25950711283
 30
0.0
 11
37794.82445502649
 21
15189.25950711283
 31
0.0
  0
LINE
  5
191
330
22
100
AcDbEntity
  8
_0-0_
  6
Continuous
 62
     7
100
AcDbLine
 10
37359.04333699439
 20
15189.25950711283
 30
0.0
 11
37359.04333699439
 21
15089.25917719306
 31
0.0
  0
LINE
  5
192
330
22
100
AcDbEntity
  8
_0-0_
  6
Continuous
 62
     7
100
AcDbLine
 10
37359.04333699439
 20
15089.25917719306
 30
0.0
 11
37539.43686528832
 21
15089.25917719306
 31
0.0
  0
LINE
  5
193
330
22
100
AcDbEntity
  8
_0-0_
  6
Continuous
 62
     7
100
AcDbLine
 10
37794.82445502649
 20
15189.25950711283
 30
0.0
 11
37794.82445502649
 21
15089.25917719306
 31
0.0
  0
LINE
  5
194
330
22
100
AcDbEntity
  8
_0-0_
  6
Continuous
 62
     7
100
AcDbLine
 10
37794.82445502649
 20
15089.25917719306
 30
0.0
 11
37614.43587552902
 21
15089.25917719306
 31
0.0
  0
LINE
  5
195
330
22
100
AcDbEntity
  8
_0-0_
  6
Continuous
 62
     7
100
AcDbLine
 10
37794.81950623004
 20
15189.25950711283
 30
0.0
 11
37794.81950623004
 21
15089.25917719306
 31
0.0
  0
LINE
  5
196
330
22
100
AcDbEntity
  8
_0-0_
  6
Continuous
 62
     7
100
AcDbLine
 10
37414.94494172412
 20
24061.48158270404
 30
0.0
 11
37414.94494172412
 21
24161.48191262381
 31
0.0
  0
LINE
  5
197
330
22
100
AcDbEntity
  8
_0-0_
  6
Continuous
 62
     7
100
AcDbLine
 10
37414.94494172412
 20
24161.48191262381
 30
0.0
 11
37738.94264548257
 21
24161.48191262381
 31
0.0
  0
LINE
  5
198
330
22
100
AcDbEntity
  8
_0-0_
  6
Continuous
 62
     7
100
AcDbLine
 10
37738.94264548257
 20
24161.48191262381
 30
0.0
 11
37738.94264548257
 21
24061.48158270404
 31
0.0
  0
LINE
  5
199
330
22
100
AcDbEntity
  8
_0-0_
  6
Continuous
 62
     7
100
AcDbLine
 10
37414.94494172412
 20
24061.48158270404
 30
0.0
 11
37539.44181408476
 21
24061.48158270404
 31
0.0
  0
LINE
  5
19A
330
22
100
AcDbEntity
  8
_0-0_
  6
Continuous
 62
     7
100
AcDbLine
 10
37738.94264548257
 20
24061.48158270404
 30
0.0
 11
37614.44082432547
 21
24061.48158270404
 31
0.0
  0
LINE
  5
19B
330
22
100
AcDbEntity
  8
_0-0_
  6
Continuous
 62
     7
100
AcDbLine
 10
37825.66535451973
 20
10390.28539261747
 30
0.0
 11
37614.61898099777
 21
10390.28539261747
 31
0.0
  0
LINE
  5
19C
330
22
100
AcDbEntity
  8
_0-0_
  6
Continuous
 62
     7
100
AcDbLine
 10
37327.8411753601
 20
10490.28572253724
 30
0.0
 11
37327.8411753601
 21
10390.28539261747
 31
0.0
  0
LINE
  5
19D
330
22
100
AcDbEntity
  8
_0-0_
  6
Continuous
 62
     7
100
AcDbLine
 10
37539.62491955352
 20
10390.28539261747
 30
0.0
 11
37327.8411753601
 21
10390.28539261747
 31
0.0
  0
LINE
  5
19E
330
22
100
AcDbEntity
  8
_0-0_
  6
Continuous
 62
     7
100
AcDbLine
 10
37327.8411753601
 20
10490.28572253724
 30
0.0
 11
37825.66535451973
 21
10490.28572253724
 31
0.0
  0
LINE
  5
19F
330
22
100
AcDbEntity
  8
_0-0_
  6
Continuous
 62
     7
100
AcDbLine
 10
37825.66535451973
 20
10490.28572253724
 30
0.0
 11
37825.66535451973
 21
10390.28539261747
 31
0.0
  0
LINE
  5
1A0
330
22
100
AcDbEntity
  8
_0-2_
  6
Continuous
 62
     7
100
AcDbLine
 10
37375.30508213797
 20
10515.19054068546
 30
0.0
 11
37375.14177185504
 21
10490.28572253724
 31
0.0
  0
LINE
  5
1A1
330
22
100
AcDbEntity
  8
_0-2_
  6
Continuous
 62
     7
100
AcDbLine
 10
37778.57755627226
 20
10515.19054068546
 30
0.0
 11
37778.7408665552
 21
10490.28572253724
 31
0.0
  0
LINE
  5
1A2
330
22
100
AcDbEntity
  8
_0-2_
  6
Continuous
 62
     7
100
AcDbLine
 10
37374.46378674101
 20
10388.7289961331
 30
0.0
 11
37370.9699364454
 21
9865.189633406117
 31
0.0
  0
LINE
  5
1A3
330
22
100
AcDbEntity
  8
_0-2_
  6
Continuous
 62
     7
100
AcDbLine
 10
37374.47368433392
 20
10390.28539261747
 30
0.0
 11
37370.9699364454
 21
9865.189633406117
 31
0.0
  0
LINE
  5
1A4
330
22
100
AcDbEntity
  8
_0-2_
  6
Continuous
 62
     7
100
AcDbLine
 10
37779.41390287277
 20
10390.28539261747
 30
0.0
 11
37782.91765076129
 21
9865.189633406117
 31
0.0
  0
LINE
  5
1A5
330
22
100
AcDbEntity
  8
_0-2_
  6
Continuous
 62
     7
100
AcDbLine
 10
37779.40895407632
 20
10390.28539261747
 30
0.0
 11
37782.91765076129
 21
9865.189633406117
 31
0.0
  0
LINE
  5
1A6
330
22
100
AcDbEntity
  8
_0-0_
  6
Continuous
 62
     7
100
AcDbLine
 10
37386.44482295301
 20
19589.40640388753
 30
0.0
 11
37539.44181408476
 21
19589.40640388753
 31
0.0
  0
LINE
  5
1A7
330
22
100
AcDbEntity
  8
_0-0_
  6
Continuous
 62
     7
100
AcDbLine
 10
37386.44482295301
 20
19689.40920820552
 30
0.0
 11
37767.44276425369
 21
19689.40920820552
 31
0.0
  0
LINE
  5
1A8
330
22
100
AcDbEntity
  8
_0-0_
  6
Continuous
 62
     7
100
AcDbLine
 10
37767.44276425369
 20
19589.40640388753
 30
0.0
 11
37614.44082432547
 21
19589.40640388753
 31
0.0
  0
LINE
  5
1A9
330
22
100
AcDbEntity
  8
_0-0_
  6
Continuous
 62
     7
100
AcDbLine
 10
37386.44482295301
 20
19689.40920820552
 30
0.0
 11
37386.44482295301
 21
19589.40640388753
 31
0.0
  0
LINE
  5
1AA
330
22
100
AcDbEntity
  8
_0-0_
  6
Continuous
 62
     7
100
AcDbLine
 10
37767.44276425369
 20
19689.40920820552
 30
0.0
 11
37767.44276425369
 21
19589.40640388753
 31
0.0
  0
LINE
  5
1AB
330
22
100
AcDbEntity
  8
_0-2_
  6
Continuous
 62
     7
100
AcDbLine
 10
37466.94194605267
 20
24240.19252020404
 30
0.0
 11
37466.41737362868
 21
24161.48191262381
 31
0.0
  0
LINE
  5
1AC
330
22
100
AcDbEntity
  8
_0-2_
  6
Continuous
 62
     7
100
AcDbLine
 10
37686.94069235757
 20
24240.19252020404
 30
0.0
 11
37687.47021357801
 21
24161.48191262381
 31
0.0
  0
LINE
  5
1AD
330
22
100
AcDbEntity
  8
_0-2_
  6
Continuous
 62
     7
100
AcDbLine
 10
37405.84905384405
 20
15089.25917719306
 30
0.0
 11
37375.97316965908
 21
10615.18963340611
 31
0.0
  0
LINE
  5
1AE
330
22
100
AcDbEntity
  8
_0-2_
  6
Continuous
 62
     7
100
AcDbLine
 10
37748.03853336263
 20
15089.25917719306
 30
0.0
 11
37778.74581535165
 21
10490.28572253724
 31
0.0
  0
LINE
  5
1AF
330
22
100
AcDbEntity
  8
_0-2_
  6
Continuous
 62
     7
100
AcDbLine
 10
37435.89319710841
 20
19589.40640388753
 30
0.0
 11
37406.51714136517
 21
15189.25950711283
 31
0.0
  0
LINE
  5
1B0
330
22
100
AcDbEntity
  8
_0-2_
  6
Continuous
 62
     7
100
AcDbLine
 10
37465.74928610757
 20
24061.48158270404
 30
0.0
 11
37436.56128462952
 21
19689.40920820552
 31
0.0
  0
LINE
  5
1B1
330
22
100
AcDbEntity
  8
_0-2_
  6
Continuous
 62
     7
100
AcDbLine
 10
37688.13830109912
 20
24061.48158270404
 30
0.0
 11
37717.32630257716
 21
19689.40920820552
 31
0.0
  0
LINE
  5
1B2
330
22
100
AcDbEntity
  8
_0-2_
  6
Continuous
 62
     7
100
AcDbLine
 10
24405.84822904464
 20
15089.25917719306
 30
0.0
 11
24375.14094705562
 21
10490.28572253724
 31
0.0
  0
LINE
  5
1B3
330
22
100
AcDbEntity
  8
_0-2_
  6
Continuous
 62
     7
100
AcDbLine
 10
37539.44181408476
 20
24061.48158270404
 30
0.0
 11
37614.44082432547
 21
24061.48158270404
 31
0.0
  0
LINE
  5
1B4
330
22
100
AcDbEntity
  8
_0-2_
  6
Continuous
 62
     7
100
AcDbLine
 10
37539.44181408476
 20
19589.40640388753
 30
0.0
 11
37614.44082432547
 21
19589.40640388753
 31
0.0
  0
LINE
  5
1B5
330
22
100
AcDbEntity
  8
_0-2_
  6
Continuous
 62
     7
100
AcDbLine
 10
37539.43686528832
 20
15089.25917719306
 30
0.0
 11
37614.43587552902
 21
15089.25917719306
 31
0.0
  0
LINE
  5
1B6
330
22
100
AcDbEntity
  8
_0-2_
  6
Continuous
 62
     7
100
AcDbLine
 10
37539.62491955352
 20
10390.28539261747
 30
0.0
 11
37614.61898099777
 21
10390.28539261747
 31
0.0
  0
LINE
  5
1B7
330
22
100
AcDbEntity
  8
_0-2_
  6
Continuous
 62
     7
100
AcDbLine
 10
37375.97316965908
 20
10615.18963340611
 30
0.0
 11
37375.97316965908
 21
10515.19054068546
 31
0.0
  0
LINE
  5
1B8
330
22
100
AcDbEntity
  8
_0-2_
  6
Continuous
 62
     7
100
AcDbLine
 10
37351.94181408477
 20
9865.189633406117
 30
0.0
 11
37351.94181408477
 21
9815.190087045792
 31
0.0
  0
LINE
  5
1B9
330
22
100
AcDbEntity
  8
_0-2_
  6
Continuous
 62
     7
100
AcDbLine
 10
37812.91725485757
 20
9770.189443702253
 30
0.0
 11
37983.55670534321
 21
9770.189443702253
 31
0.0
  0
LINE
  5
1BA
330
22
100
AcDbEntity
  8
_0-2_
  6
Continuous
 62
     7
100
AcDbLine
 10
37983.75465720132
 20
9740.188602406856
 30
0.0
 11
37783.08096104423
 21
9740.188602406856
 31
0.0
  0
LINE
  5
1BB
330
22
100
AcDbEntity
  8
_0-2_
  6
Continuous
 62
     7
100
AcDbLine
 10
37812.91725485757
 20
9940.188643646823
 30
0.0
 11
37782.41782231956
 21
9940.188643646823
 31
0.0
  0
LINE
  5
1BC
330
22
100
AcDbEntity
  8
_0-2_
  6
Continuous
 62
     7
100
AcDbLine
 10
37371.32130099354
 20
9815.190087045792
 30
0.0
 11
37353.44129940993
 21
7240.190252005674
 31
0.0
  0
LINE
  5
1BD
330
22
100
AcDbEntity
  8
_0-2_
  6
Continuous
 62
     7
100
AcDbLine
 10
37812.91725485757
 20
9770.189443702253
 30
0.0
 11
37812.91725485757
 21
9940.188643646823
 31
0.0
  0
LINE
  5
1BE
330
22
100
AcDbEntity
  8
_0-2_
  6
Continuous
 62
     7
100
AcDbLine
 10
37782.91765076129
 20
9865.189633406117
 30
0.0
 11
37351.94181408477
 21
9865.189633406117
 31
0.0
  0
LINE
  5
1BF
330
22
100
AcDbEntity
  8
_0-2_
  6
Continuous
 62
     7
100
AcDbLine
 10
37351.94181408477
 20
9815.190087045792
 30
0.0
 11
37783.08096104423
 21
9815.190087045792
 31
0.0
  0
LINE
  5
1C0
330
22
100
AcDbEntity
  8
_0-2_
  6
Continuous
 62
     7
100
AcDbLine
 10
37782.91765076129
 20
9865.189633406117
 30
0.0
 11
37783.08096104423
 21
9815.190087045792
 31
0.0
  0
LINE
  5
1C1
330
22
100
AcDbEntity
  8
_0-6_
  6
DASHED1
 62
     5
100
AcDbLine
 10
37356.51945080352
 20
15189.59355087338
 30
0.0
 11
37355.85136328241
 21
15089.59322095362
 31
0.0
  0
LINE
  5
1C2
330
22
100
AcDbEntity
  8
_0-6_
  6
DASHED1
 62
     5
100
AcDbLine
 10
37386.56359406787
 20
19689.74325196608
 30
0.0
 11
37385.89550654676
 21
19589.74044764809
 31
0.0
  0
LINE
  5
1C3
330
22
100
AcDbEntity
  8
_0-3_
  6
Continuous
 62
     6
100
AcDbLine
 10
13030.72657113184
 20
10390.18765388753
 30
0.0
 11
13235.15145500009
 21
10390.18765388753
 31
0.0
  0
LINE
  5
1C4
330
22
100
AcDbEntity
  8
_0-3_
  6
Continuous
 62
     6
100
AcDbLine
 10
13029.05635232906
 20
10290.18732396777
 30
0.0
 11
13230.43030318421
 21
10290.18732396777
 31
0.0
  0
LINE
  5
1C5
330
22
100
AcDbEntity
  8
_0-3_
  6
Continuous
 62
     6
100
AcDbLine
 10
12828.31213582251
 20
10651.29234072769
 30
0.0
 11
12904.6992834682
 21
10836.12988823614
 31
0.0
  0
LINE
  5
1C6
330
22
100
AcDbEntity
  8
_0-3_
  6
Continuous
 62
     6
100
AcDbLine
 10
12920.73090957673
 20
10613.09752970573
 30
0.0
 11
12997.11805722243
 21
10797.93631441329
 31
0.0
  0
LINE
  5
1C7
330
22
100
AcDbEntity
  8
_0-3_
  6
Continuous
 62
     6
100
AcDbLine
 10
18324.85375190148
 20
10651.29234072769
 30
0.0
 11
18248.46660425579
 21
10836.12988823614
 31
0.0
  0
LINE
  5
1C8
330
22
100
AcDbEntity
  8
_0-3_
  6
Continuous
 62
     6
100
AcDbLine
 10
18232.43497814725
 20
10613.09752970573
 30
0.0
 11
18156.04783050157
 21
10797.93631441329
 31
0.0
  0
LINE
  5
1C9
330
22
100
AcDbEntity
  8
_0-3_
  6
Continuous
 62
     6
100
AcDbLine
 10
18828.3108986234
 20
10651.29234072769
 30
0.0
 11
18904.69804626908
 21
10836.13112543525
 31
0.0
  0
LINE
  5
1CA
330
22
100
AcDbEntity
  8
_0-3_
  6
Continuous
 62
     6
100
AcDbLine
 10
18920.72967237762
 20
10613.10000410396
 30
0.0
 11
18997.11682002331
 21
10797.93755161241
 31
0.0
  0
LINE
  5
1CB
330
22
100
AcDbEntity
  8
_0-3_
  6
Continuous
 62
     6
100
AcDbLine
 10
24324.85127750326
 20
10651.29234072769
 30
0.0
 11
24248.46660425579
 21
10836.13112543525
 31
0.0
  0
LINE
  5
1CC
330
22
100
AcDbEntity
  8
_0-3_
  6
Continuous
 62
     6
100
AcDbLine
 10
24232.43250374904
 20
10613.10000410396
 30
0.0
 11
24156.04783050157
 21
10797.93755161241
 31
0.0
  0
LINE
  5
1CD
330
22
100
AcDbEntity
  8
_0-3_
  6
Continuous
 62
     6
100
AcDbLine
 10
24828.31213582251
 20
10651.29481512592
 30
0.0
 11
24904.69680906998
 21
10836.13236263436
 31
0.0
  0
LINE
  5
1CE
330
22
100
AcDbEntity
  8
_0-3_
  6
Continuous
 62
     6
100
AcDbLine
 10
24920.73090957673
 20
10613.10000410396
 30
0.0
 11
24997.1155828242
 21
10797.93878881152
 31
0.0
  0
LINE
  5
1CF
330
22
100
AcDbEntity
  8
_0-3_
  6
Continuous
 62
     6
100
AcDbLine
 10
30324.84880310503
 20
10651.29481512592
 30
0.0
 11
30248.46412985756
 21
10836.13236263436
 31
0.0
  0
LINE
  5
1D0
330
22
100
AcDbEntity
  8
_0-3_
  6
Continuous
 62
     6
100
AcDbLine
 10
30232.4300293508
 20
10613.10000410396
 30
0.0
 11
30156.04535610334
 21
10797.93878881152
 31
0.0
  0
LINE
  5
1D1
330
22
100
AcDbEntity
  8
_0-3_
  6
Continuous
 62
     6
100
AcDbLine
 10
30828.30966142429
 20
10651.29481512592
 30
0.0
 11
30904.69433467176
 21
10836.13359983348
 31
0.0
  0
LINE
  5
1D2
330
22
100
AcDbEntity
  8
_0-3_
  6
Continuous
 62
     6
100
AcDbLine
 10
30920.72843517852
 20
10613.10247850218
 30
0.0
 11
30997.11310842597
 21
10797.94002601063
 31
0.0
  0
LINE
  5
1D3
330
22
100
AcDbEntity
  8
_0-2_
  6
Continuous
 62
     7
100
AcDbLine
 10
37983.55670534321
 20
9770.189443702253
 30
0.0
 11
37983.55670534321
 21
9740.188602406856
 31
0.0
  0
LINE
  5
1D4
330
22
100
AcDbEntity
  8
_0-3_
  6
Continuous
 62
     6
100
AcDbLine
 10
30527.01703579084
 20
10641.27597670742
 30
0.0
 11
30527.01703579084
 21
10845.02287546164
 31
0.0
  0
LINE
  5
1D5
330
22
100
AcDbEntity
  8
_0-3_
  6
Continuous
 62
     6
100
AcDbLine
 10
30627.01736571061
 20
10635.79147303871
 30
0.0
 11
30627.01736571061
 21
10840.30172364576
 31
0.0
  0
LINE
  5
1D6
330
22
100
AcDbEntity
  8
_0-B_
  6
Continuous
 62
     3
100
AcDbLine
 10
35576.94214400452
 20
10240.18963340612
 30
0.0
 11
37373.47402745047
 21
10240.18963340612
 31
0.0
  0
LINE
  5
1D7
330
22
100
AcDbEntity
  8
_0-B_
  6
Continuous
 62
     3
100
AcDbLine
 10
37780.4135597562
 20
10240.18963340612
 30
0.0
 11
39576.94049440571
 21
10240.18963340612
 31
0.0
  0
LINE
  5
1D8
330
22
100
AcDbEntity
  8
_0-F_
  6
Continuous
 62
     7
100
AcDbLine
 10
24414.94411692471
 20
24092.68126994011
 30
0.0
 11
24414.94411692471
 21
24142.68390929822
 31
0.0
  0
LINE
  5
1D9
330
22
100
AcDbEntity
  8
_0-F_
  6
Continuous
 62
     3
100
AcDbLine
 10
10933.43529487023
 20
10240.188396207
 30
0.0
 11
11333.43414015106
 21
9840.188932326618
 31
0.0
  0
LINE
  5
1DA
330
22
100
AcDbEntity
  8
_0-F_
  6
Continuous
 62
     3
100
AcDbLine
 10
10933.43529487023
 20
10240.188396207
 30
0.0
 11
10533.43150079295
 21
9840.188932326618
 31
0.0
  0
LINE
  5
1DB
330
22
100
AcDbEntity
  8
_0-F_
  6
Continuous
 62
     3
100
AcDbLine
 10
10533.43150079295
 20
9840.188932326618
 30
0.0
 11
10133.43512991035
 21
10240.188396207
 31
0.0
  0
LINE
  5
1DC
330
22
100
AcDbEntity
  8
_0-F_
  6
Continuous
 62
     3
100
AcDbLine
 10
10218.04470286221
 20
10147.68054411663
 30
0.0
 11
9910.556184069982
 21
9840.188932326618
 31
0.0
  0
LINE
  5
1DD
330
22
100
AcDbEntity
  8
_0-F_
  6
Continuous
 62
     3
100
AcDbLine
 10
10321.65765419244
 20
10047.77176693124
 30
0.0
 11
10114.07543818737
 21
9840.188932326618
 31
0.0
  0
LINE
  5
1DE
330
22
100
AcDbEntity
  8
_0-F_
  6
Continuous
 62
     3
100
AcDbLine
 10
10425.263182328
 20
9947.864226944966
 30
0.0
 11
10317.5872691101
 21
9840.188932326618
 31
0.0
  0
LINE
  5
1DF
330
22
100
AcDbEntity
  8
_0-F_
  6
Continuous
 62
     3
100
AcDbLine
 10
11033.43809918822
 20
10140.18806628723
 30
0.0
 11
10733.4346350307
 21
9840.188932326618
 31
0.0
  0
LINE
  5
1E0
330
22
100
AcDbEntity
  8
_0-F_
  6
Continuous
 62
     3
100
AcDbLine
 10
11133.43842910798
 20
10040.18649916836
 30
0.0
 11
10933.43529487023
 21
9840.188932326618
 31
0.0
  0
LINE
  5
1E1
330
22
100
AcDbEntity
  8
_0-F_
  6
Continuous
 62
     3
100
AcDbLine
 10
11233.43133583307
 20
9940.189880845935
 30
0.0
 11
11133.43100591331
 21
9840.188932326618
 31
0.0
  0
LINE
  5
1E2
330
22
100
AcDbEntity
  8
_0-F_
  6
Continuous
 62
     3
100
AcDbLine
 10
10833.43496495047
 20
10140.18806628723
 30
0.0
 11
10733.4346350307
 21
10240.188396207
 31
0.0
  0
LINE
  5
1E3
330
22
100
AcDbEntity
  8
_0-F_
  6
Continuous
 62
     3
100
AcDbLine
 10
10733.4346350307
 20
10040.18649916836
 30
0.0
 11
10533.43150079295
 21
10240.188396207
 31
0.0
  0
LINE
  5
1E4
330
22
100
AcDbEntity
  8
_0-F_
  6
Continuous
 62
     3
100
AcDbLine
 10
10633.43430511094
 20
9940.189880845935
 30
0.0
 11
10333.4382641481
 21
10240.188396207
 31
0.0
  0
LINE
  5
1E5
330
22
100
AcDbEntity
  8
_0-F_
  6
Continuous
 62
     3
100
AcDbLine
 10
10133.43512991035
 20
10240.188396207
 30
0.0
 11
9833.43414015106
 21
9940.189880845935
 31
0.0
  0
LINE
  5
1E6
330
22
100
AcDbEntity
  8
_0-F_
  6
Continuous
 62
     3
100
AcDbLine
 10
9933.434470070825
 20
10040.18649916836
 30
0.0
 11
9733.431335833074
 21
10240.188396207
 31
0.0
  0
LINE
  5
1E7
330
22
100
AcDbEntity
  8
_0-F_
  6
Continuous
 62
     3
100
AcDbLine
 10
10033.43479999059
 20
10140.18806628723
 30
0.0
 11
9933.434470070825
 21
10240.188396207
 31
0.0
  0
LINE
  5
1E8
330
22
100
AcDbEntity
  8
_0-F_
  6
Continuous
 62
     3
100
AcDbLine
 10
10444.66493882082
 20
10432.84999090717
 30
0.0
 11
10222.2041662807
 21
10432.84999090717
 31
0.0
  0
LINE
  5
1E9
330
22
100
AcDbEntity
  8
_0-F_
  6
Continuous
 62
     3
100
AcDbLine
 10
10333.4382641481
 20
10240.188396207
 30
0.0
 11
10444.66493882082
 21
10432.84999090717
 31
0.0
  0
LINE
  5
1EA
330
22
100
AcDbEntity
  8
_0-F_
  6
Continuous
 62
     3
100
AcDbLine
 10
10333.4382641481
 20
10240.188396207
 30
0.0
 11
10222.2041662807
 21
10432.84999090717
 31
0.0
  0
LINE
  5
1EB
330
22
100
AcDbEntity
  8
_0-F_
  6
Continuous
 62
     3
100
AcDbLine
 10
32774.76533340486
 20
10240.18963340612
 30
0.0
 11
33174.76665308392
 21
9840.190169525728
 31
0.0
  0
LINE
  5
1EC
330
22
100
AcDbEntity
  8
_0-F_
  6
Continuous
 62
     3
100
AcDbLine
 10
32774.76533340486
 20
10240.18963340612
 30
0.0
 11
32374.76896252227
 21
9840.190169525728
 31
0.0
  0
LINE
  5
1ED
330
22
100
AcDbEntity
  8
_0-F_
  6
Continuous
 62
     3
100
AcDbLine
 10
32374.76896252227
 20
9840.190169525728
 30
0.0
 11
31974.76764284321
 21
10240.18963340612
 31
0.0
  0
LINE
  5
1EE
330
22
100
AcDbEntity
  8
_0-F_
  6
Continuous
 62
     3
100
AcDbLine
 10
32059.37721579506
 20
10147.68178131574
 30
0.0
 11
31751.88374820638
 21
9840.190169525728
 31
0.0
  0
LINE
  5
1EF
330
22
100
AcDbEntity
  8
_0-F_
  6
Continuous
 62
     3
100
AcDbLine
 10
32162.9901671253
 20
10047.77176693124
 30
0.0
 11
31955.40300232378
 21
9840.190169525728
 31
0.0
  0
LINE
  5
1F0
330
22
100
AcDbEntity
  8
_0-F_
  6
Continuous
 62
     3
100
AcDbLine
 10
32266.59816965909
 20
9947.86175254674
 30
0.0
 11
32158.92225644118
 21
9840.190169525728
 31
0.0
  0
LINE
  5
1F1
330
22
100
AcDbEntity
  8
_0-F_
  6
Continuous
 62
     3
100
AcDbLine
 10
32874.76566332463
 20
10140.18806628723
 30
0.0
 11
32574.76962236179
 21
9840.190169525728
 31
0.0
  0
LINE
  5
1F2
330
22
100
AcDbEntity
  8
_0-F_
  6
Continuous
 62
     3
100
AcDbLine
 10
32974.76599324439
 20
10040.18773636747
 30
0.0
 11
32774.76533340486
 21
9840.190169525728
 31
0.0
  0
LINE
  5
1F3
330
22
100
AcDbEntity
  8
_0-F_
  6
Continuous
 62
     3
100
AcDbLine
 10
33074.76632316415
 20
9940.187406447712
 30
0.0
 11
32974.76599324439
 21
9840.190169525728
 31
0.0
  0
LINE
  5
1F4
330
22
100
AcDbEntity
  8
_0-F_
  6
Continuous
 62
     3
100
AcDbLine
 10
32674.7650034851
 20
10140.18806628723
 30
0.0
 11
32574.76962236179
 21
10240.18963340612
 31
0.0
  0
LINE
  5
1F5
330
22
100
AcDbEntity
  8
_0-F_
  6
Continuous
 62
     3
100
AcDbLine
 10
32574.76962236179
 20
10040.18773636747
 30
0.0
 11
32374.76896252227
 21
10240.18963340612
 31
0.0
  0
LINE
  5
1F6
330
22
100
AcDbEntity
  8
_0-F_
  6
Continuous
 62
     3
100
AcDbLine
 10
32474.76929244203
 20
9940.187406447712
 30
0.0
 11
32174.76830268273
 21
10240.18963340612
 31
0.0
  0
LINE
  5
1F7
330
22
100
AcDbEntity
  8
_0-F_
  6
Continuous
 62
     3
100
AcDbLine
 10
31974.76764284321
 20
10240.18963340612
 30
0.0
 11
31674.76665308392
 21
9940.187406447712
 31
0.0
  0
LINE
  5
1F8
330
22
100
AcDbEntity
  8
_0-F_
  6
Continuous
 62
     3
100
AcDbLine
 10
31774.76698300369
 20
10040.18773636747
 30
0.0
 11
31574.76632316416
 21
10240.18963340612
 31
0.0
  0
LINE
  5
1F9
330
22
100
AcDbEntity
  8
_0-F_
  6
Continuous
 62
     3
100
AcDbLine
 10
31874.76731292344
 20
10140.18806628723
 30
0.0
 11
31774.76698300369
 21
10240.18963340612
 31
0.0
  0
LINE
  5
1FA
330
22
100
AcDbEntity
  8
_0-F_
  6
Continuous
 62
     3
100
AcDbLine
 10
37008.81701203662
 20
10236.22441024838
 30
0.0
 11
36608.82064115402
 21
9836.224946368005
 31
0.0
  0
LINE
  5
1FB
330
22
100
AcDbEntity
  8
_0-F_
  6
Continuous
 62
     3
100
AcDbLine
 10
36608.82064115402
 20
9836.224946368005
 30
0.0
 11
36208.81932147496
 21
10236.22441024838
 31
0.0
  0
LINE
  5
1FC
330
22
100
AcDbEntity
  8
_0-F_
  6
Continuous
 62
     3
100
AcDbLine
 10
36293.42889442683
 20
10143.71655815801
 30
0.0
 11
35985.93542683814
 21
9836.224946368005
 31
0.0
  0
LINE
  5
1FD
330
22
100
AcDbEntity
  8
_0-F_
  6
Continuous
 62
     3
100
AcDbLine
 10
36397.04184575706
 20
10043.80901817174
 30
0.0
 11
36189.45468095554
 21
9836.224946368005
 31
0.0
  0
LINE
  5
1FE
330
22
100
AcDbEntity
  8
_0-F_
  6
Continuous
 62
     3
100
AcDbLine
 10
36500.64984829084
 20
9943.899003787237
 30
0.0
 11
36392.97393507294
 21
9836.224946368005
 31
0.0
  0
LINE
  5
1FF
330
22
100
AcDbEntity
  8
_0-F_
  6
Continuous
 62
     3
100
AcDbLine
 10
37108.81734195639
 20
10136.22284312951
 30
0.0
 11
36808.82130099353
 21
9836.224946368005
 31
0.0
  0
LINE
  5
200
330
22
100
AcDbEntity
  8
_0-F_
  6
Continuous
 62
     3
100
AcDbLine
 10
37208.81767187615
 20
10036.22251320975
 30
0.0
 11
37008.81701203662
 21
9836.224946368005
 31
0.0
  0
LINE
  5
201
330
22
100
AcDbEntity
  8
_0-F_
  6
Continuous
 62
     3
100
AcDbLine
 10
37308.81800179592
 20
9936.224657688208
 30
0.0
 11
37208.81767187615
 21
9836.224946368005
 31
0.0
  0
LINE
  5
202
330
22
100
AcDbEntity
  8
_0-F_
  6
Continuous
 62
     3
100
AcDbLine
 10
36908.81668211686
 20
10136.22284312951
 30
0.0
 11
36808.82130099353
 21
10236.22441024838
 31
0.0
  0
LINE
  5
203
330
22
100
AcDbEntity
  8
_0-F_
  6
Continuous
 62
     3
100
AcDbLine
 10
36808.82130099353
 20
10036.22251320975
 30
0.0
 11
36608.82064115402
 21
10236.22441024838
 31
0.0
  0
LINE
  5
204
330
22
100
AcDbEntity
  8
_0-F_
  6
Continuous
 62
     3
100
AcDbLine
 10
36708.82097107379
 20
9936.224657688208
 30
0.0
 11
36408.81998131449
 21
10236.22441024838
 31
0.0
  0
LINE
  5
205
330
22
100
AcDbEntity
  8
_0-F_
  6
Continuous
 62
     3
100
AcDbLine
 10
36208.81932147496
 20
10236.22441024838
 30
0.0
 11
35908.81833171567
 21
9936.224657688208
 31
0.0
  0
LINE
  5
206
330
22
100
AcDbEntity
  8
_0-F_
  6
Continuous
 62
     3
100
AcDbLine
 10
36008.81866163544
 20
10036.22251320975
 30
0.0
 11
35808.81800179591
 21
10236.22441024838
 31
0.0
  0
LINE
  5
207
330
22
100
AcDbEntity
  8
_0-F_
  6
Continuous
 62
     3
100
AcDbLine
 10
36108.8189915552
 20
10136.22284312951
 30
0.0
 11
36008.81866163544
 21
10236.22441024838
 31
0.0
  0
LINE
  5
208
330
22
100
AcDbEntity
  8
_0-F_
  6
Continuous
 62
     4
100
AcDbLine
 10
31217.14154750959
 20
23872.81119234298
 30
0.0
 11
31217.14154750959
 21
23972.81152226275
 31
0.0
  0
LINE
  5
209
330
22
100
AcDbEntity
  8
_0-F_
  6
Continuous
 62
     4
100
AcDbLine
 10
13199.62404526613
 20
24177.84758249289
 30
0.0
 11
13599.62783934342
 21
24870.66671388014
 31
0.0
  0
LINE
  5
20A
330
22
100
AcDbEntity
  8
_0-F_
  6
Continuous
 62
     4
100
AcDbLine
 10
13691.70762054063
 20
21732.55570247812
 30
0.0
 11
14091.70646582145
 21
22425.37235946714
 31
0.0
  0
LINE
  5
20B
330
22
100
AcDbEntity
  8
_0-F_
  6
Continuous
 62
     4
100
AcDbLine
 10
13199.62404526613
 20
24177.84758249289
 30
0.0
 11
13199.62404526613
 21
24277.84791241266
 31
0.0
  0
LINE
  5
20C
330
22
100
AcDbEntity
  8
_0-F_
  6
Continuous
 62
     4
100
AcDbLine
 10
13691.70762054063
 20
21732.55570247812
 30
0.0
 11
13691.70762054063
 21
21832.55850679611
 31
0.0
  0
LINE
  5
20D
330
22
100
AcDbEntity
  8
_0-F_
  6
Continuous
 62
     4
100
AcDbLine
 10
14091.70646582145
 20
22425.37235946714
 30
0.0
 11
17099.66165611917
 21
22425.37235946714
 31
0.0
  0
LINE
  5
20E
330
22
100
AcDbEntity
  8
_0-F_
  6
Continuous
 62
     4
100
AcDbLine
 10
18616.17207828451
 20
21342.98149692491
 30
0.0
 11
19016.17339796356
 21
22035.79815391393
 31
0.0
  0
LINE
  5
20F
330
22
100
AcDbEntity
  8
_0-F_
  6
Continuous
 62
     4
100
AcDbLine
 10
18616.17207828451
 20
21342.98149692491
 30
0.0
 11
18616.17207828451
 21
21442.98182684467
 31
0.0
  0
LINE
  5
210
330
22
100
AcDbEntity
  8
_0-F_
  6
Continuous
 62
     4
100
AcDbLine
 10
19016.17339796356
 20
22035.79815391393
 30
0.0
 11
19216.17405780309
 21
22035.79815391393
 31
0.0
  0
LINE
  5
211
330
22
100
AcDbEntity
  8
_0-F_
  6
Continuous
 62
     4
100
AcDbLine
 10
13599.62783934342
 20
24870.66671388014
 30
0.0
 11
15538.6850606272
 21
24870.66671388014
 31
0.0
  0
LINE
  5
212
330
22
100
AcDbEntity
  8
_0-F_
  6
Continuous
 62
     4
100
AcDbLine
 10
18616.17207828451
 20
22971.25677537719
 30
0.0
 11
19016.17339796356
 21
23664.07343236621
 31
0.0
  0
LINE
  5
213
330
22
100
AcDbEntity
  8
_0-F_
  6
Continuous
 62
     4
100
AcDbLine
 10
18616.17207828451
 20
22971.25677537719
 30
0.0
 11
18616.17207828451
 21
23071.25710529696
 31
0.0
  0
LINE
  5
214
330
22
100
AcDbEntity
  8
_0-F_
  6
Continuous
 62
     4
100
AcDbLine
 10
19016.17339796356
 20
23664.07343236621
 30
0.0
 11
19216.17405780309
 21
23664.07343236621
 31
0.0
  0
LINE
  5
215
330
22
100
AcDbEntity
  8
_0-F_
  6
Continuous
 62
     4
100
AcDbLine
 10
21576.6015018487
 20
24040.19186036452
 30
0.0
 11
21976.60282152775
 21
24733.00851735354
 31
0.0
  0
LINE
  5
216
330
22
100
AcDbEntity
  8
_0-F_
  6
Continuous
 62
     4
100
AcDbLine
 10
21576.6015018487
 20
24040.19186036452
 30
0.0
 11
21576.6015018487
 21
24140.19219028428
 31
0.0
  0
LINE
  5
217
330
22
100
AcDbEntity
  8
_0-F_
  6
Continuous
 62
     4
100
AcDbLine
 10
21976.60282152775
 20
24733.00851735354
 30
0.0
 11
22176.60100696905
 21
24733.00851735354
 31
0.0
  0
LINE
  5
218
330
22
100
AcDbEntity
  8
_0-F_
  6
Continuous
 62
     4
100
AcDbLine
 10
21576.59902745047
 20
10340.18872612676
 30
0.0
 11
21976.60034712953
 21
11033.00538311578
 31
0.0
  0
LINE
  5
219
330
22
100
AcDbEntity
  8
_0-F_
  6
Continuous
 62
     4
100
AcDbLine
 10
21576.59902745047
 20
10340.18872612676
 30
0.0
 11
21576.59902745047
 21
10440.1865816483
 31
0.0
  0
LINE
  5
21A
330
22
100
AcDbEntity
  8
_0-F_
  6
Continuous
 62
     4
100
AcDbLine
 10
21976.60034712953
 20
11033.00538311578
 30
0.0
 11
22176.60100696905
 21
11033.00538311578
 31
0.0
  0
LINE
  5
21B
330
22
100
AcDbEntity
  8
_0-F_
  6
Continuous
 62
     4
100
AcDbLine
 10
21576.59902745047
 20
15040.19186036452
 30
0.0
 11
21976.60034712953
 21
15733.00975455265
 31
0.0
  0
LINE
  5
21C
330
22
100
AcDbEntity
  8
_0-F_
  6
Continuous
 62
     4
100
AcDbLine
 10
21576.59902745047
 20
15040.19186036452
 30
0.0
 11
21576.59902745047
 21
15140.19219028428
 31
0.0
  0
LINE
  5
21D
330
22
100
AcDbEntity
  8
_0-F_
  6
Continuous
 62
     4
100
AcDbLine
 10
21976.60034712953
 20
15733.00975455265
 30
0.0
 11
22176.60100696905
 21
15733.00975455265
 31
0.0
  0
LINE
  5
21E
330
22
100
AcDbEntity
  8
_0-F_
  6
Continuous
 62
     4
100
AcDbLine
 10
21576.6015018487
 20
19540.19433476274
 30
0.0
 11
21976.60282152775
 21
20233.00975455265
 31
0.0
  0
LINE
  5
21F
330
22
100
AcDbEntity
  8
_0-F_
  6
Continuous
 62
     4
100
AcDbLine
 10
21576.6015018487
 20
19540.19433476274
 30
0.0
 11
21576.6015018487
 21
19640.19342748339
 31
0.0
  0
LINE
  5
220
330
22
100
AcDbEntity
  8
_0-F_
  6
Continuous
 62
     4
100
AcDbLine
 10
21976.60282152775
 20
20233.00975455265
 30
0.0
 11
22176.60100696905
 21
20233.00975455265
 31
0.0
  0
LINE
  5
221
330
22
100
AcDbEntity
  8
_0-F_
  6
Continuous
 62
     4
100
AcDbLine
 10
13283.08426024185
 20
9740.188602406856
 30
0.0
 11
13283.08426024185
 21
9640.190746885316
 31
0.0
  0
LINE
  5
222
330
22
100
AcDbEntity
  8
_0-F_
  6
Continuous
 62
     4
100
AcDbLine
 10
13683.08805431914
 20
9047.368233820495
 30
0.0
 11
14483.08821927902
 21
9047.368233820495
 31
0.0
  0
LINE
  5
223
330
22
100
AcDbEntity
  8
_0-F_
  6
Continuous
 62
     4
100
AcDbLine
 10
13283.08426024185
 20
9740.188602406856
 30
0.0
 11
13683.08805431914
 21
9047.368233820495
 31
0.0
  0
LINE
  5
224
330
22
100
AcDbEntity
  8
_0-F_
  6
Continuous
 62
     4
100
AcDbLine
 10
37738.94264548257
 20
24161.48191262381
 30
0.0
 11
37738.94264548257
 21
24261.48224254358
 31
0.0
  0
LINE
  5
225
330
22
100
AcDbEntity
  8
_0-F_
  6
Continuous
 62
     4
100
AcDbLine
 10
38138.94396516162
 20
24854.29856961283
 30
0.0
 11
39138.9423155628
 21
24854.29856961283
 31
0.0
  0
LINE
  5
226
330
22
100
AcDbEntity
  8
_0-F_
  6
Continuous
 62
     4
100
AcDbLine
 10
37738.94264548257
 20
24161.48191262381
 30
0.0
 11
38138.94396516162
 21
24854.29856961283
 31
0.0
  0
LINE
  5
227
330
22
100
AcDbEntity
  8
_0-F_
  6
Continuous
 62
     3
100
AcDbLine
 10
37008.81701203662
 20
10236.22441024838
 30
0.0
 11
37371.15304191415
 21
9873.89456636642
 31
0.0
  0
LINE
  5
228
330
22
100
AcDbEntity
  8
_0-F_
  6
Continuous
 62
     4
100
AcDbLine
 10
37767.44276425369
 20
19689.40920820552
 30
0.0
 11
37767.44276425369
 21
19789.40953812529
 31
0.0
  0
LINE
  5
229
330
22
100
AcDbEntity
  8
_0-F_
  6
Continuous
 62
     4
100
AcDbLine
 10
38167.44408393274
 20
20382.22586519454
 30
0.0
 11
39167.44243433392
 21
20382.22586519454
 31
0.0
  0
LINE
  5
22A
330
22
100
AcDbEntity
  8
_0-F_
  6
Continuous
 62
     4
100
AcDbLine
 10
37767.44276425369
 20
19689.40920820552
 30
0.0
 11
38167.44408393274
 21
20382.22586519454
 31
0.0
  0
LINE
  5
22B
330
22
100
AcDbEntity
  8
_0-F_
  6
Continuous
 62
     4
100
AcDbLine
 10
37794.82445502649
 20
15189.25950711283
 30
0.0
 11
37794.82445502649
 21
15289.25983703259
 31
0.0
  0
LINE
  5
22C
330
22
100
AcDbEntity
  8
_0-F_
  6
Continuous
 62
     4
100
AcDbLine
 10
38194.82577470554
 20
15882.07616410185
 30
0.0
 11
39194.82412510672
 21
15882.07616410185
 31
0.0
  0
LINE
  5
22D
330
22
100
AcDbEntity
  8
_0-F_
  6
Continuous
 62
     4
100
AcDbLine
 10
37794.82445502649
 20
15189.25950711283
 30
0.0
 11
38194.82577470554
 21
15882.07616410185
 31
0.0
  0
LINE
  5
22E
330
22
100
AcDbEntity
  8
_0-F_
  6
Continuous
 62
     4
100
AcDbLine
 10
37825.66535451973
 20
10490.28572253724
 30
0.0
 11
37825.66535451973
 21
10590.286052457
 31
0.0
  0
LINE
  5
22F
330
22
100
AcDbEntity
  8
_0-F_
  6
Continuous
 62
     4
100
AcDbLine
 10
38225.66667419879
 20
11183.10237952626
 30
0.0
 11
39225.66502459996
 21
11183.10237952626
 31
0.0
  0
LINE
  5
230
330
22
100
AcDbEntity
  8
_0-F_
  6
Continuous
 62
     4
100
AcDbLine
 10
37825.66535451973
 20
10490.28572253724
 30
0.0
 11
38225.66667419879
 21
11183.10237952626
 31
0.0
  0
LINE
  5
231
330
22
100
AcDbEntity
  8
_0-2_
  6
Continuous
 62
     7
100
AcDbLine
 10
37717.99439009826
 20
19589.40640388753
 30
0.0
 11
37747.37044584152
 21
15189.25950711283
 31
0.0
  0
LINE
  5
232
330
22
100
AcDbEntity
  8
_0-6_
  6
Continuous
 62
     5
100
AcDbLine
 10
15476.94263888416
 20
10340.18872612676
 30
0.0
 11
12576.94296880393
 21
15363.13547047854
 31
0.0
  0
LINE
  5
233
330
22
100
AcDbEntity
  8
_0-6_
  6
Continuous
 62
     5
100
AcDbLine
 10
12576.94296880393
 20
15340.18790132735
 30
0.0
 11
12590.19089690782
 21
15340.18790132735
 31
0.0
  0
LINE
  5
234
330
22
100
AcDbEntity
  8
_0-6_
  6
Continuous
 62
     5
100
AcDbLine
 10
12576.94296880393
 20
15240.18880860671
 30
0.0
 11
12647.92603072327
 21
15240.18880860671
 31
0.0
  0
LINE
  5
235
330
22
100
AcDbEntity
  8
_0-6_
  6
Continuous
 62
     5
100
AcDbLine
 10
12576.94296880393
 20
15140.18847868694
 30
0.0
 11
12705.66116453873
 21
15140.18847868694
 31
0.0
  0
LINE
  5
236
330
22
100
AcDbEntity
  8
_0-6_
  6
Continuous
 62
     5
100
AcDbLine
 10
12576.94296880393
 20
15040.18814876718
 30
0.0
 11
12763.39629835419
 21
15040.18814876718
 31
0.0
  0
LINE
  5
237
330
22
100
AcDbEntity
  8
_0-6_
  6
Continuous
 62
     5
100
AcDbLine
 10
12576.94296880393
 20
14940.18905604653
 30
0.0
 11
12821.13143216964
 21
14940.18905604653
 31
0.0
  0
LINE
  5
238
330
22
100
AcDbEntity
  8
_0-6_
  6
Continuous
 62
     5
100
AcDbLine
 10
12576.94296880393
 20
14840.18872612676
 30
0.0
 11
12878.8665659851
 21
14840.18872612676
 31
0.0
  0
LINE
  5
239
330
22
100
AcDbEntity
  8
_0-6_
  6
Continuous
 62
     5
100
AcDbLine
 10
12576.94296880393
 20
14740.188396207
 30
0.0
 11
12936.60169980055
 21
14740.188396207
 31
0.0
  0
LINE
  5
23A
330
22
100
AcDbEntity
  8
_0-6_
  6
Continuous
 62
     5
100
AcDbLine
 10
12576.94296880393
 20
14640.18806628724
 30
0.0
 11
12994.33683361601
 21
14640.18806628724
 31
0.0
  0
LINE
  5
23B
330
22
100
AcDbEntity
  8
_0-6_
  6
Continuous
 62
     5
100
AcDbLine
 10
12576.94296880393
 20
14540.18773636747
 30
0.0
 11
13052.07196743146
 21
14540.18773636747
 31
0.0
  0
LINE
  5
23C
330
22
100
AcDbEntity
  8
_0-6_
  6
Continuous
 62
     5
100
AcDbLine
 10
12576.94296880393
 20
14440.18864364682
 30
0.0
 11
13109.80710124692
 21
14440.18864364682
 31
0.0
  0
LINE
  5
23D
330
22
100
AcDbEntity
  8
_0-6_
  6
Continuous
 62
     5
100
AcDbLine
 10
12576.94296880393
 20
14340.18831372706
 30
0.0
 11
13167.54223506237
 21
14340.18831372706
 31
0.0
  0
LINE
  5
23E
330
22
100
AcDbEntity
  8
_0-6_
  6
Continuous
 62
     5
100
AcDbLine
 10
12576.94296880393
 20
14240.18922100641
 30
0.0
 11
13225.27613167872
 21
14240.18922100641
 31
0.0
  0
LINE
  5
23F
330
22
100
AcDbEntity
  8
_0-6_
  6
Continuous
 62
     5
100
AcDbLine
 10
12576.94296880393
 20
13940.18823124712
 30
0.0
 11
13398.48153312509
 21
13940.18823124712
 31
0.0
  0
LINE
  5
240
330
22
100
AcDbEntity
  8
_0-6_
  6
Continuous
 62
     5
100
AcDbLine
 10
12576.94296880393
 20
13840.18790132735
 30
0.0
 11
13456.21666694054
 21
13840.18790132735
 31
0.0
  0
LINE
  5
241
330
22
100
AcDbEntity
  8
_0-6_
  6
Continuous
 62
     5
100
AcDbLine
 10
12576.94296880393
 20
13740.18880860671
 30
0.0
 11
13513.951800756
 21
13740.18880860671
 31
0.0
  0
LINE
  5
242
330
22
100
AcDbEntity
  8
_0-6_
  6
Continuous
 62
     5
100
AcDbLine
 10
12576.94296880393
 20
13640.18847868694
 30
0.0
 11
13571.68693457145
 21
13640.18847868694
 31
0.0
  0
LINE
  5
243
330
22
100
AcDbEntity
  8
_0-6_
  6
Continuous
 62
     5
100
AcDbLine
 10
12576.94296880393
 20
13540.18814876718
 30
0.0
 11
13629.42206838691
 21
13540.18814876718
 31
0.0
  0
LINE
  5
244
330
22
100
AcDbEntity
  8
_0-6_
  6
Continuous
 62
     5
100
AcDbLine
 10
12576.94296880393
 20
13440.18905604653
 30
0.0
 11
13687.15596500326
 21
13440.18905604653
 31
0.0
  0
LINE
  5
245
330
22
100
AcDbEntity
  8
_0-6_
  6
Continuous
 62
     5
100
AcDbLine
 10
12576.94296880393
 20
13340.18872612676
 30
0.0
 11
13744.89233601782
 21
13340.18872612676
 31
0.0
  0
LINE
  5
246
330
22
100
AcDbEntity
  8
_0-6_
  6
Continuous
 62
     5
100
AcDbLine
 10
12576.94296880393
 20
13240.188396207
 30
0.0
 11
13802.62746983328
 21
13240.188396207
 31
0.0
  0
LINE
  5
247
330
22
100
AcDbEntity
  8
_0-6_
  6
Continuous
 62
     5
100
AcDbLine
 10
12576.94296880393
 20
13140.18806628723
 30
0.0
 11
13860.36260364874
 21
13140.18806628723
 31
0.0
  0
LINE
  5
248
330
22
100
AcDbEntity
  8
_0-6_
  6
Continuous
 62
     5
100
AcDbLine
 10
12576.94296880393
 20
12940.18864364682
 30
0.0
 11
13975.83163408054
 21
12940.18864364682
 31
0.0
  0
LINE
  5
249
330
22
100
AcDbEntity
  8
_0-6_
  6
Continuous
 62
     5
100
AcDbLine
 10
12576.94296880393
 20
12840.18831372706
 30
0.0
 11
14033.56676789599
 21
12840.18831372706
 31
0.0
  0
LINE
  5
24A
330
22
100
AcDbEntity
  8
_0-6_
  6
Continuous
 62
     5
100
AcDbLine
 10
12576.94296880393
 20
12740.18798380729
 30
0.0
 11
14091.30190171145
 21
12740.18798380729
 31
0.0
  0
LINE
  5
24B
330
22
100
AcDbEntity
  8
_0-6_
  6
Continuous
 62
     5
100
AcDbLine
 10
12576.94296880393
 20
12640.18889108664
 30
0.0
 11
14149.0370355269
 21
12640.18889108664
 31
0.0
  0
LINE
  5
24C
330
22
100
AcDbEntity
  8
_0-6_
  6
Continuous
 62
     5
100
AcDbLine
 10
12576.94296880393
 20
12540.18856116688
 30
0.0
 11
14206.77216934236
 21
12540.18856116688
 31
0.0
  0
LINE
  5
24D
330
22
100
AcDbEntity
  8
_0-6_
  6
Continuous
 62
     5
100
AcDbLine
 10
12576.94296880393
 20
12440.18823124712
 30
0.0
 11
14264.50730315781
 21
12440.18823124712
 31
0.0
  0
LINE
  5
24E
330
22
100
AcDbEntity
  8
_0-6_
  6
Continuous
 62
     5
100
AcDbLine
 10
12576.94296880393
 20
12340.18790132735
 30
0.0
 11
14322.24243697327
 21
12340.18790132735
 31
0.0
  0
LINE
  5
24F
330
22
100
AcDbEntity
  8
_0-6_
  6
Continuous
 62
     5
100
AcDbLine
 10
12576.94296880393
 20
12140.18847868694
 30
0.0
 11
14437.71270460419
 21
12140.18847868694
 31
0.0
  0
LINE
  5
250
330
22
100
AcDbEntity
  8
_0-6_
  6
Continuous
 62
     5
100
AcDbLine
 10
12576.94296880393
 20
12040.18814876718
 30
0.0
 11
14495.44783841964
 21
12040.18814876718
 31
0.0
  0
LINE
  5
251
330
22
100
AcDbEntity
  8
_0-6_
  6
Continuous
 62
     5
100
AcDbLine
 10
12576.94296880393
 20
11940.18905604653
 30
0.0
 11
14553.18173503598
 21
11940.18905604653
 31
0.0
  0
LINE
  5
252
330
22
100
AcDbEntity
  8
_0-6_
  6
Continuous
 62
     5
100
AcDbLine
 10
12576.94296880393
 20
11840.18872612676
 30
0.0
 11
14610.91686885144
 21
11840.18872612676
 31
0.0
  0
LINE
  5
253
330
22
100
AcDbEntity
  8
_0-6_
  6
Continuous
 62
     5
100
AcDbLine
 10
12576.94296880393
 20
11740.188396207
 30
0.0
 11
14668.65200266689
 21
11740.188396207
 31
0.0
  0
LINE
  5
254
330
22
100
AcDbEntity
  8
_0-6_
  6
Continuous
 62
     5
100
AcDbLine
 10
12576.94296880393
 20
11640.18806628724
 30
0.0
 11
14726.38713648235
 21
11640.18806628724
 31
0.0
  0
LINE
  5
255
330
22
100
AcDbEntity
  8
_0-6_
  6
Continuous
 62
     5
100
AcDbLine
 10
12576.94296880393
 20
11540.18897356658
 30
0.0
 11
14784.12227029781
 21
11540.18897356658
 31
0.0
  0
LINE
  5
256
330
22
100
AcDbEntity
  8
_0-6_
  6
Continuous
 62
     5
100
AcDbLine
 10
12576.94296880393
 20
11440.18864364682
 30
0.0
 11
14841.85740411326
 21
11440.18864364682
 31
0.0
  0
LINE
  5
257
330
22
100
AcDbEntity
  8
_0-6_
  6
Continuous
 62
     5
100
AcDbLine
 10
12576.94296880393
 20
11340.18831372706
 30
0.0
 11
14899.59253792872
 21
11340.18831372706
 31
0.0
  0
LINE
  5
258
330
22
100
AcDbEntity
  8
_0-6_
  6
Continuous
 62
     5
100
AcDbLine
 10
12576.94296880393
 20
11040.18856116688
 30
0.0
 11
15072.79793937509
 21
11040.18856116688
 31
0.0
  0
LINE
  5
259
330
22
100
AcDbEntity
  8
_0-6_
  6
Continuous
 62
     5
100
AcDbLine
 10
12576.94296880393
 20
11140.18889108664
 30
0.0
 11
15015.06156836052
 21
11140.18889108664
 31
0.0
  0
LINE
  5
25A
330
22
100
AcDbEntity
  8
_0-6_
  6
Continuous
 62
     5
100
AcDbLine
 10
12576.94296880393
 20
10940.18823124712
 30
0.0
 11
15130.53307319054
 21
10940.18823124712
 31
0.0
  0
LINE
  5
25B
330
22
100
AcDbEntity
  8
_0-6_
  6
Continuous
 62
     5
100
AcDbLine
 10
12576.94296880393
 20
10840.18790132735
 30
0.0
 11
15188.268207006
 21
10840.18790132735
 31
0.0
  0
LINE
  5
25C
330
22
100
AcDbEntity
  8
_0-6_
  6
Continuous
 62
     5
100
AcDbLine
 10
12576.94296880393
 20
10740.18880860671
 30
0.0
 11
15246.00210362234
 21
10740.18880860671
 31
0.0
  0
LINE
  5
25D
330
22
100
AcDbEntity
  8
_0-6_
  6
Continuous
 62
     5
100
AcDbLine
 10
12576.94296880393
 20
10640.18847868694
 30
0.0
 11
15303.7372374378
 21
10640.18847868694
 31
0.0
  0
LINE
  5
25E
330
22
100
AcDbEntity
  8
_0-6_
  6
Continuous
 62
     5
100
AcDbLine
 10
12576.94296880393
 20
10540.18814876718
 30
0.0
 11
15361.47237125326
 21
10540.18814876718
 31
0.0
  0
LINE
  5
25F
330
22
100
AcDbEntity
  8
_0-6_
  6
Continuous
 62
     5
100
AcDbLine
 10
12676.94329872369
 20
15189.93130623128
 30
0.0
 11
12676.94329872369
 21
10340.18872612676
 31
0.0
  0
LINE
  5
260
330
22
100
AcDbEntity
  8
_0-6_
  6
Continuous
 62
     5
100
AcDbLine
 10
12776.94362864346
 20
15016.7246675858
 30
0.0
 11
12776.94362864346
 21
10340.18872612676
 31
0.0
  0
LINE
  5
261
330
22
100
AcDbEntity
  8
_0-6_
  6
Continuous
 62
     5
100
AcDbLine
 10
12876.94272136411
 20
14843.52174053766
 30
0.0
 11
12876.94272136411
 21
10340.18872612676
 31
0.0
  0
LINE
  5
262
330
22
100
AcDbEntity
  8
_0-6_
  6
Continuous
 62
     5
100
AcDbLine
 10
12576.94296880393
 20
10440.18781884741
 30
0.0
 11
15419.20750506871
 21
10440.18781884741
 31
0.0
  0
LINE
  5
263
330
22
100
AcDbEntity
  8
_0-6_
  6
Continuous
 62
     5
100
AcDbLine
 10
15376.9423089644
 20
10513.39412757313
 30
0.0
 11
15376.9423089644
 21
10340.18872612676
 31
0.0
  0
LINE
  5
264
330
22
100
AcDbEntity
  8
_0-6_
  6
Continuous
 62
     5
100
AcDbLine
 10
15276.94321624375
 20
10686.59829182039
 30
0.0
 11
15276.94321624375
 21
10340.18872612676
 31
0.0
  0
LINE
  5
265
330
22
100
AcDbEntity
  8
_0-6_
  6
Continuous
 62
     5
100
AcDbLine
 10
15176.94288632399
 20
10859.80369326675
 30
0.0
 11
15176.94288632399
 21
10340.18872612676
 31
0.0
  0
LINE
  5
266
330
22
100
AcDbEntity
  8
_0-6_
  6
Continuous
 62
     5
100
AcDbLine
 10
15076.94255640423
 20
11033.00909471312
 30
0.0
 11
15076.94255640423
 21
10340.18872612676
 31
0.0
  0
LINE
  5
267
330
22
100
AcDbEntity
  8
_0-6_
  6
Continuous
 62
     5
100
AcDbLine
 10
14976.94222648446
 20
11206.21449615949
 30
0.0
 11
14976.94222648446
 21
10340.18872612676
 31
0.0
  0
LINE
  5
268
330
22
100
AcDbEntity
  8
_0-6_
  6
Continuous
 62
     5
100
AcDbLine
 10
14876.94313376381
 20
11379.41866040675
 30
0.0
 11
14876.94313376381
 21
10340.18872612676
 31
0.0
  0
LINE
  5
269
330
22
100
AcDbEntity
  8
_0-6_
  6
Continuous
 62
     5
100
AcDbLine
 10
12576.94296880393
 20
11240.18798380729
 30
0.0
 11
14957.32767174418
 21
11240.18798380729
 31
0.0
  0
LINE
  5
26A
330
22
100
AcDbEntity
  8
_0-6_
  6
Continuous
 62
     5
100
AcDbLine
 10
14776.94280384405
 20
11552.62406185311
 30
0.0
 11
14776.94280384405
 21
10340.18872612676
 31
0.0
  0
LINE
  5
26B
330
22
100
AcDbEntity
  8
_0-6_
  6
Continuous
 62
     5
100
AcDbLine
 10
14676.94247392429
 20
11725.82946329948
 30
0.0
 11
14676.94247392429
 21
10340.18872612676
 31
0.0
  0
LINE
  5
26C
330
22
100
AcDbEntity
  8
_0-6_
  6
Continuous
 62
     5
100
AcDbLine
 10
14576.94214400452
 20
11899.03486474585
 30
0.0
 11
14576.94214400452
 21
10340.18872612676
 31
0.0
  0
LINE
  5
26D
330
22
100
AcDbEntity
  8
_0-6_
  6
Continuous
 62
     5
100
AcDbLine
 10
14476.94305128387
 20
12072.2390289931
 30
0.0
 11
14476.94305128387
 21
10340.18872612676
 31
0.0
  0
LINE
  5
26E
330
22
100
AcDbEntity
  8
_0-6_
  6
Continuous
 62
     5
100
AcDbLine
 10
14376.94272136411
 20
12245.44443043947
 30
0.0
 11
14376.94272136411
 21
10340.18872612676
 31
0.0
  0
LINE
  5
26F
330
22
100
AcDbEntity
  8
_0-6_
  6
Continuous
 62
     5
100
AcDbLine
 10
12576.94296880393
 20
12240.18880860671
 30
0.0
 11
14379.97757078873
 21
12240.18880860671
 31
0.0
  0
LINE
  5
270
330
22
100
AcDbEntity
  8
_0-6_
  6
Continuous
 62
     5
100
AcDbLine
 10
14176.94329872369
 20
12591.8539961331
 30
0.0
 11
14176.94329872369
 21
10340.18872612676
 31
0.0
  0
LINE
  5
271
330
22
100
AcDbEntity
  8
_0-6_
  6
Continuous
 62
     5
100
AcDbLine
 10
14276.94239144434
 20
12418.64983188584
 30
0.0
 11
14276.94239144434
 21
10340.18872612676
 31
0.0
  0
LINE
  5
272
330
22
100
AcDbEntity
  8
_0-6_
  6
Continuous
 62
     5
100
AcDbLine
 10
14076.94296880393
 20
12765.05939757947
 30
0.0
 11
14076.94296880393
 21
10340.18872612676
 31
0.0
  0
LINE
  5
273
330
22
100
AcDbEntity
  8
_0-6_
  6
Continuous
 62
     5
100
AcDbLine
 10
13976.94263888417
 20
12938.26479902583
 30
0.0
 11
13976.94263888417
 21
10340.18872612676
 31
0.0
  0
LINE
  5
274
330
22
100
AcDbEntity
  8
_0-6_
  6
Continuous
 62
     5
100
AcDbLine
 10
13876.9423089644
 20
13111.4702004722
 30
0.0
 11
13876.9423089644
 21
10340.18872612676
 31
0.0
  0
LINE
  5
275
330
22
100
AcDbEntity
  8
_0-6_
  6
Continuous
 62
     5
100
AcDbLine
 10
12576.94296880393
 20
13040.18773636747
 30
0.0
 11
13918.09773746419
 21
13040.18773636747
 31
0.0
  0
LINE
  5
276
330
22
100
AcDbEntity
  8
_0-6_
  6
Continuous
 62
     5
100
AcDbLine
 10
13776.94321624375
 20
13284.67436471945
 30
0.0
 11
13776.94321624375
 21
10340.18872612676
 31
0.0
  0
LINE
  5
277
330
22
100
AcDbEntity
  8
_0-6_
  6
Continuous
 62
     5
100
AcDbLine
 10
13676.94288632399
 20
13457.87976616582
 30
0.0
 11
13676.94288632399
 21
10340.18872612676
 31
0.0
  0
LINE
  5
278
330
22
100
AcDbEntity
  8
_0-6_
  6
Continuous
 62
     5
100
AcDbLine
 10
13576.94255640423
 20
13631.08516761219
 30
0.0
 11
13576.94255640423
 21
10340.18872612676
 31
0.0
  0
LINE
  5
279
330
22
100
AcDbEntity
  8
_0-6_
  6
Continuous
 62
     5
100
AcDbLine
 10
13476.94222648446
 20
13804.29056905856
 30
0.0
 11
13476.94222648446
 21
10340.18872612676
 31
0.0
  0
LINE
  5
27A
330
22
100
AcDbEntity
  8
_0-6_
  6
Continuous
 62
     5
100
AcDbLine
 10
13376.94313376381
 20
13977.49473330581
 30
0.0
 11
13376.94313376381
 21
10340.18872612676
 31
0.0
  0
LINE
  5
27B
330
22
100
AcDbEntity
  8
_0-6_
  6
Continuous
 62
     5
100
AcDbLine
 10
13276.94280384405
 20
14150.70013475219
 30
0.0
 11
13276.94280384405
 21
10340.18872612676
 31
0.0
  0
LINE
  5
27C
330
22
100
AcDbEntity
  8
_0-6_
  6
Continuous
 62
     5
100
AcDbLine
 10
13176.94247392429
 20
14323.90553619856
 30
0.0
 11
13176.94247392429
 21
10340.18872612676
 31
0.0
  0
LINE
  5
27D
330
22
100
AcDbEntity
  8
_0-6_
  6
Continuous
 62
     5
100
AcDbLine
 10
13076.94214400452
 20
14497.11093764492
 30
0.0
 11
13076.94214400452
 21
10340.18872612676
 31
0.0
  0
LINE
  5
27E
330
22
100
AcDbEntity
  8
_0-6_
  6
Continuous
 62
     5
100
AcDbLine
 10
12576.94296880393
 20
14140.18889108664
 30
0.0
 11
13283.01126549418
 21
14140.18889108664
 31
0.0
  0
LINE
  5
27F
330
22
100
AcDbEntity
  8
_0-6_
  6
Continuous
 62
     5
100
AcDbLine
 10
12576.94296880393
 20
14040.18856116688
 30
0.0
 11
13340.74639930963
 21
14040.18856116688
 31
0.0
  0
LINE
  5
280
330
22
100
AcDbEntity
  8
_0-6_
  6
Continuous
 62
     5
100
AcDbLine
 10
12976.94305128387
 20
14670.31510189218
 30
0.0
 11
12976.94305128387
 21
10340.18872612676
 31
0.0
  0
LINE
  5
281
330
22
100
AcDbEntity
  8
_0-2_
  6
Continuous
 62
     7
100
AcDbLine
 10
12748.03894576233
 20
15089.25917719306
 30
0.0
 11
12778.74375335313
 21
10490.28324813901
 31
0.0
  0
LINE
  5
282
330
22
100
AcDbEntity
  8
_0-6_
  6
Continuous
 62
     7
100
AcDbLine
 10
12601.94305128387
 20
24025.12772396249
 30
0.0
 11
12551.94288632399
 21
24025.12772396249
 31
0.0
  0
LINE
  5
283
330
22
100
AcDbEntity
  8
_0-3_
  6
Continuous
 62
     6
100
AcDbLine
 10
12576.94296880393
 20
19664.99060930878
 30
0.0
 11
12576.94296880393
 21
23975.12755900261
 31
0.0
  0
LINE
  5
284
330
22
100
AcDbEntity
  8
_0-6_
  6
Continuous
 62
     7
100
AcDbLine
 10
18601.94305128388
 20
24025.12772396249
 30
0.0
 11
18551.94288632399
 21
24025.12772396249
 31
0.0
  0
LINE
  5
285
330
22
100
AcDbEntity
  8
_0-0_
  6
CENTER1
 62
     4
100
AcDbLine
 10
18576.94296880393
 20
25240.19087060523
 30
0.0
 11
18576.94296880393
 21
6240.189427206264
 31
0.0
  0
LINE
  5
286
330
22
100
AcDbEntity
  8
_0-2_
  6
Continuous
 62
     7
100
AcDbLine
 10
24551.94412352311
 20
24165.57209289197
 30
0.0
 11
24551.94412352311
 21
24015.5691236141
 31
0.0
  0
LINE
  5
287
330
22
100
AcDbEntity
  8
_0-0_
  6
Continuous
 62
     7
100
AcDbLine
 10
24551.94412352311
 20
24015.5691236141
 30
0.0
 11
24601.94181408477
 21
24015.5691236141
 31
0.0
  0
LINE
  5
288
330
22
100
AcDbEntity
  8
_0-2_
  6
Continuous
 62
     7
100
AcDbLine
 10
24601.94181408477
 20
24165.57209289197
 30
0.0
 11
24601.94181408477
 21
24015.5691236141
 31
0.0
  0
LINE
  5
289
330
22
100
AcDbEntity
  8
_0-0_
  6
Continuous
 62
     7
100
AcDbLine
 10
24551.94412352311
 20
24165.57209289197
 30
0.0
 11
24601.94181408477
 21
24165.57209289197
 31
0.0
  0
LINE
  5
28A
330
22
100
AcDbEntity
  8
_0-0_
  6
Continuous
 62
     7
100
AcDbLine
 10
24414.94411692471
 20
24090.57308265126
 30
0.0
 11
24551.94412352311
 21
24090.57308265126
 31
0.0
  0
LINE
  5
28B
330
22
100
AcDbEntity
  8
_0-0_
  6
Continuous
 62
     7
100
AcDbLine
 10
24738.94182068316
 20
24090.57308265126
 30
0.0
 11
24601.94181408477
 21
24090.57308265126
 31
0.0
  0
LINE
  5
28C
330
22
100
AcDbEntity
  8
_0-2_
  6
Continuous
 62
     7
100
AcDbLine
 10
30466.94359565149
 20
24240.19252020404
 30
0.0
 11
30466.60212869625
 21
24189.59602527161
 31
0.0
  0
LINE
  5
28D
330
22
100
AcDbEntity
  8
_0-2_
  6
Continuous
 62
     7
100
AcDbLine
 10
30686.94234195638
 20
24240.19252020404
 30
0.0
 11
30687.27886011517
 21
24189.59602527161
 31
0.0
  0
LINE
  5
28E
330
22
100
AcDbEntity
  8
_0-2_
  6
Continuous
 62
     7
100
AcDbLine
 10
30687.94694763628
 20
24089.59569535185
 30
0.0
 11
30717.31805458308
 21
19689.40920820552
 31
0.0
  0
LINE
  5
28F
330
22
100
AcDbEntity
  8
_0-2_
  6
Continuous
 62
     7
100
AcDbLine
 10
30436.5678830248
 20
19689.40920820552
 30
0.0
 11
30465.93898997159
 21
24089.59569535185
 31
0.0
  0
LINE
  5
290
330
22
100
AcDbEntity
  8
_0-2_
  6
Continuous
 62
     7
100
AcDbLine
 10
24687.94447323805
 20
24090.57308265126
 30
0.0
 11
24717.32547777775
 21
19689.40920820552
 31
0.0
  0
LINE
  5
291
330
22
100
AcDbEntity
  8
_0-2_
  6
Continuous
 62
     7
100
AcDbLine
 10
24465.94146436981
 20
24090.57308265126
 30
0.0
 11
24436.56045983012
 21
19689.40920820552
 31
0.0
  0
LINE
  5
292
330
22
100
AcDbEntity
  8
_0-2_
  6
Continuous
 62
     7
100
AcDbLine
 10
24466.94112125326
 20
24240.19252020404
 30
0.0
 11
24466.60955189092
 21
24190.57341257103
 31
0.0
  0
LINE
  5
293
330
22
100
AcDbEntity
  8
_0-2_
  6
Continuous
 62
     7
100
AcDbLine
 10
24686.93986755816
 20
24240.19252020404
 30
0.0
 11
24687.27391131872
 21
24190.57341257103
 31
0.0
  0
LINE
  5
294
330
22
100
AcDbEntity
  8
_0-2_
  6
Continuous
 62
     7
100
AcDbLine
 10
30551.94164912488
 20
24164.59470559256
 30
0.0
 11
30551.94164912488
 21
24014.59173631469
 31
0.0
  0
LINE
  5
295
330
22
100
AcDbEntity
  8
_0-0_
  6
Continuous
 62
     7
100
AcDbLine
 10
30551.94164912488
 20
24014.59173631469
 30
0.0
 11
30601.93933968653
 21
24014.59173631469
 31
0.0
  0
LINE
  5
296
330
22
100
AcDbEntity
  8
_0-2_
  6
Continuous
 62
     7
100
AcDbLine
 10
30601.93933968653
 20
24164.59470559256
 30
0.0
 11
30601.93933968653
 21
24014.59173631469
 31
0.0
  0
LINE
  5
297
330
22
100
AcDbEntity
  8
_0-0_
  6
Continuous
 62
     7
100
AcDbLine
 10
30551.94164912488
 20
24164.59470559256
 30
0.0
 11
30601.93933968653
 21
24164.59470559256
 31
0.0
  0
LINE
  5
298
330
22
100
AcDbEntity
  8
_0-0_
  6
Continuous
 62
     7
100
AcDbLine
 10
30414.94164252649
 20
24089.59569535185
 30
0.0
 11
30551.94164912488
 21
24089.59569535185
 31
0.0
  0
LINE
  5
299
330
22
100
AcDbEntity
  8
_0-0_
  6
Continuous
 62
     7
100
AcDbLine
 10
30738.93934628493
 20
24089.59569535185
 30
0.0
 11
30601.93933968653
 21
24089.59569535185
 31
0.0
  0
LINE
  5
29A
330
22
100
AcDbEntity
  8
_0-2_
  6
Continuous
 62
     7
100
AcDbLine
 10
24601.94428848299
 20
24015.5691236141
 30
0.0
 11
24551.94164912488
 21
24015.5691236141
 31
0.0
  0
LINE
  5
29B
330
22
100
AcDbEntity
  8
_0-6_
  6
Continuous
 62
     7
100
AcDbLine
 10
24601.94428848299
 20
24015.5691236141
 30
0.0
 11
24551.94164912488
 21
24015.5691236141
 31
0.0
  0
LINE
  5
29C
330
22
100
AcDbEntity
  8
_0-3_
  6
Continuous
 62
     6
100
AcDbLine
 10
24576.94296880393
 20
19664.40912572558
 30
0.0
 11
24576.94296880393
 21
23965.56895865421
 31
0.0
  0
LINE
  5
29D
330
22
100
AcDbEntity
  8
_0-2_
  6
Continuous
 62
     7
100
AcDbLine
 10
30601.94181408477
 20
24014.59173631469
 30
0.0
 11
30551.93917472665
 21
24014.59173631469
 31
0.0
  0
LINE
  5
29E
330
22
100
AcDbEntity
  8
_0-6_
  6
Continuous
 62
     7
100
AcDbLine
 10
30601.94181408477
 20
24014.59173631469
 30
0.0
 11
30551.93917472665
 21
24014.59173631469
 31
0.0
  0
LINE
  5
29F
330
22
100
AcDbEntity
  8
_0-0_
  6
CENTER1
 62
     4
100
AcDbLine
 10
30576.9404944057
 20
25242.05161807144
 30
0.0
 11
30576.9404944057
 21
15014.60163390759
 31
0.0
  0
LINE
  5
2A0
330
22
100
AcDbEntity
  8
_0-3_
  6
Continuous
 62
     6
100
AcDbLine
 10
30728.5790409112
 20
24089.59569535185
 30
0.0
 11
32576.94214400453
 21
19569.41574061684
 31
0.0
  0
LINE
  5
2A1
330
22
100
AcDbEntity
  8
_0-6_
  6
DASHED1
 62
     5
100
AcDbLine
 10
37414.94494172412
 20
24061.48158270404
 30
0.0
 11
37327.8411753601
 21
10490.28572253724
 31
0.0
  0
LINE
  5
2A2
330
22
100
AcDbEntity
  8
_0-3_
  6
Continuous
 62
     6
100
AcDbLine
 10
12815.87333593864
 20
10490.28324813901
 30
0.0
 11
18434.1367867674
 21
24085.12693215506
 31
0.0
  0
LINE
  5
2A3
330
22
100
AcDbEntity
  8
_0-0_
  6
CENTER1
 62
     4
100
AcDbLine
 10
12576.94296880393
 20
10490.95752165569
 30
0.0
 11
12576.94296880393
 21
6240.189427206264
 31
0.0
  0
LINE
  5
2A4
330
22
100
AcDbEntity
  8
_0-3_
  6
Continuous
 62
     6
100
AcDbLine
 10
12576.94296880393
 20
10440.9190035233
 30
0.0
 11
12576.94296880393
 21
10440.72228886431
 31
0.0
  0
LINE
  5
2A5
330
22
100
AcDbEntity
  8
_0-2_
  6
Continuous
 62
     7
100
AcDbLine
 10
12493.54708818209
 20
10390.28291821924
 30
0.0
 11
12539.13540110439
 21
10390.28291821924
 31
0.0
  0
LINE
  5
2A6
330
22
100
AcDbEntity
  8
_0-2_
  6
Continuous
 62
     7
100
AcDbLine
 10
12614.12946254865
 20
10465.28440285818
 30
0.0
 11
12614.12946254865
 21
10315.28390797854
 31
0.0
  0
LINE
  5
2A7
330
22
100
AcDbEntity
  8
_0-2_
  6
Continuous
 62
     7
100
AcDbLine
 10
12614.12946254865
 20
10390.28291821924
 30
0.0
 11
12825.17583607061
 21
10390.28291821924
 31
0.0
  0
LINE
  5
2A8
330
22
100
AcDbEntity
  8
_0-3_
  6
Continuous
 62
     6
100
AcDbLine
 10
12719.30499635883
 20
24085.12693215506
 30
0.0
 11
18337.02779117513
 21
10490.28324813901
 31
0.0
  0
LINE
  5
2A9
330
22
100
AcDbEntity
  8
_0-3_
  6
Continuous
 62
     6
100
AcDbLine
 10
18816.18387291604
 20
10490.28324813901
 30
0.0
 11
24423.26799255816
 21
24090.57308265126
 31
0.0
  0
LINE
  5
2AA
330
22
100
AcDbEntity
  8
_0-3_
  6
Continuous
 62
     6
100
AcDbLine
 10
18614.61815619836
 20
10340.18872612676
 30
0.0
 11
24539.6240947541
 21
10340.18872612676
 31
0.0
  0
LINE
  5
2AB
330
22
100
AcDbEntity
  8
_0-3_
  6
Continuous
 62
     6
100
AcDbLine
 10
18718.98456178852
 20
24085.12693215506
 30
0.0
 11
24337.33214215698
 21
10490.28572253724
 31
0.0
  0
LINE
  5
2AC
330
22
100
AcDbEntity
  8
_0-3_
  6
Continuous
 62
     6
100
AcDbLine
 10
24816.60328341542
 20
10490.28572253724
 30
0.0
 11
30423.13932385038
 21
24089.59569535185
 31
0.0
  0
LINE
  5
2AD
330
22
100
AcDbEntity
  8
_0-0_
  6
CENTER1
 62
     4
100
AcDbLine
 10
24576.94296880393
 20
15097.51129527795
 30
0.0
 11
24576.94296880393
 21
6240.189427206264
 31
0.0
  0
LINE
  5
2AE
330
22
100
AcDbEntity
  8
_0-3_
  6
Continuous
 62
     6
100
AcDbLine
 10
24614.61815619836
 20
10340.18872612676
 30
0.0
 11
30539.62162035588
 21
10340.18872612676
 31
0.0
  0
LINE
  5
2AF
330
22
100
AcDbEntity
  8
_0-3_
  6
Continuous
 62
     6
100
AcDbLine
 10
24729.13825491036
 20
24090.57308265126
 30
0.0
 11
30337.21584544034
 21
10490.28572253724
 31
0.0
  0
LINE
  5
2B0
330
22
100
AcDbEntity
  8
_0-0_
  6
Continuous
 62
     7
100
AcDbLine
 10
30825.66205532209
 20
10490.28572253724
 30
0.0
 11
30825.66205532209
 21
10390.28539261747
 31
0.0
  0
LINE
  5
2B1
330
22
100
AcDbEntity
  8
_0-3_
  6
Continuous
 62
     6
100
AcDbLine
 10
30815.18050443526
 20
10490.28572253724
 30
0.0
 11
32576.94214400453
 21
14799.97233175388
 31
0.0
  0
LINE
  5
2B2
330
22
100
AcDbEntity
  8
_0-3_
  6
Continuous
 62
     6
100
AcDbLine
 10
27265.31725617725
 20
10340.18996332588
 30
0.0
 11
30539.43356609067
 21
10340.18996332588
 31
0.0
  0
LINE
  5
2B3
330
22
100
AcDbEntity
  8
_0-3_
  6
Continuous
 62
     6
100
AcDbLine
 10
12576.94296880393
 20
15014.67339145615
 30
0.0
 11
12576.94296880393
 21
10450.11634173065
 31
0.0
  0
LINE
  5
2B4
330
22
100
AcDbEntity
  8
_0-3_
  6
Continuous
 62
     6
100
AcDbLine
 10
30601.93933968653
 20
24040.19186036452
 30
0.0
 11
32576.94214400453
 21
24040.19186036452
 31
0.0
  0
LINE
  5
2B5
330
22
100
AcDbEntity
  8
_0-3_
  6
Continuous
 62
     6
100
AcDbLine
 10
24601.94181408477
 20
24040.19186036452
 30
0.0
 11
30551.94164912488
 21
24040.19186036452
 31
0.0
  0
LINE
  5
2B6
330
22
100
AcDbEntity
  8
_0-3_
  6
Continuous
 62
     6
100
AcDbLine
 10
18601.94305128388
 20
24040.19186036452
 30
0.0
 11
24551.94412352311
 21
24040.19186036452
 31
0.0
  0
LINE
  5
2B7
330
22
100
AcDbEntity
  8
_0-3_
  6
Continuous
 62
     6
100
AcDbLine
 10
12601.94305128387
 20
24040.19186036452
 30
0.0
 11
18551.94288632399
 21
24040.19186036452
 31
0.0
  0
LINE
  5
2B8
330
22
100
AcDbEntity
  8
ADD_LINE
  6
DOT
 62
     7
100
AcDbLine
 10
30576.9404944057
 20
19744.89016523677
 30
0.0
 11
30576.9404944057
 21
19482.39857819074
 31
0.0
  0
LINE
  5
2B9
330
22
100
AcDbEntity
  8
_0-3_
  6
Continuous
 62
     6
100
AcDbLine
 10
27265.31725617725
 20
19540.19186036452
 30
0.0
 11
30538.78774815359
 21
19540.19186036452
 31
0.0
  0
LINE
  5
2BA
330
22
100
AcDbEntity
  8
_0-3_
  6
Continuous
 62
     6
100
AcDbLine
 10
30613.92037589853
 20
19540.19186036452
 30
0.0
 11
32576.94214400453
 21
19540.19186036452
 31
0.0
  0
LINE
  5
2BB
330
22
100
AcDbEntity
  8
_0-3_
  6
Continuous
 62
     6
100
AcDbLine
 10
30614.43752512785
 20
19539.85410500662
 30
0.0
 11
32576.94214400453
 21
19539.85410500662
 31
0.0
  0
LINE
  5
2BC
330
22
100
AcDbEntity
  8
_0-3_
  6
Continuous
 62
     6
100
AcDbLine
 10
30614.44247392429
 20
15040.19186036452
 30
0.0
 11
32576.94214400453
 21
15040.19186036452
 31
0.0
  0
LINE
  5
2BD
330
22
100
AcDbEntity
  8
_0-0_
  6
CENTER1
 62
     4
100
AcDbLine
 10
30576.9404944057
 20
10465.52194508791
 30
0.0
 11
30576.9404944057
 21
6240.189427206264
 31
0.0
  0
LINE
  5
2BE
330
22
100
AcDbEntity
  8
_0-3_
  6
Continuous
 62
     6
100
AcDbLine
 10
30614.59836101255
 20
10340.18996332588
 30
0.0
 11
32576.94214400453
 21
10340.18996332588
 31
0.0
  0
LINE
  5
2BF
330
22
100
AcDbEntity
  8
_0-3_
  6
Continuous
 62
     6
100
AcDbLine
 10
24614.43505072961
 20
15040.19186036452
 30
0.0
 11
30539.44346368357
 21
15040.19186036452
 31
0.0
  0
LINE
  5
2C0
330
22
100
AcDbEntity
  8
_0-3_
  6
Continuous
 62
     6
100
AcDbLine
 10
24576.93307121103
 20
15014.25892975324
 30
0.0
 11
24576.93307121103
 21
10465.28687725641
 31
0.0
  0
LINE
  5
2C1
330
22
100
AcDbEntity
  8
ADD_LINE
  6
DOT
 62
     7
100
AcDbLine
 10
30576.9404944057
 20
15244.74046414408
 30
0.0
 11
30576.9404944057
 21
15164.25942463289
 31
0.0
  0
LINE
  5
2C2
330
22
100
AcDbEntity
  8
_0-3_
  6
Continuous
 62
     6
100
AcDbLine
 10
30576.9404944057
 20
15014.60163390759
 30
0.0
 11
30576.9404944057
 21
10465.28687725641
 31
0.0
  0
LINE
  5
2C3
330
22
100
AcDbEntity
  8
ADD_LINE
  6
DOT
 62
     7
100
AcDbLine
 10
24576.94296880393
 20
19744.89016523677
 30
0.0
 11
24576.94296880393
 21
19482.39857819074
 31
0.0
  0
LINE
  5
2C4
330
22
100
AcDbEntity
  8
_0-0_
  6
CENTER1
 62
     4
100
AcDbLine
 10
24576.94296880393
 20
23866.99883090928
 30
0.0
 11
24576.94296880393
 21
19514.40739364682
 31
0.0
  0
LINE
  5
2C5
330
22
100
AcDbEntity
  8
_0-3_
  6
Continuous
 62
     6
100
AcDbLine
 10
24576.94296880393
 20
19514.40739364682
 30
0.0
 11
24576.94296880393
 21
15164.25942463289
 31
0.0
  0
LINE
  5
2C6
330
22
100
AcDbEntity
  8
_0-0_
  6
CENTER1
 62
     4
100
AcDbLine
 10
24576.93307121103
 20
15164.25942463289
 30
0.0
 11
24576.93307121103
 21
15097.51129527795
 31
0.0
  0
LINE
  5
2C7
330
22
100
AcDbEntity
  8
_0-3_
  6
Continuous
 62
     6
100
AcDbLine
 10
24614.43999952606
 20
19539.85410500662
 30
0.0
 11
30539.43851488713
 21
19539.85410500662
 31
0.0
  0
LINE
  5
2C8
330
22
100
AcDbEntity
  8
_0-3_
  6
Continuous
 62
     6
100
AcDbLine
 10
18576.94296880393
 20
19516.30401988732
 30
0.0
 11
18576.94296880393
 21
10465.28440285818
 31
0.0
  0
LINE
  5
2C9
330
22
100
AcDbEntity
  8
_0-3_
  6
Continuous
 62
     6
100
AcDbLine
 10
18614.4350507296
 20
15040.19186036452
 30
0.0
 11
24539.4360404889
 21
15040.19186036452
 31
0.0
  0
LINE
  5
2CA
330
22
100
AcDbEntity
  8
ADD_LINE
  6
DOT
 62
     7
100
AcDbLine
 10
18576.93307121103
 20
15244.74046414408
 30
0.0
 11
18576.93307121103
 21
15164.25942463289
 31
0.0
  0
LINE
  5
2CB
330
22
100
AcDbEntity
  8
_0-3_
  6
Continuous
 62
     6
100
AcDbLine
 10
18576.94296880393
 20
24040.41208180667
 30
0.0
 11
18576.94296880393
 21
19665.21701674649
 31
0.0
  0
LINE
  5
2CC
330
22
100
AcDbEntity
  8
_0-3_
  6
Continuous
 62
     6
100
AcDbLine
 10
12614.44494832251
 20
19539.85410500662
 30
0.0
 11
18539.05003436559
 21
19539.85410500662
 31
0.0
  0
LINE
  5
2CD
330
22
100
AcDbEntity
  8
_0-3_
  6
Continuous
 62
     6
100
AcDbLine
 10
18614.32865160588
 20
19539.85410500662
 30
0.0
 11
24539.44098928536
 21
19539.85410500662
 31
0.0
  0
LINE
  5
2CE
330
22
100
AcDbEntity
  8
ADD_LINE
  6
DOT
 62
     7
100
AcDbLine
 10
18576.94296880393
 20
19745.47164881997
 30
0.0
 11
18576.94296880393
 21
19665.21701674649
 31
0.0
  0
LINE
  5
2CF
330
22
100
AcDbEntity
  8
ADD_LINE
  6
DOT
 62
     7
100
AcDbLine
 10
18576.94296880393
 20
19515.06558357504
 30
0.0
 11
18576.94296880393
 21
19482.98006177393
 31
0.0
  0
LINE
  5
2D0
330
22
100
AcDbEntity
  8
_0-0_
  6
CENTER1
 62
     4
100
AcDbLine
 10
12576.94296880393
 20
23892.56431338394
 30
0.0
 11
12576.94296880393
 21
19515.04826278745
 31
0.0
  0
LINE
  5
2D1
330
22
100
AcDbEntity
  8
_0-3_
  6
Continuous
 62
     6
100
AcDbLine
 10
12614.44494832251
 20
15040.19186036452
 30
0.0
 11
18539.4360404889
 21
15040.19186036452
 31
0.0
  0
LINE
  5
2D2
330
22
100
AcDbEntity
  8
_0-3_
  6
Continuous
 62
     6
100
AcDbLine
 10
12576.94296880393
 20
19515.04826278745
 30
0.0
 11
12576.94296880393
 21
15164.25942463289
 31
0.0
  0
LINE
  5
2D3
330
22
100
AcDbEntity
  8
_0-0_
  6
CENTER1
 62
     4
100
AcDbLine
 10
12576.94296880393
 20
15164.25942463289
 30
0.0
 11
12576.94296880393
 21
15014.67339145615
 31
0.0
  0
CIRCLE
  5
2D4
330
22
100
AcDbEntity
  8
_0-2_
  6
Continuous
 62
     7
100
AcDbCircle
 10
12444.80268032209
 20
24160.12594239577
 30
0.0
 40
10.00000073297603
  0
CIRCLE
  5
2D5
330
22
100
AcDbEntity
  8
_0-2_
  6
Continuous
 62
     7
100
AcDbCircle
 10
12444.63689564092
 20
24110.12330303766
 30
0.0
 40
10.00000073297603
  0
CIRCLE
  5
2D6
330
22
100
AcDbEntity
  8
_0-2_
  6
Continuous
 62
     7
100
AcDbCircle
 10
12576.94296880393
 20
24110.12330303766
 30
0.0
 40
10.00000073297603
  0
CIRCLE
  5
2D7
330
22
100
AcDbEntity
  8
_0-2_
  6
Continuous
 62
     7
100
AcDbCircle
 10
12576.94296880393
 20
24160.12594239577
 30
0.0
 40
10.00000073297603
  0
CIRCLE
  5
2D8
330
22
100
AcDbEntity
  8
_0-2_
  6
Continuous
 62
     7
100
AcDbCircle
 10
12576.94296880393
 20
24040.12752601063
 30
0.0
 40
10.00000073297603
  0
CIRCLE
  5
2D9
330
22
100
AcDbEntity
  8
_0-2_
  6
Continuous
 62
     7
100
AcDbCircle
 10
12888.9423155628
 20
24160.12594239577
 30
0.0
 40
15.00000019331236
  0
CIRCLE
  5
2DA
330
22
100
AcDbEntity
  8
_0-2_
  6
Continuous
 62
     7
100
AcDbCircle
 10
12709.08325728577
 20
24160.12594239577
 30
0.0
 40
10.00000073297603
  0
CIRCLE
  5
2DB
330
22
100
AcDbEntity
  8
_0-2_
  6
Continuous
 62
     7
100
AcDbCircle
 10
12709.24904196694
 20
24110.12330303766
 30
0.0
 40
10.00000073297603
  0
CIRCLE
  5
2DC
330
22
100
AcDbEntity
  8
_0-2_
  6
Continuous
 62
     7
100
AcDbCircle
 10
18709.08325728577
 20
24160.12594239577
 30
0.0
 40
10.00000073297603
  0
CIRCLE
  5
2DD
330
22
100
AcDbEntity
  8
_0-2_
  6
Continuous
 62
     7
100
AcDbCircle
 10
18709.24904196693
 20
24110.12330303766
 30
0.0
 40
10.00000073297603
  0
CIRCLE
  5
2DE
330
22
100
AcDbEntity
  8
_0-2_
  6
Continuous
 62
     7
100
AcDbCircle
 10
18576.94296880393
 20
24110.12330303766
 30
0.0
 40
10.00000073297603
  0
CIRCLE
  5
2DF
330
22
100
AcDbEntity
  8
_0-2_
  6
Continuous
 62
     7
100
AcDbCircle
 10
18576.94296880393
 20
24160.12594239577
 30
0.0
 40
10.00000073297603
  0
CIRCLE
  5
2E0
330
22
100
AcDbEntity
  8
_0-2_
  6
Continuous
 62
     7
100
AcDbCircle
 10
18264.94362204506
 20
24160.12594239577
 30
0.0
 40
15.00000019331236
  0
CIRCLE
  5
2E1
330
22
100
AcDbEntity
  8
_0-2_
  6
Continuous
 62
     7
100
AcDbCircle
 10
18444.80268032209
 20
24160.12594239577
 30
0.0
 40
10.00000073297603
  0
CIRCLE
  5
2E2
330
22
100
AcDbEntity
  8
_0-2_
  6
Continuous
 62
     7
100
AcDbCircle
 10
18444.63689564092
 20
24110.12330303766
 30
0.0
 40
10.00000073297603
  0
ARC
  5
2E3
330
22
100
AcDbEntity
  8
_0-3_
  6
Continuous
 62
     6
100
AcDbCircle
 10
13030.41355975621
 20
10340.18748892765
 30
0.0
 40
50.00114118730699
100
AcDbArc
 50
89.64202880859373
 51
270.3579711914062
  0
ARC
  5
2E4
330
22
100
AcDbEntity
  8
_0-3_
  6
Continuous
 62
     6
100
AcDbCircle
 10
13230.64805022813
 20
10340.18748892765
 30
0.0
 40
50.00022295359018
100
AcDbArc
 50
270.0879058837891
 51
89.91209411621095
  0
CIRCLE
  5
2E5
330
22
100
AcDbEntity
  8
_0-3_
  6
Continuous
 62
     6
100
AcDbCircle
 10
13380.64854510777
 20
10340.18748892765
 30
0.0
 40
50.00000064437454
  0
ARC
  5
2E6
330
22
100
AcDbEntity
  8
_0-3_
  6
Continuous
 62
     6
100
AcDbCircle
 10
12577.01720075072
 20
10640.28374301865
 30
0.0
 40
50.00114118730699
100
AcDbArc
 50
179.6420288085938
 51
0.3579711914061931
  0
ARC
  5
2E7
330
22
100
AcDbEntity
  8
_0-3_
  6
Continuous
 62
     6
100
AcDbCircle
 10
12577.01720075072
 20
10840.51947068968
 30
0.0
 40
50.00022295359018
100
AcDbArc
 50
0.0879058837891062
 51
179.9120941162109
  0
CIRCLE
  5
2E8
330
22
100
AcDbEntity
  8
_0-3_
  6
Continuous
 62
     6
100
AcDbCircle
 10
12577.01720075072
 20
10990.51996556933
 30
0.0
 40
50.00000064437454
  0
CIRCLE
  5
2E9
330
22
100
AcDbEntity
  8
_0-0_
  6
Continuous
 62
     7
100
AcDbCircle
 10
12577.18545983011
 20
19540.15598159024
 30
0.0
 40
10.00000012887491
  0
CIRCLE
  5
2EA
330
22
100
AcDbEntity
  8
_0-0_
  6
Continuous
 62
     7
100
AcDbCircle
 10
12416.24565039177
 20
19640.50149006257
 30
0.0
 40
10.00000012887491
  0
CIRCLE
  5
2EB
330
22
100
AcDbEntity
  8
_0-0_
  6
Continuous
 62
     7
100
AcDbCircle
 10
12737.17015155308
 20
19640.5509780271
 30
0.0
 40
10.00000012887491
  0
CIRCLE
  5
2EC
330
22
100
AcDbEntity
  8
_0-0_
  6
Continuous
 62
     7
100
AcDbCircle
 10
12577.18545983011
 20
19639.82350494856
 30
0.0
 40
10.00000012887491
  0
CIRCLE
  5
2ED
330
22
100
AcDbEntity
  8
_0-0_
  6
Continuous
 62
     7
100
AcDbCircle
 10
18577.02214954717
 20
10340.41389636536
 30
0.0
 40
10.00000012887491
  0
CIRCLE
  5
2EE
330
22
100
AcDbEntity
  8
_0-0_
  6
Continuous
 62
     7
100
AcDbCircle
 10
18357.95377697538
 20
10440.12967048909
 30
0.0
 40
10.00000012887491
  0
CIRCLE
  5
2EF
330
22
100
AcDbEntity
  8
_0-0_
  6
Continuous
 62
     7
100
AcDbCircle
 10
18577.36361650241
 20
10440.11729849796
 30
0.0
 40
10.00000012887491
  0
CIRCLE
  5
2F0
330
22
100
AcDbEntity
  8
_0-0_
  6
Continuous
 62
     7
100
AcDbCircle
 10
18795.54615450917
 20
10440.12719609087
 30
0.0
 40
10.00000012887491
  0
CIRCLE
  5
2F1
330
22
100
AcDbEntity
  8
_0-0_
  6
Continuous
 62
     7
100
AcDbCircle
 10
30576.50005152142
 20
19540.15350719201
 30
0.0
 40
10.00000012887491
  0
CIRCLE
  5
2F2
330
22
100
AcDbEntity
  8
_0-0_
  6
Continuous
 62
     7
100
AcDbCircle
 10
30416.24317599355
 20
19639.92000647938
 30
0.0
 40
10.00000012887491
  0
CIRCLE
  5
2F3
330
22
100
AcDbEntity
  8
_0-0_
  6
Continuous
 62
     7
100
AcDbCircle
 10
30737.16272835841
 20
19639.97073164302
 30
0.0
 40
10.00000012887491
  0
CIRCLE
  5
2F4
330
22
100
AcDbEntity
  8
_0-0_
  6
Continuous
 62
     7
100
AcDbCircle
 10
30576.50005152142
 20
19639.82226774944
 30
0.0
 40
10.00000012887491
  0
CIRCLE
  5
2F5
330
22
100
AcDbEntity
  8
_0-0_
  6
Continuous
 62
     7
100
AcDbCircle
 10
18577.18545983012
 20
19540.15598159024
 30
0.0
 40
10.00000012887491
  0
CIRCLE
  5
2F6
330
22
100
AcDbEntity
  8
_0-0_
  6
Continuous
 62
     7
100
AcDbCircle
 10
18416.24565039177
 20
19640.50149006257
 30
0.0
 40
10.00000012887491
  0
CIRCLE
  5
2F7
330
22
100
AcDbEntity
  8
_0-0_
  6
Continuous
 62
     7
100
AcDbCircle
 10
18737.17015155309
 20
19640.55221522621
 30
0.0
 40
10.00000012887491
  0
CIRCLE
  5
2F8
330
22
100
AcDbEntity
  8
_0-0_
  6
Continuous
 62
     7
100
AcDbCircle
 10
18577.18545983012
 20
19639.82350494856
 30
0.0
 40
10.00000012887491
  0
CIRCLE
  5
2F9
330
22
100
AcDbEntity
  8
_0-0_
  6
Continuous
 62
     7
100
AcDbCircle
 10
30577.17803663544
 20
15039.42479691435
 30
0.0
 40
10.00000012887491
  0
CIRCLE
  5
2FA
330
22
100
AcDbEntity
  8
_0-0_
  6
Continuous
 62
     7
100
AcDbCircle
 10
30388.95056355689
 20
15139.77030538668
 30
0.0
 40
10.00000012887491
  0
CIRCLE
  5
2FB
330
22
100
AcDbEntity
  8
_0-0_
  6
Continuous
 62
     7
100
AcDbCircle
 10
30577.17803663544
 20
15139.09355747178
 30
0.0
 40
10.00000012887491
  0
CIRCLE
  5
2FC
330
22
100
AcDbEntity
  8
_0-0_
  6
Continuous
 62
     7
100
AcDbCircle
 10
30764.93537405098
 20
15139.77030538668
 30
0.0
 40
10.00000012887491
  0
CIRCLE
  5
2FD
330
22
100
AcDbEntity
  8
_0-0_
  6
Continuous
 62
     7
100
AcDbCircle
 10
30764.92547645808
 20
15139.77030538668
 30
0.0
 40
10.00000012887491
  0
CIRCLE
  5
2FE
330
22
100
AcDbEntity
  8
_0-0_
  6
Continuous
 62
     7
100
AcDbCircle
 10
30444.74329476466
 20
24139.8556721255
 30
0.0
 40
10.00000012887491
  0
CIRCLE
  5
2FF
330
22
100
AcDbEntity
  8
_0-0_
  6
Continuous
 62
     7
100
AcDbCircle
 10
30708.80612468442
 20
24138.56403625135
 30
0.0
 40
10.00000012887491
  0
CIRCLE
  5
300
330
22
100
AcDbEntity
  8
_0-0_
  6
Continuous
 62
     7
100
AcDbCircle
 10
30577.17803663544
 20
24139.42512683411
 30
0.0
 40
10.00000012887491
  0
CIRCLE
  5
301
330
22
100
AcDbEntity
  8
_0-0_
  6
Continuous
 62
     7
100
AcDbCircle
 10
30577.17803663544
 20
24039.75636627668
 30
0.0
 40
10.00000012887491
  0
CIRCLE
  5
302
330
22
100
AcDbEntity
  8
_0-0_
  6
Continuous
 62
     7
100
AcDbCircle
 10
24577.17556223721
 20
15039.42479691435
 30
0.0
 40
10.00000012887491
  0
CIRCLE
  5
303
330
22
100
AcDbEntity
  8
_0-0_
  6
Continuous
 62
     7
100
AcDbCircle
 10
24388.94314036221
 20
15139.77030538668
 30
0.0
 40
10.00000012887491
  0
CIRCLE
  5
304
330
22
100
AcDbEntity
  8
_0-0_
  6
Continuous
 62
     7
100
AcDbCircle
 10
24577.17556223721
 20
15139.09355747178
 30
0.0
 40
10.00000012887491
  0
CIRCLE
  5
305
330
22
100
AcDbEntity
  8
_0-0_
  6
Continuous
 62
     7
100
AcDbCircle
 10
24764.9279508563
 20
15139.77030538668
 30
0.0
 40
10.00000012887491
  0
CIRCLE
  5
306
330
22
100
AcDbEntity
  8
_0-0_
  6
Continuous
 62
     7
100
AcDbCircle
 10
24764.9180532634
 20
15139.77030538668
 30
0.0
 40
10.00000012887491
  0
CIRCLE
  5
307
330
22
100
AcDbEntity
  8
_0-0_
  6
Continuous
 62
     7
100
AcDbCircle
 10
18577.17556223721
 20
15039.42479691435
 30
0.0
 40
10.00000012887491
  0
CIRCLE
  5
308
330
22
100
AcDbEntity
  8
_0-0_
  6
Continuous
 62
     7
100
AcDbCircle
 10
18388.94314036221
 20
15139.77030538668
 30
0.0
 40
10.00000012887491
  0
CIRCLE
  5
309
330
22
100
AcDbEntity
  8
_0-0_
  6
Continuous
 62
     7
100
AcDbCircle
 10
18577.17556223721
 20
15139.09355747178
 30
0.0
 40
10.00000012887491
  0
CIRCLE
  5
30A
330
22
100
AcDbEntity
  8
_0-0_
  6
Continuous
 62
     7
100
AcDbCircle
 10
18764.9279508563
 20
15139.77030538668
 30
0.0
 40
10.00000012887491
  0
CIRCLE
  5
30B
330
22
100
AcDbEntity
  8
_0-0_
  6
Continuous
 62
     7
100
AcDbCircle
 10
18764.91805326339
 20
15139.77030538668
 30
0.0
 40
10.00000012887491
  0
CIRCLE
  5
30C
330
22
100
AcDbEntity
  8
_0-0_
  6
Continuous
 62
     7
100
AcDbCircle
 10
12577.18545983011
 20
15039.42479691435
 30
0.0
 40
10.00000012887491
  0
CIRCLE
  5
30D
330
22
100
AcDbEntity
  8
_0-0_
  6
Continuous
 62
     7
100
AcDbCircle
 10
12388.95303795511
 20
15139.77030538668
 30
0.0
 40
10.00000012887491
  0
CIRCLE
  5
30E
330
22
100
AcDbEntity
  8
_0-0_
  6
Continuous
 62
     7
100
AcDbCircle
 10
12577.18545983011
 20
15139.09355747178
 30
0.0
 40
10.00000012887491
  0
CIRCLE
  5
30F
330
22
100
AcDbEntity
  8
_0-0_
  6
Continuous
 62
     7
100
AcDbCircle
 10
12764.9378484492
 20
15139.77030538668
 30
0.0
 40
10.00000012887491
  0
CIRCLE
  5
310
330
22
100
AcDbEntity
  8
_0-0_
  6
Continuous
 62
     7
100
AcDbCircle
 10
12764.9279508563
 20
15139.77030538668
 30
0.0
 40
10.00000012887491
  0
CIRCLE
  5
311
330
22
100
AcDbEntity
  8
_0-2_
  6
Continuous
 62
     7
100
AcDbCircle
 10
18576.94296880393
 20
24040.12752601063
 30
0.0
 40
10.00000073297603
  0
CIRCLE
  5
312
330
22
100
AcDbEntity
  8
_0-0_
  6
Continuous
 62
     7
100
AcDbCircle
 10
24708.80859908265
 20
24139.54142355075
 30
0.0
 40
10.00000012887491
  0
CIRCLE
  5
313
330
22
100
AcDbEntity
  8
_0-0_
  6
Continuous
 62
     7
100
AcDbCircle
 10
24444.74576916288
 20
24140.8330594249
 30
0.0
 40
10.00000012887491
  0
CIRCLE
  5
314
330
22
100
AcDbEntity
  8
_0-0_
  6
Continuous
 62
     7
100
AcDbCircle
 10
24577.18051103366
 20
24140.40251413352
 30
0.0
 40
10.00000012887491
  0
CIRCLE
  5
315
330
22
100
AcDbEntity
  8
_0-0_
  6
Continuous
 62
     7
100
AcDbCircle
 10
24577.18051103366
 20
24040.73375357609
 30
0.0
 40
10.00000012887491
  0
CIRCLE
  5
316
330
22
100
AcDbEntity
  8
_0-0_
  6
Continuous
 62
     7
100
AcDbCircle
 10
12576.52850710102
 20
10340.41389636536
 30
0.0
 40
10.00000012887491
  0
CIRCLE
  5
317
330
22
100
AcDbEntity
  8
_0-0_
  6
Continuous
 62
     7
100
AcDbCircle
 10
12357.46508332568
 20
10440.12967048909
 30
0.0
 40
10.00000012887491
  0
CIRCLE
  5
318
330
22
100
AcDbEntity
  8
_0-0_
  6
Continuous
 62
     7
100
AcDbCircle
 10
12576.8749228527
 20
10440.11729849796
 30
0.0
 40
10.00000012887491
  0
CIRCLE
  5
319
330
22
100
AcDbEntity
  8
_0-0_
  6
Continuous
 62
     7
100
AcDbCircle
 10
12795.05746085946
 20
10440.12719609087
 30
0.0
 40
10.00000012887491
  0
CIRCLE
  5
31A
330
22
100
AcDbEntity
  8
_0-0_
  6
Continuous
 62
     7
100
AcDbCircle
 10
24577.02214954717
 20
10340.41637076358
 30
0.0
 40
10.00000012887491
  0
CIRCLE
  5
31B
330
22
100
AcDbEntity
  8
_0-0_
  6
Continuous
 62
     7
100
AcDbCircle
 10
24357.95377697539
 20
10440.12967048909
 30
0.0
 40
10.00000012887491
  0
CIRCLE
  5
31C
330
22
100
AcDbEntity
  8
_0-0_
  6
Continuous
 62
     7
100
AcDbCircle
 10
24577.36361650241
 20
10440.11977289619
 30
0.0
 40
10.00000012887491
  0
CIRCLE
  5
31D
330
22
100
AcDbEntity
  8
_0-0_
  6
Continuous
 62
     7
100
AcDbCircle
 10
24795.54615450917
 20
10440.12967048909
 30
0.0
 40
10.00000012887491
  0
CIRCLE
  5
31E
330
22
100
AcDbEntity
  8
_0-0_
  6
Continuous
 62
     7
100
AcDbCircle
 10
30577.01967514895
 20
10340.41637076358
 30
0.0
 40
10.00000012887491
  0
CIRCLE
  5
31F
330
22
100
AcDbEntity
  8
_0-0_
  6
Continuous
 62
     7
100
AcDbCircle
 10
30357.95130257716
 20
10440.1309076882
 30
0.0
 40
10.00000012887491
  0
CIRCLE
  5
320
330
22
100
AcDbEntity
  8
_0-0_
  6
Continuous
 62
     7
100
AcDbCircle
 10
30577.36114210419
 20
10440.11977289619
 30
0.0
 40
10.00000012887491
  0
CIRCLE
  5
321
330
22
100
AcDbEntity
  8
_0-0_
  6
Continuous
 62
     7
100
AcDbCircle
 10
30795.54368011094
 20
10440.12967048909
 30
0.0
 40
10.00000012887491
  0
ARC
  5
322
330
22
100
AcDbEntity
  8
_0-3_
  6
Continuous
 62
     6
100
AcDbCircle
 10
18577.01720075072
 20
10640.28621741688
 30
0.0
 40
50.00114118730699
100
AcDbArc
 50
179.6420288085938
 51
0.3579711914061931
  0
ARC
  5
323
330
22
100
AcDbEntity
  8
_0-3_
  6
Continuous
 62
     6
100
AcDbCircle
 10
18577.01720075072
 20
10840.5207078888
 30
0.0
 40
50.00022295359018
100
AcDbArc
 50
0.0879058837891062
 51
179.9120941162109
  0
CIRCLE
  5
324
330
22
100
AcDbEntity
  8
_0-3_
  6
Continuous
 62
     6
100
AcDbCircle
 10
18577.01720075072
 20
10990.52120276845
 30
0.0
 40
50.00000064437454
  0
ARC
  5
325
330
22
100
AcDbEntity
  8
_0-3_
  6
Continuous
 62
     6
100
AcDbCircle
 10
24577.01720075073
 20
10640.28374301865
 30
0.0
 40
50.00114118730699
100
AcDbArc
 50
179.6420288085938
 51
0.3579711914061931
  0
ARC
  5
326
330
22
100
AcDbEntity
  8
_0-3_
  6
Continuous
 62
     6
100
AcDbCircle
 10
24577.01720075073
 20
10840.51947068968
 30
0.0
 40
50.00022295359018
100
AcDbArc
 50
0.0879058837891062
 51
179.9120941162109
  0
CIRCLE
  5
327
330
22
100
AcDbEntity
  8
_0-3_
  6
Continuous
 62
     6
100
AcDbCircle
 10
24577.01720075073
 20
10990.51996556933
 30
0.0
 40
50.00000064437454
  0
CIRCLE
  5
328
330
22
100
AcDbEntity
  8
_0-0_
  6
Continuous
 62
     7
100
AcDbCircle
 10
24576.50252591964
 20
19540.15350719201
 30
0.0
 40
10.00000012887491
  0
CIRCLE
  5
329
330
22
100
AcDbEntity
  8
_0-0_
  6
Continuous
 62
     7
100
AcDbCircle
 10
24416.24565039177
 20
19639.92000647938
 30
0.0
 40
10.00000012887491
  0
CIRCLE
  5
32A
330
22
100
AcDbEntity
  8
_0-0_
  6
Continuous
 62
     7
100
AcDbCircle
 10
24737.16520275664
 20
19639.97073164302
 30
0.0
 40
10.00000012887491
  0
CIRCLE
  5
32B
330
22
100
AcDbEntity
  8
_0-0_
  6
Continuous
 62
     7
100
AcDbCircle
 10
24576.50252591964
 20
19639.82226774944
 30
0.0
 40
10.00000012887491
  0
ARC
  5
32C
330
22
100
AcDbEntity
  8
_0-3_
  6
Continuous
 62
     6
100
AcDbCircle
 10
12950.90867034532
 20
10817.03371992427
 30
0.0
 40
49.99994748347514
100
AcDbArc
 50
337.5456848144531
 51
157.5469970703125
  0
ARC
  5
32D
330
22
100
AcDbEntity
  8
_0-3_
  6
Continuous
 62
     6
100
AcDbCircle
 10
12874.52152269962
 20
10632.19493521671
 30
0.0
 40
49.99994748347514
100
AcDbArc
 50
157.5463409423828
 51
337.5463409423828
  0
CIRCLE
  5
32E
330
22
100
AcDbEntity
  8
_0-3_
  6
Continuous
 62
     6
100
AcDbCircle
 10
13009.78573894223
 20
10954.80573876929
 30
0.0
 40
50.00000064437454
  0
ARC
  5
32F
330
22
100
AcDbEntity
  8
_0-3_
  6
Continuous
 62
     6
100
AcDbCircle
 10
18202.25721737868
 20
10817.03371992427
 30
0.0
 40
49.99994748347514
100
AcDbArc
 50
22.4530029296875
 51
202.4543151855469
  0
ARC
  5
330
330
22
100
AcDbEntity
  8
_0-3_
  6
Continuous
 62
     6
100
AcDbCircle
 10
18278.64436502436
 20
10632.19493521671
 30
0.0
 40
49.99994748347514
100
AcDbArc
 50
202.4536590576171
 51
22.45365905761719
  0
CIRCLE
  5
331
330
22
100
AcDbEntity
  8
_0-3_
  6
Continuous
 62
     6
100
AcDbCircle
 10
18143.38014878176
 20
10954.80573876929
 30
0.0
 40
50.00000064437454
  0
ARC
  5
332
330
22
100
AcDbEntity
  8
_0-3_
  6
Continuous
 62
     6
100
AcDbCircle
 10
18950.9074331462
 20
10817.03495712338
 30
0.0
 40
49.99994748347514
100
AcDbArc
 50
337.5456848144531
 51
157.5469970703125
  0
ARC
  5
333
330
22
100
AcDbEntity
  8
_0-3_
  6
Continuous
 62
     6
100
AcDbCircle
 10
18874.52028550051
 20
10632.19617241583
 30
0.0
 40
49.99994748347514
100
AcDbArc
 50
157.5463409423828
 51
337.5463409423828
  0
CIRCLE
  5
334
330
22
100
AcDbEntity
  8
_0-3_
  6
Continuous
 62
     6
100
AcDbCircle
 10
19009.78450174312
 20
10954.8069759684
 30
0.0
 40
50.00000064437454
  0
ARC
  5
335
330
22
100
AcDbEntity
  8
_0-3_
  6
Continuous
 62
     6
100
AcDbCircle
 10
24202.25474298045
 20
10817.03495712338
 30
0.0
 40
49.99994748347514
100
AcDbArc
 50
22.4530029296875
 51
202.4543151855469
  0
ARC
  5
336
330
22
100
AcDbEntity
  8
_0-3_
  6
Continuous
 62
     6
100
AcDbCircle
 10
24278.64436502437
 20
10632.19617241583
 30
0.0
 40
49.99994748347514
100
AcDbArc
 50
202.4536590576171
 51
22.45365905761719
  0
CIRCLE
  5
337
330
22
100
AcDbEntity
  8
_0-3_
  6
Continuous
 62
     6
100
AcDbCircle
 10
24143.37891158265
 20
10954.8069759684
 30
0.0
 40
50.00000064437454
  0
ARC
  5
338
330
22
100
AcDbEntity
  8
_0-3_
  6
Continuous
 62
     6
100
AcDbCircle
 10
24950.90867034532
 20
10817.0361943225
 30
0.0
 40
49.99994748347514
100
AcDbArc
 50
337.5456848144531
 51
157.5469970703125
  0
ARC
  5
339
330
22
100
AcDbEntity
  8
_0-3_
  6
Continuous
 62
     6
100
AcDbCircle
 10
24874.5190483014
 20
10632.19740961494
 30
0.0
 40
49.99994748347514
100
AcDbArc
 50
157.5463409423828
 51
337.5463409423828
  0
CIRCLE
  5
33A
330
22
100
AcDbEntity
  8
_0-3_
  6
Continuous
 62
     6
100
AcDbCircle
 10
25009.78450174312
 20
10954.80821316751
 30
0.0
 40
50.00000064437454
  0
ARC
  5
33B
330
22
100
AcDbEntity
  8
_0-3_
  6
Continuous
 62
     6
100
AcDbCircle
 10
30202.25226858222
 20
10817.0361943225
 30
0.0
 40
49.99994748347514
100
AcDbArc
 50
22.4530029296875
 51
202.4543151855469
  0
ARC
  5
33C
330
22
100
AcDbEntity
  8
_0-3_
  6
Continuous
 62
     6
100
AcDbCircle
 10
30278.64189062615
 20
10632.19740961494
 30
0.0
 40
49.99994748347514
100
AcDbArc
 50
202.4536590576171
 51
22.45365905761719
  0
CIRCLE
  5
33D
330
22
100
AcDbEntity
  8
_0-3_
  6
Continuous
 62
     6
100
AcDbCircle
 10
30143.37643718442
 20
10954.80821316751
 30
0.0
 40
50.00000064437454
  0
ARC
  5
33E
330
22
100
AcDbEntity
  8
_0-3_
  6
Continuous
 62
     6
100
AcDbCircle
 10
30950.90619594709
 20
10817.03743152161
 30
0.0
 40
49.99994748347514
100
AcDbArc
 50
337.5456848144531
 51
157.5469970703125
  0
ARC
  5
33F
330
22
100
AcDbEntity
  8
_0-3_
  6
Continuous
 62
     6
100
AcDbCircle
 10
30874.51657390317
 20
10632.19864681405
 30
0.0
 40
49.99994748347514
100
AcDbArc
 50
157.5463409423828
 51
337.5463409423828
  0
CIRCLE
  5
340
330
22
100
AcDbEntity
  8
_0-3_
  6
Continuous
 62
     6
100
AcDbCircle
 10
31009.7820273449
 20
10954.80945036663
 30
0.0
 40
50.00000064437454
  0
ARC
  5
341
330
22
100
AcDbEntity
  8
_0-3_
  6
Continuous
 62
     6
100
AcDbCircle
 10
30577.0147263525
 20
10640.28498021777
 30
0.0
 40
50.00114118730699
100
AcDbArc
 50
179.6420288085938
 51
0.3579711914061931
  0
ARC
  5
342
330
22
100
AcDbEntity
  8
_0-3_
  6
Continuous
 62
     6
100
AcDbCircle
 10
30577.0147263525
 20
10840.51947068968
 30
0.0
 40
50.00022295359018
100
AcDbArc
 50
0.0879058837891062
 51
179.9120941162109
  0
CIRCLE
  5
343
330
22
100
AcDbEntity
  8
_0-3_
  6
Continuous
 62
     6
100
AcDbCircle
 10
30577.0147263525
 20
10990.51996556933
 30
0.0
 40
50.00000064437454
  0
ARC
  5
344
330
22
100
AcDbEntity
  8
_0-6_
  6
Continuous
 62
     6
100
AcDbCircle
 10
12620.19792419878
 20
24028.00544909973
 30
0.0
 40
68.31586360931396
100
AcDbArc
 50
182.4142456054687
 51
230.7162933349609
  0
ARC
  5
345
330
22
100
AcDbEntity
  8
_0-6_
  6
Continuous
 62
     6
100
AcDbCircle
 10
12533.68801340908
 20
24028.00544909973
 30
0.0
 40
68.31586360931396
100
AcDbArc
 50
309.2837066650391
 51
357.5857543945312
  0
ARC
  5
346
330
22
100
AcDbEntity
  8
_0-6_
  6
Continuous
 62
     6
100
AcDbCircle
 10
18620.19792419877
 20
24028.00544909973
 30
0.0
 40
68.31586360931396
100
AcDbArc
 50
182.4142456054687
 51
230.7162933349609
  0
ARC
  5
347
330
22
100
AcDbEntity
  8
_0-6_
  6
Continuous
 62
     6
100
AcDbCircle
 10
18533.68801340908
 20
24028.00544909973
 30
0.0
 40
68.31586360931396
100
AcDbArc
 50
309.2837066650391
 51
357.5857543945312
  0
ARC
  5
348
330
22
100
AcDbEntity
  8
_0-6_
  6
Continuous
 62
     6
100
AcDbCircle
 10
24620.19792419878
 20
24018.44684875134
 30
0.0
 40
68.31586360931396
100
AcDbArc
 50
182.4142456054687
 51
230.7162933349609
  0
ARC
  5
349
330
22
100
AcDbEntity
  8
_0-6_
  6
Continuous
 62
     6
100
AcDbCircle
 10
24533.68801340908
 20
24018.44684875134
 30
0.0
 40
68.31586360931396
100
AcDbArc
 50
309.2837066650391
 51
357.5857543945312
  0
ARC
  5
34A
330
22
100
AcDbEntity
  8
_0-6_
  6
Continuous
 62
     6
100
AcDbCircle
 10
30620.19544980056
 20
24017.46946145193
 30
0.0
 40
68.31586360931396
100
AcDbArc
 50
182.4142456054687
 51
230.7162933349609
  0
ARC
  5
34B
330
22
100
AcDbEntity
  8
_0-6_
  6
Continuous
 62
     6
100
AcDbCircle
 10
30533.68553901086
 20
24017.46946145193
 30
0.0
 40
68.31586360931396
100
AcDbArc
 50
309.2837066650391
 51
357.5857543945312
  0
CIRCLE
  5
34C
330
22
100
AcDbEntity
  8
_0-F_
  6
Continuous
 62
     4
100
AcDbCircle
 10
12072.43667723404
 20
24540.19350996333
 30
0.0
 40
300.0000038662473
  0
CIRCLE
  5
34D
330
22
100
AcDbEntity
  8
_0-F_
  6
Continuous
 62
     4
100
AcDbCircle
 10
12038.10687624164
 20
19844.24344002034
 30
0.0
 40
300.0000038662473
  0
CIRCLE
  5
34E
330
22
100
AcDbEntity
  8
_0-F_
  6
Continuous
 62
     4
100
AcDbCircle
 10
12028.69921418505
 20
10712.4124513168
 30
0.0
 40
300.0000038662473
  0
CIRCLE
  5
34F
330
22
100
AcDbEntity
  8
_0-F_
  6
Continuous
 62
     4
100
AcDbCircle
 10
12046.66210810925
 20
15340.71494814956
 30
0.0
 40
300.0000038662473
  0
TEXT
  5
350
330
22
100
AcDbEntity
  8
_0-7_
 62
     7
100
AcDbText
 10
11452.07906070638
 20
21233.2627617713
 30
0.0
 40
300.0
  1
PC　POLE
 50
90.0
100
AcDbText
  0
TEXT
  5
351
330
22
100
AcDbEntity
  8
_0-9_
 62
     4
100
AcDbText
 10
9012.945957876992
 20
23830.38021155751
 30
0.0
 40
250.0
  1
200
 50
90.0
100
AcDbText
  0
TEXT
  5
352
330
22
100
AcDbEntity
  8
_0-9_
 62
     4
100
AcDbText
 10
9024.105493877835
 20
9801.262936628774
 30
0.0
 40
250.0
  1
400
 50
90.0
100
AcDbText
  0
TEXT
  5
353
330
22
100
AcDbEntity
  8
_0-9_
 62
     4
100
AcDbText
 10
9024.105493877835
 20
10275.24206178053
 30
0.0
 40
250.0
  1
50
 50
90.0
100
AcDbText
  0
TEXT
  5
354
330
22
100
AcDbEntity
  8
_0-F_
 62
     4
100
AcDbText
 10
10118.17293855029
 20
10496.32077981131
 30
0.0
 40
250.0
  1
ＧＬ
100
AcDbText
  0
TEXT
  5
355
330
22
100
AcDbEntity
  8
_0-F_
 62
     7
100
AcDbText
 10
13741.9153875117
 20
24934.21668352753
 30
0.0
 40
300.0
  1
ｼﾞｮｲﾝﾄﾋﾞｰﾑ
100
AcDbText
  0
TEXT
  5
356
330
22
100
AcDbEntity
  8
_0-F_
 62
     7
100
AcDbText
 10
13782.13347272338
 20
9095.313411053391
 30
0.0
 40
300.0
  1
ﾈｶｾ
100
AcDbText
  0
TEXT
  5
357
330
22
100
AcDbEntity
  8
_0-F_
 62
     7
100
AcDbText
 10
38222.44022387151
 20
24926.43222670742
 30
0.0
 40
300.0
  1
ﾊﾞﾝﾄﾞ
100
AcDbText
  0
TEXT
  5
358
330
22
100
AcDbEntity
  8
_0-F_
 62
     7
100
AcDbText
 10
38250.94034264261
 20
20454.35952228913
 30
0.0
 40
300.0
  1
ﾊﾞﾝﾄﾞ
100
AcDbText
  0
TEXT
  5
359
330
22
100
AcDbEntity
  8
_0-F_
 62
     7
100
AcDbText
 10
38278.32203341542
 20
15954.20982119644
 30
0.0
 40
300.0
  1
ﾊﾞﾝﾄﾞ
100
AcDbText
  0
TEXT
  5
35A
330
22
100
AcDbEntity
  8
_0-F_
 62
     7
100
AcDbText
 10
38309.16293290867
 20
11255.23603662085
 30
0.0
 40
300.0
  1
ﾊﾞﾝﾄﾞ
100
AcDbText
  0
TEXT
  5
35B
330
22
100
AcDbEntity
  8
_0-F_
 62
     7
100
AcDbText
 10
11922.4372958336
 20
24390.19301508368
 30
0.0
 40
300.0
  1
Ａ
100
AcDbText
  0
TEXT
  5
35C
330
22
100
AcDbEntity
  8
_0-F_
 62
     7
100
AcDbText
 10
11888.1074948412
 20
19694.2429451407
 30
0.0
 40
300.0
  1
Ｂ
100
AcDbText
  0
TEXT
  5
35D
330
22
100
AcDbEntity
  8
_0-F_
 62
     7
100
AcDbText
 10
11878.69983278461
 20
10562.41195643715
 30
0.0
 40
300.0
  1
Ｃ
100
AcDbText
  0
TEXT
  5
35E
330
22
100
AcDbEntity
  8
_0-F_
 62
     7
100
AcDbText
 10
11896.66272670881
 20
15190.71445326992
 30
0.0
 40
300.0
  1
Ｂ
100
AcDbText
  0
POINT
  5
35F
330
22
100
AcDbEntity
  8
_0-9_
 62
     4
100
AcDbPoint
 10
12577.57641474988
 20
4667.175812242423
 30
0.0
  0
POINT
  5
360
330
22
100
AcDbEntity
  8
_0-9_
 62
     4
100
AcDbPoint
 10
18577.57641474988
 20
4667.175812242423
 30
0.0
  0
POINT
  5
361
330
22
100
AcDbEntity
  8
_0-9_
 62
     4
100
AcDbPoint
 10
24577.57641474988
 20
4667.175812242423
 30
0.0
  0
POINT
  5
362
330
22
100
AcDbEntity
  8
_0-9_
 62
     4
100
AcDbPoint
 10
30577.57394035165
 20
4667.175812242423
 30
0.0
  0
POINT
  5
363
330
22
100
AcDbEntity
  8
_0-9_
 62
     4
100
AcDbPoint
 10
8076.942968803932
 20
24240.19252020404
 30
0.0
  0
POINT
  5
364
330
22
100
AcDbEntity
  8
_0-9_
 62
     4
100
AcDbPoint
 10
8076.942968803932
 20
7240.191489204784
 30
0.0
  0
POINT
  5
365
330
22
100
AcDbEntity
  8
_0-9_
 62
     4
100
AcDbPoint
 10
8576.942144004521
 20
7240.191489204784
 30
0.0
  0
POINT
  5
366
330
22
100
AcDbEntity
  8
_0-9_
 62
     4
100
AcDbPoint
 10
8576.942144004521
 20
10240.19210780434
 30
0.0
  0
POINT
  5
367
330
22
100
AcDbEntity
  8
_0-9_
 62
     4
100
AcDbPoint
 10
8576.942144004521
 20
24240.19252020404
 30
0.0
  0
POINT
  5
368
330
22
100
AcDbEntity
  8
_0-9_
 62
     4
100
AcDbPoint
 10
9076.943793603339
 20
24240.19252020404
 30
0.0
  0
POINT
  5
369
330
22
100
AcDbEntity
  8
_0-9_
 62
     4
100
AcDbPoint
 10
9076.943793603339
 20
24040.19186036452
 30
0.0
  0
POINT
  5
36A
330
22
100
AcDbEntity
  8
_0-9_
 62
     4
100
AcDbPoint
 10
9076.943793603339
 20
19540.19186036452
 30
0.0
  0
POINT
  5
36B
330
22
100
AcDbEntity
  8
_0-9_
 62
     4
100
AcDbPoint
 10
9076.943793603339
 20
15040.19186036452
 30
0.0
  0
POINT
  5
36C
330
22
100
AcDbEntity
  8
_0-9_
 62
     4
100
AcDbPoint
 10
9076.943793603339
 20
10340.18872612676
 30
0.0
  0
POINT
  5
36D
330
22
100
AcDbEntity
  8
_0-9_
 62
     4
100
AcDbPoint
 10
9076.943793603339
 20
10240.18963340612
 30
0.0
  0
POINT
  5
36E
330
22
100
AcDbEntity
  8
_0-9_
 62
     4
100
AcDbPoint
 10
9076.943793603339
 20
10240.19087060523
 30
0.0
  0
POINT
  5
36F
330
22
100
AcDbEntity
  8
_0-9_
 62
     4
100
AcDbPoint
 10
9076.943793603339
 20
9840.188932326618
 30
0.0
  0
POINT
  5
370
330
22
100
AcDbEntity
  8
_0-9_
 62
     4
100
AcDbPoint
 10
9076.943793603339
 20
7240.191489204784
 30
0.0
  0
TEXT
  5
371
330
22
100
AcDbEntity
  8
_0-9_
 62
     4
100
AcDbText
 10
8026.942803844052
 20
15365.19045820552
 30
0.0
 40
250.0
  1
18,000
 50
90.0
100
AcDbText
  0
TEXT
  5
372
330
22
100
AcDbEntity
  8
_0-9_
 62
     4
100
AcDbText
 10
8526.941979044643
 20
8427.692417104122
 30
0.0
 40
250.0
  1
3,100
 50
90.0
100
AcDbText
  0
TEXT
  5
373
330
22
100
AcDbEntity
  8
_0-9_
 62
     4
100
AcDbText
 10
8526.941979044643
 20
16865.19169540463
 30
0.0
 40
250.0
  1
14,900
 50
90.0
100
AcDbText
  0
TEXT
  5
374
330
22
100
AcDbEntity
  8
_0-9_
 62
     4
100
AcDbText
 10
9026.941154245234
 20
8215.191097425067
 30
0.0
 40
250.0
  1
2,700
 50
90.0
100
AcDbText
  0
TEXT
  5
375
330
22
100
AcDbEntity
  8
_0-9_
 62
     4
100
AcDbText
 10
9026.941154245234
 20
12377.68967464608
 30
0.0
 40
250.0
  1
4,950
 50
90.0
100
AcDbText
  0
TEXT
  5
376
330
22
100
AcDbEntity
  8
_0-9_
 62
     4
100
AcDbText
 10
9026.941154245234
 20
16977.69124176496
 30
0.0
 40
250.0
  1
5,000
 50
90.0
100
AcDbText
  0
TEXT
  5
377
330
22
100
AcDbEntity
  8
_0-9_
 62
     4
100
AcDbText
 10
9026.941154245234
 20
21477.69309756363
 30
0.0
 40
250.0
  1
4,700
 50
90.0
100
AcDbText
  0
TEXT
  5
378
330
22
100
AcDbEntity
  8
_0-7_
 62
     7
100
AcDbText
 10
11986.39101716448
 20
21053.85276553238
 30
0.0
 40
300.0
  1
18-24-1500
 50
90.0
100
AcDbText
  0
LINE
  5
379
330
22
100
AcDbEntity
  8
_0-F_
  6
Continuous
 62
     4
100
AcDbLine
 10
31217.14154750959
 20
23872.81119234298
 30
0.0
 11
32772.97659344199
 21
26567.59618655998
 31
0.0
  0
LINE
  5
37A
330
22
100
AcDbEntity
  8
_0-E_
  6
Continuous
 62
     4
100
AcDbLine
 10
33460.19863604123
 20
26974.50107729056
 30
0.0
 11
33642.60385009318
 21
26974.50107729056
 31
0.0
  0
LINE
  5
37B
330
22
100
AcDbEntity
  8
_0-E_
  6
Continuous
 62
     4
100
AcDbLine
 10
33460.19863604123
 20
26567.59618655998
 30
0.0
 11
32772.97659344199
 21
26567.59618655998
 31
0.0
  0
TEXT
  5
37C
330
22
100
AcDbEntity
  8
_0-E_
 62
     7
100
AcDbText
 10
33715.83325320234
 20
27084.84934059293
 30
0.0
 40
300.0
  1
NET
100
AcDbText
  0
LINE
  5
37D
330
22
100
AcDbEntity
  8
_0-E_
  6
Continuous
 62
     4
100
AcDbLine
 10
33460.19863604123
 20
26974.50107729056
 30
0.0
 11
33460.19863604123
 21
25758.88977517996
 31
0.0
  0
LINE
  5
37E
330
22
100
AcDbEntity
  8
_0-E_
  6
Continuous
 62
     4
100
AcDbLine
 10
33460.19863604123
 20
25758.88977517996
 30
0.0
 11
33642.60385009318
 21
25758.88977517996
 31
0.0
  0
TEXT
  5
37F
330
22
100
AcDbEntity
  8
_0-E_
 62
     7
100
AcDbText
 10
33698.7279857034
 20
26637.75032507349
 30
0.0
 40
300.0
  1
ｸﾚﾓﾅ250D/80本×37.5㎜目
100
AcDbText
  0
TEXT
  5
380
330
22
100
AcDbEntity
  8
_0-E_
 62
     7
100
AcDbText
 10
33526.19888801898
 20
26214.79842737011
 30
0.0
 40
300.0
  1
（KRP-40 1800D/18本×40㎜目 ｴｺﾛﾈｯﾄ）
100
AcDbText
  0
TEXT
  5
381
330
22
100
AcDbEntity
  8
_0-E_
 62
     7
100
AcDbText
 10
33526.19888801898
 20
25793.29797534525
 30
0.0
 40
300.0
  1
（KSP-24 37.5㎜目 ｽｰﾊﾟｰﾎﾟﾘｴﾁﾚﾝ）
100
AcDbText
  0
LINE
  5
382
330
22
100
AcDbEntity
  8
_0-6_
  6
Continuous
 62
     5
100
AcDbLine
 10
26927.74727078999
 20
24040.19186036452
 30
0.0
 11
32576.94214400453
 21
10340.18996332588
 31
0.0
  0
LINE
  5
383
330
22
100
AcDbEntity
  8
_0-6_
  6
Continuous
 62
     5
100
AcDbLine
 10
32576.94214400453
 20
24040.19186036452
 30
0.0
 11
32576.94214400453
 21
10340.18996332588
 31
0.0
  0
LINE
  5
384
330
22
100
AcDbEntity
  8
_0-6_
  6
Continuous
 62
     5
100
AcDbLine
 10
32548.54019958614
 20
10409.06821963394
 30
0.0
 11
32576.94214400453
 21
10409.06821963394
 31
0.0
  0
LINE
  5
385
330
22
100
AcDbEntity
  8
_0-6_
  6
Continuous
 62
     5
100
AcDbLine
 10
32507.30520622139
 20
10509.06821963394
 30
0.0
 11
32576.94214400453
 21
10509.06821963394
 31
0.0
  0
LINE
  5
386
330
22
100
AcDbEntity
  8
_0-6_
  6
Continuous
 62
     5
100
AcDbLine
 10
32466.07021285664
 20
10609.06821963394
 30
0.0
 11
32576.94214400453
 21
10609.06821963394
 31
0.0
  0
LINE
  5
387
330
22
100
AcDbEntity
  8
_0-6_
  6
Continuous
 62
     5
100
AcDbLine
 10
32424.83521949189
 20
10709.06821963394
 30
0.0
 11
32576.94214400453
 21
10709.06821963394
 31
0.0
  0
LINE
  5
388
330
22
100
AcDbEntity
  8
_0-6_
  6
Continuous
 62
     5
100
AcDbLine
 10
32383.60022612714
 20
10809.06821963394
 30
0.0
 11
32576.94214400453
 21
10809.06821963394
 31
0.0
  0
LINE
  5
389
330
22
100
AcDbEntity
  8
_0-6_
  6
Continuous
 62
     5
100
AcDbLine
 10
32342.36523276238
 20
10909.06821963394
 30
0.0
 11
32576.94214400453
 21
10909.06821963394
 31
0.0
  0
LINE
  5
38A
330
22
100
AcDbEntity
  8
_0-6_
  6
Continuous
 62
     5
100
AcDbLine
 10
32301.13023939764
 20
11009.06821963394
 30
0.0
 11
32576.94214400453
 21
11009.06821963394
 31
0.0
  0
LINE
  5
38B
330
22
100
AcDbEntity
  8
_0-6_
  6
Continuous
 62
     5
100
AcDbLine
 10
32259.89524603289
 20
11109.06821963394
 30
0.0
 11
32576.94214400453
 21
11109.06821963394
 31
0.0
  0
LINE
  5
38C
330
22
100
AcDbEntity
  8
_0-6_
  6
Continuous
 62
     5
100
AcDbLine
 10
32218.66025266813
 20
11209.06821963394
 30
0.0
 11
32576.94214400453
 21
11209.06821963394
 31
0.0
  0
LINE
  5
38D
330
22
100
AcDbEntity
  8
_0-6_
  6
Continuous
 62
     5
100
AcDbLine
 10
32177.42525930339
 20
11309.06821963394
 30
0.0
 11
32576.94214400453
 21
11309.06821963394
 31
0.0
  0
LINE
  5
38E
330
22
100
AcDbEntity
  8
_0-6_
  6
Continuous
 62
     5
100
AcDbLine
 10
32136.19026593864
 20
11409.06821963394
 30
0.0
 11
32576.94214400453
 21
11409.06821963394
 31
0.0
  0
LINE
  5
38F
330
22
100
AcDbEntity
  8
_0-6_
  6
Continuous
 62
     5
100
AcDbLine
 10
32094.95527257388
 20
11509.06821963394
 30
0.0
 11
32576.94214400453
 21
11509.06821963394
 31
0.0
  0
LINE
  5
390
330
22
100
AcDbEntity
  8
_0-6_
  6
Continuous
 62
     5
100
AcDbLine
 10
32053.72027920913
 20
11609.06821963394
 30
0.0
 11
32576.94214400453
 21
11609.06821963394
 31
0.0
  0
LINE
  5
391
330
22
100
AcDbEntity
  8
_0-6_
  6
Continuous
 62
     5
100
AcDbLine
 10
32012.48528584438
 20
11709.06821963394
 30
0.0
 11
32576.94214400453
 21
11709.06821963394
 31
0.0
  0
LINE
  5
392
330
22
100
AcDbEntity
  8
_0-6_
  6
Continuous
 62
     5
100
AcDbLine
 10
31971.25029247964
 20
11809.06821963394
 30
0.0
 11
32576.94214400453
 21
11809.06821963394
 31
0.0
  0
LINE
  5
393
330
22
100
AcDbEntity
  8
_0-6_
  6
Continuous
 62
     5
100
AcDbLine
 10
31930.01529911488
 20
11909.06821963394
 30
0.0
 11
32576.94214400453
 21
11909.06821963394
 31
0.0
  0
LINE
  5
394
330
22
100
AcDbEntity
  8
_0-6_
  6
Continuous
 62
     5
100
AcDbLine
 10
31888.78030575013
 20
12009.06821963394
 30
0.0
 11
32576.94214400453
 21
12009.06821963394
 31
0.0
  0
LINE
  5
395
330
22
100
AcDbEntity
  8
_0-6_
  6
Continuous
 62
     5
100
AcDbLine
 10
31847.54531238538
 20
12109.06821963394
 30
0.0
 11
32576.94214400453
 21
12109.06821963394
 31
0.0
  0
LINE
  5
396
330
22
100
AcDbEntity
  8
_0-6_
  6
Continuous
 62
     5
100
AcDbLine
 10
31806.31031902064
 20
12209.06821963394
 30
0.0
 11
32576.94214400453
 21
12209.06821963394
 31
0.0
  0
LINE
  5
397
330
22
100
AcDbEntity
  8
_0-6_
  6
Continuous
 62
     5
100
AcDbLine
 10
31765.07532565588
 20
12309.06821963394
 30
0.0
 11
32576.94214400453
 21
12309.06821963394
 31
0.0
  0
LINE
  5
398
330
22
100
AcDbEntity
  8
_0-6_
  6
Continuous
 62
     5
100
AcDbLine
 10
31723.84033229113
 20
12409.06821963394
 30
0.0
 11
32576.94214400453
 21
12409.06821963394
 31
0.0
  0
LINE
  5
399
330
22
100
AcDbEntity
  8
_0-6_
  6
Continuous
 62
     5
100
AcDbLine
 10
31682.60533892639
 20
12509.06821963394
 30
0.0
 11
32576.94214400453
 21
12509.06821963394
 31
0.0
  0
LINE
  5
39A
330
22
100
AcDbEntity
  8
_0-6_
  6
Continuous
 62
     5
100
AcDbLine
 10
31641.37034556163
 20
12609.06821963394
 30
0.0
 11
32576.94214400453
 21
12609.06821963394
 31
0.0
  0
LINE
  5
39B
330
22
100
AcDbEntity
  8
_0-6_
  6
Continuous
 62
     5
100
AcDbLine
 10
31600.13535219688
 20
12709.06821963394
 30
0.0
 11
32576.94214400453
 21
12709.06821963394
 31
0.0
  0
LINE
  5
39C
330
22
100
AcDbEntity
  8
_0-6_
  6
Continuous
 62
     5
100
AcDbLine
 10
31558.90035883213
 20
12809.06821963394
 30
0.0
 11
32576.94214400453
 21
12809.06821963394
 31
0.0
  0
LINE
  5
39D
330
22
100
AcDbEntity
  8
_0-6_
  6
Continuous
 62
     5
100
AcDbLine
 10
31517.66536546738
 20
12909.06821963394
 30
0.0
 11
32576.94214400453
 21
12909.06821963394
 31
0.0
  0
LINE
  5
39E
330
22
100
AcDbEntity
  8
_0-6_
  6
Continuous
 62
     5
100
AcDbLine
 10
31476.43037210264
 20
13009.06821963394
 30
0.0
 11
32576.94214400453
 21
13009.06821963394
 31
0.0
  0
LINE
  5
39F
330
22
100
AcDbEntity
  8
_0-6_
  6
Continuous
 62
     5
100
AcDbLine
 10
31435.19537873788
 20
13109.06821963394
 30
0.0
 11
32576.94214400453
 21
13109.06821963394
 31
0.0
  0
LINE
  5
3A0
330
22
100
AcDbEntity
  8
_0-6_
  6
Continuous
 62
     5
100
AcDbLine
 10
31393.96038537313
 20
13209.06821963394
 30
0.0
 11
32576.94214400453
 21
13209.06821963394
 31
0.0
  0
LINE
  5
3A1
330
22
100
AcDbEntity
  8
_0-6_
  6
Continuous
 62
     5
100
AcDbLine
 10
31352.72539200838
 20
13309.06821963394
 30
0.0
 11
32576.94214400453
 21
13309.06821963394
 31
0.0
  0
LINE
  5
3A2
330
22
100
AcDbEntity
  8
_0-6_
  6
Continuous
 62
     5
100
AcDbLine
 10
31311.49039864362
 20
13409.06821963394
 30
0.0
 11
32576.94214400453
 21
13409.06821963394
 31
0.0
  0
LINE
  5
3A3
330
22
100
AcDbEntity
  8
_0-6_
  6
Continuous
 62
     5
100
AcDbLine
 10
31270.25540527888
 20
13509.06821963394
 30
0.0
 11
32576.94214400453
 21
13509.06821963394
 31
0.0
  0
LINE
  5
3A4
330
22
100
AcDbEntity
  8
_0-6_
  6
Continuous
 62
     5
100
AcDbLine
 10
31229.02041191413
 20
13609.06821963394
 30
0.0
 11
32576.94214400453
 21
13609.06821963394
 31
0.0
  0
LINE
  5
3A5
330
22
100
AcDbEntity
  8
_0-6_
  6
Continuous
 62
     5
100
AcDbLine
 10
31187.78541854938
 20
13709.06821963394
 30
0.0
 11
32576.94214400453
 21
13709.06821963394
 31
0.0
  0
LINE
  5
3A6
330
22
100
AcDbEntity
  8
_0-6_
  6
Continuous
 62
     5
100
AcDbLine
 10
31146.55042518462
 20
13809.06821963394
 30
0.0
 11
32576.94214400453
 21
13809.06821963394
 31
0.0
  0
LINE
  5
3A7
330
22
100
AcDbEntity
  8
_0-6_
  6
Continuous
 62
     5
100
AcDbLine
 10
31105.31543181988
 20
13909.06821963394
 30
0.0
 11
32576.94214400453
 21
13909.06821963394
 31
0.0
  0
LINE
  5
3A8
330
22
100
AcDbEntity
  8
_0-6_
  6
Continuous
 62
     5
100
AcDbLine
 10
31064.08043845513
 20
14009.06821963394
 30
0.0
 11
32576.94214400453
 21
14009.06821963394
 31
0.0
  0
LINE
  5
3A9
330
22
100
AcDbEntity
  8
_0-6_
  6
Continuous
 62
     5
100
AcDbLine
 10
31022.84544509038
 20
14109.06821963394
 30
0.0
 11
32576.94214400453
 21
14109.06821963394
 31
0.0
  0
LINE
  5
3AA
330
22
100
AcDbEntity
  8
_0-6_
  6
Continuous
 62
     5
100
AcDbLine
 10
30981.61045172563
 20
14209.06821963394
 30
0.0
 11
32576.94214400453
 21
14209.06821963394
 31
0.0
  0
LINE
  5
3AB
330
22
100
AcDbEntity
  8
_0-6_
  6
Continuous
 62
     5
100
AcDbLine
 10
30940.37545836088
 20
14309.06821963394
 30
0.0
 11
32576.94214400453
 21
14309.06821963394
 31
0.0
  0
LINE
  5
3AC
330
22
100
AcDbEntity
  8
_0-6_
  6
Continuous
 62
     5
100
AcDbLine
 10
30899.14046499613
 20
14409.06821963394
 30
0.0
 11
32576.94214400453
 21
14409.06821963394
 31
0.0
  0
LINE
  5
3AD
330
22
100
AcDbEntity
  8
_0-6_
  6
Continuous
 62
     5
100
AcDbLine
 10
30857.90547163138
 20
14509.06821963394
 30
0.0
 11
32576.94214400453
 21
14509.06821963394
 31
0.0
  0
LINE
  5
3AE
330
22
100
AcDbEntity
  8
_0-6_
  6
Continuous
 62
     5
100
AcDbLine
 10
30816.67047826663
 20
14609.06821963394
 30
0.0
 11
32576.94214400453
 21
14609.06821963394
 31
0.0
  0
LINE
  5
3AF
330
22
100
AcDbEntity
  8
_0-6_
  6
Continuous
 62
     5
100
AcDbLine
 10
30775.43548490188
 20
14709.06821963394
 30
0.0
 11
32576.94214400453
 21
14709.06821963394
 31
0.0
  0
LINE
  5
3B0
330
22
100
AcDbEntity
  8
_0-6_
  6
Continuous
 62
     5
100
AcDbLine
 10
30734.20049153713
 20
14809.06821963394
 30
0.0
 11
32576.94214400453
 21
14809.06821963394
 31
0.0
  0
LINE
  5
3B1
330
22
100
AcDbEntity
  8
_0-6_
  6
Continuous
 62
     5
100
AcDbLine
 10
30692.96549817237
 20
14909.06821963394
 30
0.0
 11
32576.94214400453
 21
14909.06821963394
 31
0.0
  0
LINE
  5
3B2
330
22
100
AcDbEntity
  8
_0-6_
  6
Continuous
 62
     5
100
AcDbLine
 10
30651.73050480763
 20
15009.06821963394
 30
0.0
 11
32576.94214400453
 21
15009.06821963394
 31
0.0
  0
LINE
  5
3B3
330
22
100
AcDbEntity
  8
_0-6_
  6
Continuous
 62
     5
100
AcDbLine
 10
30610.49551144288
 20
15109.06821963394
 30
0.0
 11
32576.94214400453
 21
15109.06821963394
 31
0.0
  0
LINE
  5
3B4
330
22
100
AcDbEntity
  8
_0-6_
  6
Continuous
 62
     5
100
AcDbLine
 10
30569.26051807812
 20
15209.06821963394
 30
0.0
 11
32576.94214400453
 21
15209.06821963394
 31
0.0
  0
LINE
  5
3B5
330
22
100
AcDbEntity
  8
_0-6_
  6
Continuous
 62
     5
100
AcDbLine
 10
30528.02552471337
 20
15309.06821963394
 30
0.0
 11
32576.94214400453
 21
15309.06821963394
 31
0.0
  0
LINE
  5
3B6
330
22
100
AcDbEntity
  8
_0-6_
  6
Continuous
 62
     5
100
AcDbLine
 10
30486.79053134862
 20
15409.06821963394
 30
0.0
 11
32576.94214400453
 21
15409.06821963394
 31
0.0
  0
LINE
  5
3B7
330
22
100
AcDbEntity
  8
_0-6_
  6
Continuous
 62
     5
100
AcDbLine
 10
30445.55553798388
 20
15509.06821963394
 30
0.0
 11
32576.94214400453
 21
15509.06821963394
 31
0.0
  0
LINE
  5
3B8
330
22
100
AcDbEntity
  8
_0-6_
  6
Continuous
 62
     5
100
AcDbLine
 10
30404.32054461912
 20
15609.06821963394
 30
0.0
 11
32576.94214400453
 21
15609.06821963394
 31
0.0
  0
LINE
  5
3B9
330
22
100
AcDbEntity
  8
_0-6_
  6
Continuous
 62
     5
100
AcDbLine
 10
30363.08555125437
 20
15709.06821963394
 30
0.0
 11
32576.94214400453
 21
15709.06821963394
 31
0.0
  0
LINE
  5
3BA
330
22
100
AcDbEntity
  8
_0-6_
  6
Continuous
 62
     5
100
AcDbLine
 10
30321.85055788963
 20
15809.06821963394
 30
0.0
 11
32576.94214400453
 21
15809.06821963394
 31
0.0
  0
LINE
  5
3BB
330
22
100
AcDbEntity
  8
_0-6_
  6
Continuous
 62
     5
100
AcDbLine
 10
30280.61556452488
 20
15909.06821963394
 30
0.0
 11
32576.94214400453
 21
15909.06821963394
 31
0.0
  0
LINE
  5
3BC
330
22
100
AcDbEntity
  8
_0-6_
  6
Continuous
 62
     5
100
AcDbLine
 10
30239.38057116012
 20
16009.06821963394
 30
0.0
 11
32576.94214400453
 21
16009.06821963394
 31
0.0
  0
LINE
  5
3BD
330
22
100
AcDbEntity
  8
_0-6_
  6
Continuous
 62
     5
100
AcDbLine
 10
30198.14557779537
 20
16109.06821963394
 30
0.0
 11
32576.94214400453
 21
16109.06821963394
 31
0.0
  0
LINE
  5
3BE
330
22
100
AcDbEntity
  8
_0-6_
  6
Continuous
 62
     5
100
AcDbLine
 10
30156.91058443063
 20
16209.06821963394
 30
0.0
 11
32576.94214400453
 21
16209.06821963394
 31
0.0
  0
LINE
  5
3BF
330
22
100
AcDbEntity
  8
_0-6_
  6
Continuous
 62
     5
100
AcDbLine
 10
30115.67559106588
 20
16309.06821963394
 30
0.0
 11
32576.94214400453
 21
16309.06821963394
 31
0.0
  0
LINE
  5
3C0
330
22
100
AcDbEntity
  8
_0-6_
  6
Continuous
 62
     5
100
AcDbLine
 10
30074.44059770112
 20
16409.06821963394
 30
0.0
 11
32576.94214400453
 21
16409.06821963394
 31
0.0
  0
LINE
  5
3C1
330
22
100
AcDbEntity
  8
_0-6_
  6
Continuous
 62
     5
100
AcDbLine
 10
30033.20560433637
 20
16509.06821963394
 30
0.0
 11
32576.94214400453
 21
16509.06821963394
 31
0.0
  0
LINE
  5
3C2
330
22
100
AcDbEntity
  8
_0-6_
  6
Continuous
 62
     5
100
AcDbLine
 10
29991.97061097163
 20
16609.06821963394
 30
0.0
 11
32576.94214400453
 21
16609.06821963394
 31
0.0
  0
LINE
  5
3C3
330
22
100
AcDbEntity
  8
_0-6_
  6
Continuous
 62
     5
100
AcDbLine
 10
29950.73561760687
 20
16709.06821963394
 30
0.0
 11
32576.94214400453
 21
16709.06821963394
 31
0.0
  0
LINE
  5
3C4
330
22
100
AcDbEntity
  8
_0-6_
  6
Continuous
 62
     5
100
AcDbLine
 10
29909.50062424212
 20
16809.06821963394
 30
0.0
 11
32576.94214400453
 21
16809.06821963394
 31
0.0
  0
LINE
  5
3C5
330
22
100
AcDbEntity
  8
_0-6_
  6
Continuous
 62
     5
100
AcDbLine
 10
29868.26563087737
 20
16909.06821963394
 30
0.0
 11
32576.94214400453
 21
16909.06821963394
 31
0.0
  0
LINE
  5
3C6
330
22
100
AcDbEntity
  8
_0-6_
  6
Continuous
 62
     5
100
AcDbLine
 10
29827.03063751262
 20
17009.06821963394
 30
0.0
 11
32576.94214400453
 21
17009.06821963394
 31
0.0
  0
LINE
  5
3C7
330
22
100
AcDbEntity
  8
_0-6_
  6
Continuous
 62
     5
100
AcDbLine
 10
29785.79564414787
 20
17109.06821963394
 30
0.0
 11
32576.94214400453
 21
17109.06821963394
 31
0.0
  0
LINE
  5
3C8
330
22
100
AcDbEntity
  8
_0-6_
  6
Continuous
 62
     5
100
AcDbLine
 10
29744.56065078312
 20
17209.06821963394
 30
0.0
 11
32576.94214400453
 21
17209.06821963394
 31
0.0
  0
LINE
  5
3C9
330
22
100
AcDbEntity
  8
_0-6_
  6
Continuous
 62
     5
100
AcDbLine
 10
29703.32565741837
 20
17309.06821963394
 30
0.0
 11
32576.94214400453
 21
17309.06821963394
 31
0.0
  0
LINE
  5
3CA
330
22
100
AcDbEntity
  8
_0-6_
  6
Continuous
 62
     5
100
AcDbLine
 10
29662.09066405362
 20
17409.06821963394
 30
0.0
 11
32576.94214400453
 21
17409.06821963394
 31
0.0
  0
LINE
  5
3CB
330
22
100
AcDbEntity
  8
_0-6_
  6
Continuous
 62
     5
100
AcDbLine
 10
29620.85567068887
 20
17509.06821963394
 30
0.0
 11
32576.94214400453
 21
17509.06821963394
 31
0.0
  0
LINE
  5
3CC
330
22
100
AcDbEntity
  8
_0-6_
  6
Continuous
 62
     5
100
AcDbLine
 10
29579.62067732412
 20
17609.06821963394
 30
0.0
 11
32576.94214400453
 21
17609.06821963394
 31
0.0
  0
LINE
  5
3CD
330
22
100
AcDbEntity
  8
_0-6_
  6
Continuous
 62
     5
100
AcDbLine
 10
29538.38568395937
 20
17709.06821963394
 30
0.0
 11
32576.94214400453
 21
17709.06821963394
 31
0.0
  0
LINE
  5
3CE
330
22
100
AcDbEntity
  8
_0-6_
  6
Continuous
 62
     5
100
AcDbLine
 10
29497.15069059461
 20
17809.06821963394
 30
0.0
 11
32576.94214400453
 21
17809.06821963394
 31
0.0
  0
LINE
  5
3CF
330
22
100
AcDbEntity
  8
_0-6_
  6
Continuous
 62
     5
100
AcDbLine
 10
29455.91569722987
 20
17909.06821963394
 30
0.0
 11
32576.94214400453
 21
17909.06821963394
 31
0.0
  0
LINE
  5
3D0
330
22
100
AcDbEntity
  8
_0-6_
  6
Continuous
 62
     5
100
AcDbLine
 10
29414.68070386512
 20
18009.06821963394
 30
0.0
 11
32576.94214400453
 21
18009.06821963394
 31
0.0
  0
LINE
  5
3D1
330
22
100
AcDbEntity
  8
_0-6_
  6
Continuous
 62
     5
100
AcDbLine
 10
29373.44571050037
 20
18109.06821963394
 30
0.0
 11
32576.94214400453
 21
18109.06821963394
 31
0.0
  0
LINE
  5
3D2
330
22
100
AcDbEntity
  8
_0-6_
  6
Continuous
 62
     5
100
AcDbLine
 10
29332.21071713561
 20
18209.06821963394
 30
0.0
 11
32576.94214400453
 21
18209.06821963394
 31
0.0
  0
LINE
  5
3D3
330
22
100
AcDbEntity
  8
_0-6_
  6
Continuous
 62
     5
100
AcDbLine
 10
29290.97572377087
 20
18309.06821963394
 30
0.0
 11
32576.94214400453
 21
18309.06821963394
 31
0.0
  0
LINE
  5
3D4
330
22
100
AcDbEntity
  8
_0-6_
  6
Continuous
 62
     5
100
AcDbLine
 10
29249.74073040612
 20
18409.06821963394
 30
0.0
 11
32576.94214400453
 21
18409.06821963394
 31
0.0
  0
LINE
  5
3D5
330
22
100
AcDbEntity
  8
_0-6_
  6
Continuous
 62
     5
100
AcDbLine
 10
29208.50573704137
 20
18509.06821963394
 30
0.0
 11
32576.94214400453
 21
18509.06821963394
 31
0.0
  0
LINE
  5
3D6
330
22
100
AcDbEntity
  8
_0-6_
  6
Continuous
 62
     5
100
AcDbLine
 10
29167.27074367661
 20
18609.06821963394
 30
0.0
 11
32576.94214400453
 21
18609.06821963394
 31
0.0
  0
LINE
  5
3D7
330
22
100
AcDbEntity
  8
_0-6_
  6
Continuous
 62
     5
100
AcDbLine
 10
29126.03575031186
 20
18709.06821963394
 30
0.0
 11
32576.94214400453
 21
18709.06821963394
 31
0.0
  0
LINE
  5
3D8
330
22
100
AcDbEntity
  8
_0-6_
  6
Continuous
 62
     5
100
AcDbLine
 10
29084.80075694712
 20
18809.06821963394
 30
0.0
 11
32576.94214400453
 21
18809.06821963394
 31
0.0
  0
LINE
  5
3D9
330
22
100
AcDbEntity
  8
_0-6_
  6
Continuous
 62
     5
100
AcDbLine
 10
29043.56576358237
 20
18909.06821963394
 30
0.0
 11
32576.94214400453
 21
18909.06821963394
 31
0.0
  0
LINE
  5
3DA
330
22
100
AcDbEntity
  8
_0-6_
  6
Continuous
 62
     5
100
AcDbLine
 10
29002.33077021762
 20
19009.06821963394
 30
0.0
 11
32576.94214400453
 21
19009.06821963394
 31
0.0
  0
LINE
  5
3DB
330
22
100
AcDbEntity
  8
_0-6_
  6
Continuous
 62
     5
100
AcDbLine
 10
28961.09577685287
 20
19109.06821963394
 30
0.0
 11
32576.94214400453
 21
19109.06821963394
 31
0.0
  0
LINE
  5
3DC
330
22
100
AcDbEntity
  8
_0-6_
  6
Continuous
 62
     5
100
AcDbLine
 10
28919.86078348812
 20
19209.06821963394
 30
0.0
 11
32576.94214400453
 21
19209.06821963394
 31
0.0
  0
LINE
  5
3DD
330
22
100
AcDbEntity
  8
_0-6_
  6
Continuous
 62
     5
100
AcDbLine
 10
28878.62579012336
 20
19309.06821963394
 30
0.0
 11
32576.94214400453
 21
19309.06821963394
 31
0.0
  0
LINE
  5
3DE
330
22
100
AcDbEntity
  8
_0-6_
  6
Continuous
 62
     5
100
AcDbLine
 10
28837.39079675862
 20
19409.06821963394
 30
0.0
 11
32576.94214400453
 21
19409.06821963394
 31
0.0
  0
LINE
  5
3DF
330
22
100
AcDbEntity
  8
_0-6_
  6
Continuous
 62
     5
100
AcDbLine
 10
28796.15580339387
 20
19509.06821963394
 30
0.0
 11
32576.94214400453
 21
19509.06821963394
 31
0.0
  0
LINE
  5
3E0
330
22
100
AcDbEntity
  8
_0-6_
  6
Continuous
 62
     5
100
AcDbLine
 10
28754.92081002912
 20
19609.06821963394
 30
0.0
 11
32576.94214400453
 21
19609.06821963394
 31
0.0
  0
LINE
  5
3E1
330
22
100
AcDbEntity
  8
_0-6_
  6
Continuous
 62
     5
100
AcDbLine
 10
28713.68581666436
 20
19709.06821963394
 30
0.0
 11
32576.94214400453
 21
19709.06821963394
 31
0.0
  0
LINE
  5
3E2
330
22
100
AcDbEntity
  8
_0-6_
  6
Continuous
 62
     5
100
AcDbLine
 10
28672.45082329961
 20
19809.06821963394
 30
0.0
 11
32576.94214400453
 21
19809.06821963394
 31
0.0
  0
LINE
  5
3E3
330
22
100
AcDbEntity
  8
_0-6_
  6
Continuous
 62
     5
100
AcDbLine
 10
28631.21582993487
 20
19909.06821963394
 30
0.0
 11
32576.94214400453
 21
19909.06821963394
 31
0.0
  0
LINE
  5
3E4
330
22
100
AcDbEntity
  8
_0-6_
  6
Continuous
 62
     5
100
AcDbLine
 10
28589.98083657012
 20
20009.06821963394
 30
0.0
 11
32576.94214400453
 21
20009.06821963394
 31
0.0
  0
LINE
  5
3E5
330
22
100
AcDbEntity
  8
_0-6_
  6
Continuous
 62
     5
100
AcDbLine
 10
28548.74584320537
 20
20109.06821963394
 30
0.0
 11
32576.94214400453
 21
20109.06821963394
 31
0.0
  0
LINE
  5
3E6
330
22
100
AcDbEntity
  8
_0-6_
  6
Continuous
 62
     5
100
AcDbLine
 10
28507.51084984061
 20
20209.06821963394
 30
0.0
 11
32576.94214400453
 21
20209.06821963394
 31
0.0
  0
LINE
  5
3E7
330
22
100
AcDbEntity
  8
_0-6_
  6
Continuous
 62
     5
100
AcDbLine
 10
28466.27585647587
 20
20309.06821963395
 30
0.0
 11
32576.94214400453
 21
20309.06821963395
 31
0.0
  0
LINE
  5
3E8
330
22
100
AcDbEntity
  8
_0-6_
  6
Continuous
 62
     5
100
AcDbLine
 10
28425.04086311111
 20
20409.06821963394
 30
0.0
 11
32576.94214400453
 21
20409.06821963394
 31
0.0
  0
LINE
  5
3E9
330
22
100
AcDbEntity
  8
_0-6_
  6
Continuous
 62
     5
100
AcDbLine
 10
28383.80586974636
 20
20509.06821963395
 30
0.0
 11
32576.94214400453
 21
20509.06821963395
 31
0.0
  0
LINE
  5
3EA
330
22
100
AcDbEntity
  8
_0-6_
  6
Continuous
 62
     5
100
AcDbLine
 10
28342.57087638161
 20
20609.06821963394
 30
0.0
 11
32576.94214400453
 21
20609.06821963394
 31
0.0
  0
LINE
  5
3EB
330
22
100
AcDbEntity
  8
_0-6_
  6
Continuous
 62
     5
100
AcDbLine
 10
28301.33588301686
 20
20709.06821963395
 30
0.0
 11
32576.94214400453
 21
20709.06821963395
 31
0.0
  0
LINE
  5
3EC
330
22
100
AcDbEntity
  8
_0-6_
  6
Continuous
 62
     5
100
AcDbLine
 10
28260.10088965211
 20
20809.06821963394
 30
0.0
 11
32576.94214400453
 21
20809.06821963394
 31
0.0
  0
LINE
  5
3ED
330
22
100
AcDbEntity
  8
_0-6_
  6
Continuous
 62
     5
100
AcDbLine
 10
28218.86589628737
 20
20909.06821963395
 30
0.0
 11
32576.94214400453
 21
20909.06821963395
 31
0.0
  0
LINE
  5
3EE
330
22
100
AcDbEntity
  8
_0-6_
  6
Continuous
 62
     5
100
AcDbLine
 10
28177.63090292261
 20
21009.06821963394
 30
0.0
 11
32576.94214400453
 21
21009.06821963394
 31
0.0
  0
LINE
  5
3EF
330
22
100
AcDbEntity
  8
_0-6_
  6
Continuous
 62
     5
100
AcDbLine
 10
28136.39590955786
 20
21109.06821963395
 30
0.0
 11
32576.94214400453
 21
21109.06821963395
 31
0.0
  0
LINE
  5
3F0
330
22
100
AcDbEntity
  8
_0-6_
  6
Continuous
 62
     5
100
AcDbLine
 10
28095.16091619311
 20
21209.06821963394
 30
0.0
 11
32576.94214400453
 21
21209.06821963394
 31
0.0
  0
LINE
  5
3F1
330
22
100
AcDbEntity
  8
_0-6_
  6
Continuous
 62
     5
100
AcDbLine
 10
28053.92592282836
 20
21309.06821963395
 30
0.0
 11
32576.94214400453
 21
21309.06821963395
 31
0.0
  0
LINE
  5
3F2
330
22
100
AcDbEntity
  8
_0-6_
  6
Continuous
 62
     5
100
AcDbLine
 10
28012.69092946361
 20
21409.06821963394
 30
0.0
 11
32576.94214400453
 21
21409.06821963394
 31
0.0
  0
LINE
  5
3F3
330
22
100
AcDbEntity
  8
_0-6_
  6
Continuous
 62
     5
100
AcDbLine
 10
27971.45593609886
 20
21509.06821963395
 30
0.0
 11
32576.94214400453
 21
21509.06821963395
 31
0.0
  0
LINE
  5
3F4
330
22
100
AcDbEntity
  8
_0-6_
  6
Continuous
 62
     5
100
AcDbLine
 10
27930.22094273411
 20
21609.06821963394
 30
0.0
 11
32576.94214400453
 21
21609.06821963394
 31
0.0
  0
LINE
  5
3F5
330
22
100
AcDbEntity
  8
_0-6_
  6
Continuous
 62
     5
100
AcDbLine
 10
27888.98594936936
 20
21709.06821963395
 30
0.0
 11
32576.94214400453
 21
21709.06821963395
 31
0.0
  0
LINE
  5
3F6
330
22
100
AcDbEntity
  8
_0-6_
  6
Continuous
 62
     5
100
AcDbLine
 10
27847.75095600461
 20
21809.06821963394
 30
0.0
 11
32576.94214400453
 21
21809.06821963394
 31
0.0
  0
LINE
  5
3F7
330
22
100
AcDbEntity
  8
_0-6_
  6
Continuous
 62
     5
100
AcDbLine
 10
27806.51596263986
 20
21909.06821963395
 30
0.0
 11
32576.94214400453
 21
21909.06821963395
 31
0.0
  0
LINE
  5
3F8
330
22
100
AcDbEntity
  8
_0-6_
  6
Continuous
 62
     5
100
AcDbLine
 10
27765.28096927511
 20
22009.06821963394
 30
0.0
 11
32576.94214400453
 21
22009.06821963394
 31
0.0
  0
LINE
  5
3F9
330
22
100
AcDbEntity
  8
_0-6_
  6
Continuous
 62
     5
100
AcDbLine
 10
27724.04597591036
 20
22109.06821963395
 30
0.0
 11
32576.94214400453
 21
22109.06821963395
 31
0.0
  0
LINE
  5
3FA
330
22
100
AcDbEntity
  8
_0-6_
  6
Continuous
 62
     5
100
AcDbLine
 10
27682.8109825456
 20
22209.06821963394
 30
0.0
 11
32576.94214400453
 21
22209.06821963394
 31
0.0
  0
LINE
  5
3FB
330
22
100
AcDbEntity
  8
_0-6_
  6
Continuous
 62
     5
100
AcDbLine
 10
27641.57598918086
 20
22309.06821963394
 30
0.0
 11
32576.94214400453
 21
22309.06821963394
 31
0.0
  0
LINE
  5
3FC
330
22
100
AcDbEntity
  8
_0-6_
  6
Continuous
 62
     5
100
AcDbLine
 10
27600.34099581611
 20
22409.06821963394
 30
0.0
 11
32576.94214400453
 21
22409.06821963394
 31
0.0
  0
LINE
  5
3FD
330
22
100
AcDbEntity
  8
_0-6_
  6
Continuous
 62
     5
100
AcDbLine
 10
27559.10600245136
 20
22509.06821963394
 30
0.0
 11
32576.94214400453
 21
22509.06821963394
 31
0.0
  0
LINE
  5
3FE
330
22
100
AcDbEntity
  8
_0-6_
  6
Continuous
 62
     5
100
AcDbLine
 10
27517.8710090866
 20
22609.06821963394
 30
0.0
 11
32576.94214400453
 21
22609.06821963394
 31
0.0
  0
LINE
  5
3FF
330
22
100
AcDbEntity
  8
_0-6_
  6
Continuous
 62
     5
100
AcDbLine
 10
27476.63601572186
 20
22709.06821963394
 30
0.0
 11
32576.94214400453
 21
22709.06821963394
 31
0.0
  0
LINE
  5
400
330
22
100
AcDbEntity
  8
_0-6_
  6
Continuous
 62
     5
100
AcDbLine
 10
27435.40102235711
 20
22809.06821963395
 30
0.0
 11
32576.94214400453
 21
22809.06821963395
 31
0.0
  0
LINE
  5
401
330
22
100
AcDbEntity
  8
_0-6_
  6
Continuous
 62
     5
100
AcDbLine
 10
27394.16602899236
 20
22909.06821963394
 30
0.0
 11
32576.94214400453
 21
22909.06821963394
 31
0.0
  0
LINE
  5
402
330
22
100
AcDbEntity
  8
_0-6_
  6
Continuous
 62
     5
100
AcDbLine
 10
27352.93103562761
 20
23009.06821963395
 30
0.0
 11
32576.94214400453
 21
23009.06821963395
 31
0.0
  0
LINE
  5
403
330
22
100
AcDbEntity
  8
_0-6_
  6
Continuous
 62
     5
100
AcDbLine
 10
27311.69604226285
 20
23109.06821963394
 30
0.0
 11
32576.94214400453
 21
23109.06821963394
 31
0.0
  0
LINE
  5
404
330
22
100
AcDbEntity
  8
_0-6_
  6
Continuous
 62
     5
100
AcDbLine
 10
27270.46104889811
 20
23209.06821963395
 30
0.0
 11
32576.94214400453
 21
23209.06821963395
 31
0.0
  0
LINE
  5
405
330
22
100
AcDbEntity
  8
_0-6_
  6
Continuous
 62
     5
100
AcDbLine
 10
27229.22605553336
 20
23309.06821963394
 30
0.0
 11
32576.94214400453
 21
23309.06821963394
 31
0.0
  0
LINE
  5
406
330
22
100
AcDbEntity
  8
_0-6_
  6
Continuous
 62
     5
100
AcDbLine
 10
27187.99106216861
 20
23409.06821963395
 30
0.0
 11
32576.94214400453
 21
23409.06821963395
 31
0.0
  0
LINE
  5
407
330
22
100
AcDbEntity
  8
_0-6_
  6
Continuous
 62
     5
100
AcDbLine
 10
27146.75606880386
 20
23509.06821963394
 30
0.0
 11
32576.94214400453
 21
23509.06821963394
 31
0.0
  0
LINE
  5
408
330
22
100
AcDbEntity
  8
_0-6_
  6
Continuous
 62
     5
100
AcDbLine
 10
27105.5210754391
 20
23609.06821963395
 30
0.0
 11
32576.94214400453
 21
23609.06821963395
 31
0.0
  0
LINE
  5
409
330
22
100
AcDbEntity
  8
_0-6_
  6
Continuous
 62
     5
100
AcDbLine
 10
27064.28608207435
 20
23709.06821963394
 30
0.0
 11
32576.94214400453
 21
23709.06821963394
 31
0.0
  0
LINE
  5
40A
330
22
100
AcDbEntity
  8
_0-6_
  6
Continuous
 62
     5
100
AcDbLine
 10
27023.05108870961
 20
23809.06821963395
 30
0.0
 11
32576.94214400453
 21
23809.06821963395
 31
0.0
  0
LINE
  5
40B
330
22
100
AcDbEntity
  8
_0-6_
  6
Continuous
 62
     5
100
AcDbLine
 10
26981.81609534486
 20
23909.06821963394
 30
0.0
 11
32576.94214400453
 21
23909.06821963394
 31
0.0
  0
LINE
  5
40C
330
22
100
AcDbEntity
  8
_0-6_
  6
Continuous
 62
     5
100
AcDbLine
 10
26940.5811019801
 20
24009.06821963395
 30
0.0
 11
32576.94214400453
 21
24009.06821963395
 31
0.0
  0
LINE
  5
40D
330
22
100
AcDbEntity
  8
_0-6_
  6
Continuous
 62
     5
100
AcDbLine
 10
32553.25044082673
 20
10397.64529736272
 30
0.0
 11
32553.25044082673
 21
24040.19186036452
 31
0.0
  0
LINE
  5
40E
330
22
100
AcDbEntity
  8
_0-6_
  6
Continuous
 62
     5
100
AcDbLine
 10
32453.25044082674
 20
10640.15776514812
 30
0.0
 11
32453.25044082674
 21
24040.19186036452
 31
0.0
  0
LINE
  5
40F
330
22
100
AcDbEntity
  8
_0-6_
  6
Continuous
 62
     5
100
AcDbLine
 10
32353.25044082673
 20
10882.67023293351
 30
0.0
 11
32353.25044082673
 21
24040.19186036452
 31
0.0
  0
LINE
  5
410
330
22
100
AcDbEntity
  8
_0-6_
  6
Continuous
 62
     5
100
AcDbLine
 10
32253.25044082674
 20
11125.1827007189
 30
0.0
 11
32253.25044082674
 21
24040.19186036452
 31
0.0
  0
LINE
  5
411
330
22
100
AcDbEntity
  8
_0-6_
  6
Continuous
 62
     5
100
AcDbLine
 10
32153.25044082673
 20
11367.6951685043
 30
0.0
 11
32153.25044082673
 21
24040.19186036452
 31
0.0
  0
LINE
  5
412
330
22
100
AcDbEntity
  8
_0-6_
  6
Continuous
 62
     5
100
AcDbLine
 10
32053.25044082674
 20
11610.2076362897
 30
0.0
 11
32053.25044082674
 21
24040.19186036452
 31
0.0
  0
LINE
  5
413
330
22
100
AcDbEntity
  8
_0-6_
  6
Continuous
 62
     5
100
AcDbLine
 10
31953.25044082673
 20
11852.72010407509
 30
0.0
 11
31953.25044082673
 21
24040.19186036452
 31
0.0
  0
LINE
  5
414
330
22
100
AcDbEntity
  8
_0-6_
  6
Continuous
 62
     5
100
AcDbLine
 10
31853.25044082674
 20
12095.23257186049
 30
0.0
 11
31853.25044082674
 21
24040.19186036452
 31
0.0
  0
LINE
  5
415
330
22
100
AcDbEntity
  8
_0-6_
  6
Continuous
 62
     5
100
AcDbLine
 10
31753.25044082673
 20
12337.74503964588
 30
0.0
 11
31753.25044082673
 21
24040.19186036452
 31
0.0
  0
LINE
  5
416
330
22
100
AcDbEntity
  8
_0-6_
  6
Continuous
 62
     5
100
AcDbLine
 10
31653.25044082674
 20
12580.25750743128
 30
0.0
 11
31653.25044082674
 21
24040.19186036452
 31
0.0
  0
LINE
  5
417
330
22
100
AcDbEntity
  8
_0-6_
  6
Continuous
 62
     5
100
AcDbLine
 10
31553.25044082673
 20
12822.76997521668
 30
0.0
 11
31553.25044082673
 21
24040.19186036452
 31
0.0
  0
LINE
  5
418
330
22
100
AcDbEntity
  8
_0-6_
  6
Continuous
 62
     5
100
AcDbLine
 10
31453.25044082674
 20
13065.28244300207
 30
0.0
 11
31453.25044082674
 21
24040.19186036452
 31
0.0
  0
LINE
  5
419
330
22
100
AcDbEntity
  8
_0-6_
  6
Continuous
 62
     5
100
AcDbLine
 10
31353.25044082673
 20
13307.79491078747
 30
0.0
 11
31353.25044082673
 21
24040.19186036452
 31
0.0
  0
LINE
  5
41A
330
22
100
AcDbEntity
  8
_0-6_
  6
Continuous
 62
     5
100
AcDbLine
 10
31253.25044082674
 20
13550.30737857287
 30
0.0
 11
31253.25044082674
 21
24040.19186036452
 31
0.0
  0
LINE
  5
41B
330
22
100
AcDbEntity
  8
_0-6_
  6
Continuous
 62
     5
100
AcDbLine
 10
31153.25044082673
 20
13792.81984635826
 30
0.0
 11
31153.25044082673
 21
24040.19186036452
 31
0.0
  0
LINE
  5
41C
330
22
100
AcDbEntity
  8
_0-6_
  6
Continuous
 62
     5
100
AcDbLine
 10
31053.25044082674
 20
14035.33231414365
 30
0.0
 11
31053.25044082674
 21
24040.19186036452
 31
0.0
  0
LINE
  5
41D
330
22
100
AcDbEntity
  8
_0-6_
  6
Continuous
 62
     5
100
AcDbLine
 10
30953.25044082673
 20
14277.84478192905
 30
0.0
 11
30953.25044082673
 21
24040.19186036452
 31
0.0
  0
LINE
  5
41E
330
22
100
AcDbEntity
  8
_0-6_
  6
Continuous
 62
     5
100
AcDbLine
 10
30853.25044082674
 20
14520.35724971445
 30
0.0
 11
30853.25044082674
 21
24040.19186036452
 31
0.0
  0
LINE
  5
41F
330
22
100
AcDbEntity
  8
_0-6_
  6
Continuous
 62
     5
100
AcDbLine
 10
30753.25044082673
 20
14762.86971749984
 30
0.0
 11
30753.25044082673
 21
24040.19186036452
 31
0.0
  0
LINE
  5
420
330
22
100
AcDbEntity
  8
_0-6_
  6
Continuous
 62
     5
100
AcDbLine
 10
30653.25044082674
 20
15005.38218528524
 30
0.0
 11
30653.25044082674
 21
24040.19186036452
 31
0.0
  0
LINE
  5
421
330
22
100
AcDbEntity
  8
_0-6_
  6
Continuous
 62
     5
100
AcDbLine
 10
30553.25044082673
 20
15247.89465307063
 30
0.0
 11
30553.25044082673
 21
24040.19186036452
 31
0.0
  0
LINE
  5
422
330
22
100
AcDbEntity
  8
_0-6_
  6
Continuous
 62
     5
100
AcDbLine
 10
30453.25044082674
 20
15490.40712085603
 30
0.0
 11
30453.25044082674
 21
24040.19186036452
 31
0.0
  0
LINE
  5
423
330
22
100
AcDbEntity
  8
_0-6_
  6
Continuous
 62
     5
100
AcDbLine
 10
30353.25044082673
 20
15732.91958864143
 30
0.0
 11
30353.25044082673
 21
24040.19186036452
 31
0.0
  0
LINE
  5
424
330
22
100
AcDbEntity
  8
_0-6_
  6
Continuous
 62
     5
100
AcDbLine
 10
30253.25044082673
 20
15975.43205642682
 30
0.0
 11
30253.25044082673
 21
24040.19186036452
 31
0.0
  0
LINE
  5
425
330
22
100
AcDbEntity
  8
_0-6_
  6
Continuous
 62
     5
100
AcDbLine
 10
30153.25044082674
 20
16217.94452421222
 30
0.0
 11
30153.25044082674
 21
24040.19186036452
 31
0.0
  0
LINE
  5
426
330
22
100
AcDbEntity
  8
_0-6_
  6
Continuous
 62
     5
100
AcDbLine
 10
30053.25044082673
 20
16460.45699199761
 30
0.0
 11
30053.25044082673
 21
24040.19186036452
 31
0.0
  0
LINE
  5
427
330
22
100
AcDbEntity
  8
_0-6_
  6
Continuous
 62
     5
100
AcDbLine
 10
29953.25044082674
 20
16702.96945978301
 30
0.0
 11
29953.25044082674
 21
24040.19186036452
 31
0.0
  0
LINE
  5
428
330
22
100
AcDbEntity
  8
_0-6_
  6
Continuous
 62
     5
100
AcDbLine
 10
29853.25044082673
 20
16945.4819275684
 30
0.0
 11
29853.25044082673
 21
24040.19186036452
 31
0.0
  0
LINE
  5
429
330
22
100
AcDbEntity
  8
_0-6_
  6
Continuous
 62
     5
100
AcDbLine
 10
29753.25044082674
 20
17187.9943953538
 30
0.0
 11
29753.25044082674
 21
24040.19186036452
 31
0.0
  0
LINE
  5
42A
330
22
100
AcDbEntity
  8
_0-6_
  6
Continuous
 62
     5
100
AcDbLine
 10
29653.25044082673
 20
17430.5068631392
 30
0.0
 11
29653.25044082673
 21
24040.19186036452
 31
0.0
  0
LINE
  5
42B
330
22
100
AcDbEntity
  8
_0-6_
  6
Continuous
 62
     5
100
AcDbLine
 10
29553.25044082674
 20
17673.01933092459
 30
0.0
 11
29553.25044082674
 21
24040.19186036452
 31
0.0
  0
LINE
  5
42C
330
22
100
AcDbEntity
  8
_0-6_
  6
Continuous
 62
     5
100
AcDbLine
 10
29453.25044082673
 20
17915.53179870999
 30
0.0
 11
29453.25044082673
 21
24040.19186036452
 31
0.0
  0
LINE
  5
42D
330
22
100
AcDbEntity
  8
_0-6_
  6
Continuous
 62
     5
100
AcDbLine
 10
29353.25044082674
 20
18158.04426649538
 30
0.0
 11
29353.25044082674
 21
24040.19186036452
 31
0.0
  0
LINE
  5
42E
330
22
100
AcDbEntity
  8
_0-6_
  6
Continuous
 62
     5
100
AcDbLine
 10
29253.25044082673
 20
18400.55673428078
 30
0.0
 11
29253.25044082673
 21
24040.19186036452
 31
0.0
  0
LINE
  5
42F
330
22
100
AcDbEntity
  8
_0-6_
  6
Continuous
 62
     5
100
AcDbLine
 10
29153.25044082674
 20
18643.06920206617
 30
0.0
 11
29153.25044082674
 21
24040.19186036452
 31
0.0
  0
LINE
  5
430
330
22
100
AcDbEntity
  8
_0-6_
  6
Continuous
 62
     5
100
AcDbLine
 10
29053.25044082673
 20
18885.58166985157
 30
0.0
 11
29053.25044082673
 21
24040.19186036452
 31
0.0
  0
LINE
  5
431
330
22
100
AcDbEntity
  8
_0-6_
  6
Continuous
 62
     5
100
AcDbLine
 10
28953.25044082674
 20
19128.09413763697
 30
0.0
 11
28953.25044082674
 21
24040.19186036452
 31
0.0
  0
LINE
  5
432
330
22
100
AcDbEntity
  8
_0-6_
  6
Continuous
 62
     5
100
AcDbLine
 10
28853.25044082673
 20
19370.60660542236
 30
0.0
 11
28853.25044082673
 21
24040.19186036452
 31
0.0
  0
LINE
  5
433
330
22
100
AcDbEntity
  8
_0-6_
  6
Continuous
 62
     5
100
AcDbLine
 10
28753.25044082673
 20
19613.11907320776
 30
0.0
 11
28753.25044082673
 21
24040.19186036452
 31
0.0
  0
LINE
  5
434
330
22
100
AcDbEntity
  8
_0-6_
  6
Continuous
 62
     5
100
AcDbLine
 10
28653.25044082673
 20
19855.63154099315
 30
0.0
 11
28653.25044082673
 21
24040.19186036452
 31
0.0
  0
LINE
  5
435
330
22
100
AcDbEntity
  8
_0-6_
  6
Continuous
 62
     5
100
AcDbLine
 10
28553.25044082674
 20
20098.14400877855
 30
0.0
 11
28553.25044082674
 21
24040.19186036452
 31
0.0
  0
LINE
  5
436
330
22
100
AcDbEntity
  8
_0-6_
  6
Continuous
 62
     5
100
AcDbLine
 10
28453.25044082673
 20
20340.65647656395
 30
0.0
 11
28453.25044082673
 21
24040.19186036452
 31
0.0
  0
LINE
  5
437
330
22
100
AcDbEntity
  8
_0-6_
  6
Continuous
 62
     5
100
AcDbLine
 10
28353.25044082674
 20
20583.16894434934
 30
0.0
 11
28353.25044082674
 21
24040.19186036452
 31
0.0
  0
LINE
  5
438
330
22
100
AcDbEntity
  8
_0-6_
  6
Continuous
 62
     5
100
AcDbLine
 10
28253.25044082673
 20
20825.68141213473
 30
0.0
 11
28253.25044082673
 21
24040.19186036452
 31
0.0
  0
LINE
  5
439
330
22
100
AcDbEntity
  8
_0-6_
  6
Continuous
 62
     5
100
AcDbLine
 10
28153.25044082674
 20
21068.19387992013
 30
0.0
 11
28153.25044082674
 21
24040.19186036452
 31
0.0
  0
LINE
  5
43A
330
22
100
AcDbEntity
  8
_0-6_
  6
Continuous
 62
     5
100
AcDbLine
 10
28053.25044082673
 20
21310.70634770553
 30
0.0
 11
28053.25044082673
 21
24040.19186036452
 31
0.0
  0
LINE
  5
43B
330
22
100
AcDbEntity
  8
_0-6_
  6
Continuous
 62
     5
100
AcDbLine
 10
27953.25044082674
 20
21553.21881549093
 30
0.0
 11
27953.25044082674
 21
24040.19186036452
 31
0.0
  0
LINE
  5
43C
330
22
100
AcDbEntity
  8
_0-6_
  6
Continuous
 62
     5
100
AcDbLine
 10
27853.25044082673
 20
21795.73128327632
 30
0.0
 11
27853.25044082673
 21
24040.19186036452
 31
0.0
  0
LINE
  5
43D
330
22
100
AcDbEntity
  8
_0-6_
  6
Continuous
 62
     5
100
AcDbLine
 10
27753.25044082673
 20
22038.24375106172
 30
0.0
 11
27753.25044082673
 21
24040.19186036452
 31
0.0
  0
LINE
  5
43E
330
22
100
AcDbEntity
  8
_0-6_
  6
Continuous
 62
     5
100
AcDbLine
 10
27653.25044082674
 20
22280.75621884711
 30
0.0
 11
27653.25044082674
 21
24040.19186036452
 31
0.0
  0
LINE
  5
43F
330
22
100
AcDbEntity
  8
_0-6_
  6
Continuous
 62
     5
100
AcDbLine
 10
27553.25044082673
 20
22523.26868663251
 30
0.0
 11
27553.25044082673
 21
24040.19186036452
 31
0.0
  0
LINE
  5
440
330
22
100
AcDbEntity
  8
_0-6_
  6
Continuous
 62
     5
100
AcDbLine
 10
27453.25044082674
 20
22765.78115441791
 30
0.0
 11
27453.25044082674
 21
24040.19186036452
 31
0.0
  0
LINE
  5
441
330
22
100
AcDbEntity
  8
_0-6_
  6
Continuous
 62
     5
100
AcDbLine
 10
27353.25044082673
 20
23008.29362220329
 30
0.0
 11
27353.25044082673
 21
24040.19186036452
 31
0.0
  0
LINE
  5
442
330
22
100
AcDbEntity
  8
_0-6_
  6
Continuous
 62
     5
100
AcDbLine
 10
27253.25044082674
 20
23250.80608998869
 30
0.0
 11
27253.25044082674
 21
24040.19186036452
 31
0.0
  0
LINE
  5
443
330
22
100
AcDbEntity
  8
_0-6_
  6
Continuous
 62
     5
100
AcDbLine
 10
27153.25044082673
 20
23493.31855777409
 30
0.0
 11
27153.25044082673
 21
24040.19186036452
 31
0.0
  0
LINE
  5
444
330
22
100
AcDbEntity
  8
_0-6_
  6
Continuous
 62
     5
100
AcDbLine
 10
27053.25044082674
 20
23735.83102555948
 30
0.0
 11
27053.25044082674
 21
24040.19186036452
 31
0.0
  0
LINE
  5
445
330
22
100
AcDbEntity
  8
_0-6_
  6
Continuous
 62
     5
100
AcDbLine
 10
26953.25044082673
 20
23978.34349334488
 30
0.0
 11
26953.25044082673
 21
24040.19186036452
 31
0.0
  0
TEXT
  5
446
330
22
100
AcDbEntity
  8
_0-9_
 62
     4
100
AcDbText
 10
15265.07579615032
 20
4717.175977202302
 30
0.0
 40
250.0
  1
7,000
100
AcDbText
  0
TEXT
  5
447
330
22
100
AcDbEntity
  8
_0-9_
 62
     4
100
AcDbText
 10
14907.71637185151
 20
4307.240715448089
 30
0.0
 40
250.0
  1
（10,000）
100
AcDbText
  0
TEXT
  5
448
330
22
100
AcDbEntity
  8
_0-9_
 62
     4
100
AcDbText
 10
21384.51586872323
 20
4717.175977202302
 30
0.0
 40
250.0
  1
7,000
100
AcDbText
  0
TEXT
  5
449
330
22
100
AcDbEntity
  8
_0-9_
 62
     4
100
AcDbText
 10
21027.15644442441
 20
4307.240715448089
 30
0.0
 40
250.0
  1
（10,000）
100
AcDbText
  0
TEXT
  5
44A
330
22
100
AcDbEntity
  8
_0-9_
 62
     4
100
AcDbText
 10
27315.28147905645
 20
4717.175977202302
 30
0.0
 40
250.0
  1
7,000
100
AcDbText
  0
TEXT
  5
44B
330
22
100
AcDbEntity
  8
_0-9_
 62
     4
100
AcDbText
 10
26957.92205475764
 20
4307.240715448089
 30
0.0
 40
250.0
  1
（10,000）
100
AcDbText
  0
TEXT
  5
44C
330
22
100
AcDbEntity
  8
_0-F_
 62
     7
100
AcDbText
 10
22207.69907891796
 20
24620.5693875499
 30
0.0
 40
300.0
  1
横ﾜｲﾔｰ 38m㎡
100
AcDbText
  0
TEXT
  5
44D
330
22
100
AcDbEntity
  8
_0-F_
 62
     7
100
AcDbText
 10
22207.69907891796
 20
20120.57062474902
 30
0.0
 40
300.0
  1
横ﾜｲﾔｰ 38m㎡
100
AcDbText
  0
TEXT
  5
44E
330
22
100
AcDbEntity
  8
_0-F_
 62
     7
100
AcDbText
 10
22207.69907891796
 20
15620.57062474902
 30
0.0
 40
300.0
  1
横ﾜｲﾔｰ 38m㎡
100
AcDbText
  0
TEXT
  5
44F
330
22
100
AcDbEntity
  8
_0-F_
 62
     7
100
AcDbText
 10
22207.69907891796
 20
10920.56625331215
 30
0.0
 40
300.0
  1
横ﾜｲﾔｰ 38m㎡
100
AcDbText
  0
TEXT
  5
450
330
22
100
AcDbEntity
  8
_0-F_
 62
     7
100
AcDbText
 10
19247.26223215909
 20
21923.35902411029
 30
0.0
 40
300.0
  1
縦ﾜｲﾔｰ 38m㎡
100
AcDbText
  0
TEXT
  5
451
330
22
100
AcDbEntity
  8
_0-F_
 62
     7
100
AcDbText
 10
14248.42705512414
 20
22459.2765639646
 30
0.0
 40
300.0
  1
ﾌﾞﾚｰｽﾜｲﾔｰ　55m㎡
100
AcDbText
  0
TEXT
  5
452
330
22
100
AcDbEntity
  8
_0-6_
 62
     7
100
AcDbText
 10
4217.686678063711
 20
5857.780178718591
 30
0.0
 40
400.0
  1
設計条件
100
AcDbText
  0
TEXT
  5
453
330
22
100
AcDbEntity
  8
_0-6_
 62
     7
100
AcDbText
 10
5217.686678063711
 20
4407.780178718591
 30
0.0
 40
300.0
  1
基準風速・・・３４ｍ／ｓｅｃ
100
AcDbText
  0
TEXT
  5
454
330
22
100
AcDbEntity
  8
_0-6_
 62
     7
100
AcDbText
 10
5217.686678063711
 20
3907.780178718591
 30
0.0
 40
300.0
  1
地表面粗度区分・・・Ⅲ
100
AcDbText
  0
TEXT
  5
455
330
22
100
AcDbEntity
  8
_0-6_
 62
     7
100
AcDbText
 10
5217.686678063711
 20
3407.780178718591
 30
0.0
 40
300.0
  1
基礎　普通土質（Ｂ）を選定
100
AcDbText
  0
TEXT
  5
456
330
22
100
AcDbEntity
  8
_0-6_
 62
     7
100
AcDbText
 10
4717.686678063711
 20
5407.780178718591
 30
0.0
 40
300.0
  1
・設計荷重　建築基準法・同施工令
100
AcDbText
  0
TEXT
  5
457
330
22
100
AcDbEntity
  8
_0-6_
 62
     7
100
AcDbText
 10
4957.144556586349
 20
4907.780178718591
 30
0.0
 40
300.0
  1
（平成１２年６月）に基づく風圧力による。
100
AcDbText
  0
TEXT
  5
458
330
22
100
AcDbEntity
  8
_0-F_
 62
     7
100
AcDbText
 10
19254.80436291288
 20
23547.70990697559
 30
0.0
 40
300.0
  1
ﾎﾟﾘﾛｰﾌﾟ6φ押え
100
AcDbText
  0
TEXT
  5
459
330
22
100
AcDbEntity
  8
_0-F_
 62
     7
100
AcDbText
 10
25566.65405100682
 20
25084.4343885581
 30
0.0
 40
300.0
  1
ポリロープ4φにてかがりどめ
100
AcDbText
  0
LINE
  5
45A
330
22
100
AcDbEntity
  8
_0-F_
  6
Continuous
 62
     4
100
AcDbLine
 10
24880.63051476322
 20
24038.68990064112
 30
0.0
 11
25455.70379977041
 21
25034.74104897828
 31
0.0
  0
LINE
  5
45B
330
22
100
AcDbEntity
  8
_0-F_
  6
Continuous
 62
     4
100
AcDbLine
 10
24880.63051476322
 20
24038.68990064112
 30
0.0
 11
24880.63051476322
 21
24138.69023056089
 31
0.0
  0
LINE
  5
45C
330
22
100
AcDbEntity
  8
_0-F_
  6
Continuous
 62
     4
100
AcDbLine
 10
25455.70379977041
 20
25034.74104897828
 30
0.0
 11
30275.0849897362
 21
25034.74104897828
 31
0.0
  0
ENDSEC
  0
SECTION
  2
OBJECTS
  0
DICTIONARY
  5
C
330
0
100
AcDbDictionary
281
     1
  3
ACAD_COLOR
350
1B
  3
ACAD_GROUP
350
D
  3
ACAD_LAYOUT
350
19
  3
ACAD_MATERIAL
350
1A
  3
ACAD_MLINESTYLE
350
16
  3
ACAD_PLOTSETTINGS
350
18
  3
ACAD_PLOTSTYLENAME
350
E
  3
ACAD_TABLESTYLE
350
1C
  3
ACDBHEADERROUNDTRIPXREC
350
74D
  3
AcDbVariableDictionary
350
748
  3
ADE_QUERY_LIBRARY
350
746
  3
AEC_VARS
350
484
  3
ASE_INDEX_DICTIONARY
350
742
  3
Autodesk_MAP
350
486
  3
Root
350
45F
1001
ADE
1000
ADE02C004
1000
[Query]
1000
CaseSensitiveMatch=0
1000
SaveCurrQueryInSession=1
1000
MkSelSetWithQryObj=0
1000
ShowBlockAsInsPt=0
1000
CreateAssociativeHatchObjects=0
1000
ReferenceBoundaryForAreaLocation=1
1000
ShowImageAsBoundary=1
1000
DefaultJoinOperator=2
1000
ColorForAdd=red
1000
ColorForRemove=red
1000
BlockLocnForQuery=1
1000
TextLocnForQuery=1
1000
IncludeAllObjectsInGroups=0
1000
AlwaysUseLibraryDefinitions=0
1000
PreviewDefinitionsFrom=2
1000
[Save Back]
1000
RedefineBlockDefinitions=1
1000
RedefineLayerDefinitions=1
1000
RedefineTextStyleDefinitions=1
1000
RemoveUnusedGroups=1
1000
EraseSavedBackObjects=1
1000
RemoveLockAfterSave=1
1000
CreateHistoryFileOfChanges=0
1000
CreateBackupFileOfSourceDwg=1
1000
DontAddObjectsToSaveSet=0
1000
MarkObjectsForEditingWithoutPrompting=0
1000
[Coordinate Transformation]
1000
RestoreLastActiveDwgsOnStartup=1
1000
ActivateDwgsOnAttach=1
1000
AdjustSizesAndScalesForChangesInUnits=1
1000
AdjustRotationsForMapDistortions=1
1000
AdjustSizesAndScalesForMapDistortions=1
1000
AdjustElevations=1
1000
AdjustZeroRotationObjects=1
1000
ReconnectDbOnWSOpen=1
1000
NoOfSQLConditionsInHistory=10
  0
DICTIONARY
  5
1B
102
{ACAD_REACTORS
330
C
102
}
330
C
100
AcDbDictionary
281
     1
  0
DICTIONARY
  5
D
102
{ACAD_REACTORS
330
C
102
}
330
C
100
AcDbDictionary
281
     1
  0
DICTIONARY
  5
19
102
{ACAD_REACTORS
330
C
102
}
330
C
100
AcDbDictionary
281
     1
  3
Model
350
25
  3
レイアウト1
350
21
  0
DICTIONARY
  5
1A
102
{ACAD_REACTORS
330
C
102
}
330
C
100
AcDbDictionary
281
     1
  0
DICTIONARY
  5
16
102
{ACAD_REACTORS
330
C
102
}
330
C
100
AcDbDictionary
281
     1
  3
Standard
350
17
  0
DICTIONARY
  5
18
102
{ACAD_REACTORS
330
C
102
}
330
C
100
AcDbDictionary
281
     1
  0
ACDBDICTIONARYWDFLT
  5
E
102
{ACAD_REACTORS
330
C
102
}
330
C
100
AcDbDictionary
281
     1
  3
Normal
350
F
100
AcDbDictionaryWithDefault
340
F
  0
DICTIONARY
  5
1C
102
{ACAD_REACTORS
330
C
102
}
330
C
100
AcDbDictionary
281
     1
  3
Legend
350
48A
  3
Standard
350
1D
  0
DICTIONARY
  5
74D
102
{ACAD_REACTORS
330
C
102
}
330
C
100
AcDbDictionary
281
     1
  0
DICTIONARY
  5
748
102
{ACAD_REACTORS
330
C
102
}
330
C
100
AcDbDictionary
281
     1
  3
CTABLESTYLE
350
749
  3
DIMASSOC
350
74A
  3
PROJECTNAME
350
74B
  0
DICTIONARY
  5
746
102
{ACAD_REACTORS
330
C
102
}
330
C
100
AcDbDictionary
281
     1
  3
_CurrQry
350
747
  0
DICTIONARY
  5
484
102
{ACAD_REACTORS
330
C
102
}
330
C
100
AcDbDictionary
281
     1
  3
AEC_VARS_DWG_SETUP
350
485
  0
DICTIONARY
  5
742
102
{ACAD_REACTORS
330
C
102
}
330
C
100
AcDbDictionary
281
     1
  3
ASEBlockHierarchyIndexRecord
350
744
1001
DCO15
1040
1621942968.796
  0
DICTIONARY
  5
486
102
{ACAD_REACTORS
330
C
102
}
330
C
100
AcDbDictionary
281
     1
  3
MAP_DISPLAY_MANAGEMENT_DICTIONARY
350
487
  3
MAP_DISPLAY_STYLELIBRARY_DICTIONARY
350
488
  0
LAYOUT
  5
25
102
{ACAD_XDICTIONARY
360
750
102
}
102
{ACAD_REACTORS
330
19
102
}
330
19
100
AcDbPlotSettings
  1

  2
DCColor a450_newosk
  4

  6

 40
0.0
 41
0.0
 42
0.0
 43
0.0
 44
0.0
 45
0.0
 46
0.0
 47
0.0
 48
0.0
 49
0.0
140
0.0
141
0.0
142
1.0
143
1.0
 70
  1712
 72
     0
 73
     0
 74
     0
  7

 75
     0
147
1.0
148
0.0
149
0.0
100
AcDbLayout
  1
Model
 70
     1
 71
     0
 10
0.0
 20
0.0
 11
12.0
 21
9.0
 12
0.0
 22
0.0
 32
0.0
 14
0.0
 24
0.0
 34
0.0
 15
0.0
 25
0.0
 35
0.0
146
0.0
 13
0.0
 23
0.0
 33
0.0
 16
1.0
 26
0.0
 36
0.0
 17
0.0
 27
1.0
 37
0.0
 76
     0
330
22
  0
LAYOUT
  5
21
102
{ACAD_XDICTIONARY
360
74E
102
}
102
{ACAD_REACTORS
330
19
102
}
330
19
100
AcDbPlotSettings
  1

  2
DCColor a450_newosk
  4

  6

 40
0.0
 41
0.0
 42
0.0
 43
0.0
 44
0.0
 45
0.0
 46
0.0
 47
0.0
 48
0.0
 49
0.0
140
0.0
141
0.0
142
1.0
143
1.0
 70
   688
 72
     0
 73
     0
 74
     5
  7

 75
    16
147
1.0
148
0.0
149
0.0
100
AcDbLayout
  1
レイアウト1
 70
     1
 71
     1
 10
0.0
 20
0.0
 11
12.0
 21
9.0
 12
0.0
 22
0.0
 32
0.0
 14
1.000000000000000E+20
 24
1.000000000000000E+20
 34
1.000000000000000E+20
 15
-1.000000000000000E+20
 25
-1.000000000000000E+20
 35
-1.000000000000000E+20
146
0.0
 13
0.0
 23
0.0
 33
0.0
 16
1.0
 26
0.0
 36
0.0
 17
0.0
 27
1.0
 37
0.0
 76
     0
330
1E
  0
MLINESTYLE
  5
17
102
{ACAD_REACTORS
330
16
102
}
330
16
100
AcDbMlineStyle
  2
STANDARD
 70
     0
  3

 62
   256
 51
90.0
 52
90.0
 71
     2
 49
0.5
 62
   256
  6
BYLAYER
 49
-0.5
 62
   256
  6
BYLAYER
  0
ACDBPLACEHOLDER
  5
F
102
{ACAD_REACTORS
330
E
102
}
330
E
  0
TABLESTYLE
  5
48A
102
{ACAD_REACTORS
330
1C
102
}
330
1C
100
AcDbTableStyle
  3

 70
     0
 71
     1
 40
0.06
 41
0.06
280
     0
281
     0
  7
STANDARD
140
0.4
170
     4
 62
     0
 63
     7
283
     0
274
    -2
284
     0
 64
     0
275
    -2
285
     0
 65
     0
276
    -2
286
     1
 66
     0
277
    -2
287
     1
 67
     0
278
    -2
288
     0
 68
     0
279
    -2
289
     1
 69
     0
  7
STANDARD
140
0.5
170
     5
 62
     0
 63
     7
283
     0
274
    -2
284
     1
 64
     0
275
    -2
285
     0
 65
     0
276
    -2
286
     1
 66
     0
277
    -2
287
     1
 67
     0
278
    -2
288
     0
 68
     0
279
    -2
289
     1
 69
     0
  7
STANDARD
140
0.4
170
     4
 62
     0
 63
     7
283
     0
274
    -2
284
     1
 64
     0
275
    -2
285
     0
 65
     0
276
    -2
286
     1
 66
     0
277
    -2
287
     1
 67
     0
278
    -2
288
     0
 68
     0
279
    -2
289
     1
 69
     0
  0
TABLESTYLE
  5
1D
102
{ACAD_REACTORS
330
1C
102
}
330
1C
100
AcDbTableStyle
  3
Standard
 70
     0
 71
     0
 40
0.06
 41
0.06
280
     0
281
     0
  7
STANDARD
140
0.18
170
     2
 62
     0
 63
     7
283
     0
274
    -2
284
     1
 64
     0
275
    -2
285
     1
 65
     0
276
    -2
286
     1
 66
     0
277
    -2
287
     1
 67
     0
278
    -2
288
     1
 68
     0
279
    -2
289
     1
 69
     0
  7
STANDARD
140
0.25
170
     5
 62
     0
 63
     7
283
     0
274
    -2
284
     1
 64
     0
275
    -2
285
     1
 65
     0
276
    -2
286
     1
 66
     0
277
    -2
287
     1
 67
     0
278
    -2
288
     1
 68
     0
279
    -2
289
     1
 69
     0
  7
STANDARD
140
0.18
170
     5
 62
     0
 63
     7
283
     0
274
    -2
284
     1
 64
     0
275
    -2
285
     1
 65
     0
276
    -2
286
     1
 66
     0
277
    -2
287
     1
 67
     0
278
    -2
288
     1
 68
     0
279
    -2
289
     1
 69
     0
  0
DICTIONARYVAR
  5
749
102
{ACAD_REACTORS
330
748
102
}
330
748
100
DictionaryVariables
280
     0
  1
STANDARD
  0
DICTIONARYVAR
  5
74A
102
{ACAD_REACTORS
330
748
102
}
330
748
100
DictionaryVariables
280
     0
  1
1
  0
DICTIONARYVAR
  5
74B
102
{ACAD_REACTORS
330
748
102
}
330
748
100
DictionaryVariables
280
     0
  1

  0
XRECORD
  5
747
102
{ACAD_REACTORS
330
746
102
}
330
746
100
AcDbXrecord
280
     1
1000
ADE02C001
1070
     1
1070
     0
1002
{
1002
}
1002
{
1002
}
1002
{
1002
}
1000

  0
XRECORD
  5
744
102
{ACAD_REACTORS
330
742
102
}
330
742
100
AcDbXrecord
280
     1
  0
DMMAPMANAGER
  5
487
102
{ACAD_REACTORS
330
486
102
}
330
486
100
AcDbDictionary
281
     1
  3
DisplayMap1
350
489
100
AcDbDictionaryWithDefault
340
489
100
AcMapDMMapManager
 70
     1
340
489
  0
DMSTYLELIBRARY
  5
488
102
{ACAD_REACTORS
330
486
102
}
330
486
100
AcMapDMStyleLibrary
 70
     1
 70
     1
360
48E
  0
DICTIONARY
  5
750
330
25
100
AcDbDictionary
280
     1
281
     1
  3
ACAD_XREC_ROUNDTRIP
360
751
  0
DICTIONARY
  5
74E
330
21
100
AcDbDictionary
280
     1
281
     1
  3
ACAD_XREC_ROUNDTRIP
360
74F
  0
DMMAP
  5
489
102
{ACAD_REACTORS
330
487
330
48B
102
}
330
487
100
AcMapDMMap
 70
     1
  1
既定値
 70
     1
330
0
100
AcMapDMMap
 70
     1
 90
        1
360
48B
 90
        1
 40
1.797693134862314E+99
 70
     1
100
AcMapDMMap
 70
     2
 70
     0
 40
1.797693134862314E+99
290
     0
290
     1
 40
1.0
 40
3.0
  1
Legend
 90
        1
 40
1.797693134862314E+99
  1

 70
     0
 40
100.0
 70
     1
 90
        0
 90
        1
360
48C
  0
DMSTYLECATEGORY
  5
48E
102
{ACAD_REACTORS
330
488
102
}
330
488
100
AcMapDMStyleCategory
 70
     1
  1
スタイルを表示
 70
     0
  0
XRECORD
  5
751
102
{ACAD_REACTORS
330
750
102
}
330
750
100
AcDbXrecord
280
     1
102
SHADEPLOT
 70
     0
102
SHADEPLOTRESLEVEL
 70
     2
102
SHADEPLOTCUSTOMDPI
 70
   300
  0
XRECORD
  5
74F
102
{ACAD_REACTORS
330
74E
102
}
330
74E
100
AcDbXrecord
280
     1
102
SHADEPLOT
 70
     0
102
SHADEPLOTRESLEVEL
 70
     2
102
SHADEPLOTCUSTOMDPI
 70
   300
  0
DMBASEELEMENT
  5
48B
102
{ACAD_REACTORS
330
489
102
}
330
489
100
AcMapDMBaseElement
 70
     1
  1
マップ ベース
 70
     1
330
489
100
AcMapDMBaseElement
 70
     1
  1

 70
     2
  1

 70
     1
 40
1.797693134862314E+99
 70
     1
 70
     1
 70
     1
 70
     1
360
48D
100
AcMapDMBaseElement
 70
     1
  0
DMDEFAULTSTYLE
  5
48C
102
{ACAD_REACTORS
330
489
102
}
330
489
100
AcMapDMDefaultStyle
 70
     1
 90
        1
  1
既定値
100
AcMapDMDefaultStyle
 70
     1
280
   100
 90
     0
  0
DMSTYLEREFERENCE
  5
48D
330
48B
100
AcMapDMStyleReference
 70
     1
 70
     0
340
48C
330
489
  0
ENDSEC
  0
EOF
