  0
SECTION
  2
HEADER
  9
$ACADVER
  1
AC1015
  9
$ACADMAINTVER
 70
    20
  9
$DWGCODEPAGE
  3
ANSI_932
  9
$INSBASE
 10
0.0
 20
0.0
 30
0.0
  9
$EXTMIN
 10
3499.999175200591
 20
2918.837263777449
 30
0.0
  9
$EXTMAX
 10
41823.01729247325
 20
27918.83808857686
 30
0.0
  9
$LIMMIN
 10
0.0
 20
0.0
  9
$LIMMAX
 10
42000.0
 20
29700.0
  9
$ORTHOMODE
 70
     1
  9
$REGENMODE
 70
     1
  9
$FILLMODE
 70
     1
  9
$QTEXTMODE
 70
     0
  9
$MIRRTEXT
 70
     0
  9
$LTSCALE
 40
100.0
  9
$ATTMODE
 70
     1
  9
$TEXTSIZE
 40
0.2
  9
$TRACEWID
 40
0.05
  9
$TEXTSTYLE
  7
STANDARD
  9
$CLAYER
  8
0
  9
$CELTYPE
  6
CONTINUOUS
  9
$CECOLOR
 62
   256
  9
$CELTSCALE
 40
1.0
  9
$DISPSILH
 70
     0
  9
$DIMSCALE
 40
40.0
  9
$DIMASZ
 40
0.18
  9
$DIMEXO
 40
0.0625
  9
$DIMDLI
 40
0.38
  9
$DIMRND
 40
0.0
  9
$DIMDLE
 40
0.0
  9
$DIMEXE
 40
0.18
  9
$DIMTP
 40
0.0
  9
$DIMTM
 40
0.0
  9
$DIMTXT
 40
0.18
  9
$DIMCEN
 40
0.09
  9
$DIMTSZ
 40
0.0
  9
$DIMTOL
 70
     0
  9
$DIMLIM
 70
     0
  9
$DIMTIH
 70
     1
  9
$DIMTOH
 70
     1
  9
$DIMSE1
 70
     0
  9
$DIMSE2
 70
     0
  9
$DIMTAD
 70
     0
  9
$DIMZIN
 70
     0
  9
$DIMBLK
  1

  9
$DIMASO
 70
     1
  9
$DIMSHO
 70
     1
  9
$DIMPOST
  1

  9
$DIMAPOST
  1

  9
$DIMALT
 70
     0
  9
$DIMALTD
 70
     2
  9
$DIMALTF
 40
25.4
  9
$DIMLFAC
 40
1.0
  9
$DIMTOFL
 70
     0
  9
$DIMTVP
 40
0.0
  9
$DIMTIX
 70
     0
  9
$DIMSOXD
 70
     0
  9
$DIMSAH
 70
     0
  9
$DIMBLK1
  1

  9
$DIMBLK2
  1

  9
$DIMSTYLE
  2
Standard
  9
$DIMCLRD
 70
     0
  9
$DIMCLRE
 70
     0
  9
$DIMCLRT
 70
     0
  9
$DIMTFAC
 40
1.0
  9
$DIMGAP
 40
0.09
  9
$DIMJUST
 70
     0
  9
$DIMSD1
 70
     0
  9
$DIMSD2
 70
     0
  9
$DIMTOLJ
 70
     1
  9
$DIMTZIN
 70
     0
  9
$DIMALTZ
 70
     0
  9
$DIMALTTZ
 70
     0
  9
$DIMUPT
 70
     0
  9
$DIMDEC
 70
     4
  9
$DIMTDEC
 70
     4
  9
$DIMALTU
 70
     2
  9
$DIMALTTD
 70
     2
  9
$DIMTXSTY
  7
STANDARD
  9
$DIMAUNIT
 70
     0
  9
$DIMADEC
 70
     0
  9
$DIMALTRND
 40
0.0
  9
$DIMAZIN
 70
     0
  9
$DIMDSEP
 70
    46
  9
$DIMATFIT
 70
     3
  9
$DIMFRAC
 70
     0
  9
$DIMLDRBLK
  1

  9
$DIMLUNIT
 70
     2
  9
$DIMLWD
 70
    -2
  9
$DIMLWE
 70
    -2
  9
$DIMTMOVE
 70
     0
  9
$LUNITS
 70
     2
  9
$LUPREC
 70
     4
  9
$SKETCHINC
 40
0.1
  9
$FILLETRAD
 40
0.0
  9
$AUNITS
 70
     0
  9
$AUPREC
 70
     0
  9
$MENU
  1
.
  9
$ELEVATION
 40
0.0
  9
$PELEVATION
 40
0.0
  9
$THICKNESS
 40
0.0
  9
$LIMCHECK
 70
     0
  9
$CHAMFERA
 40
0.0
  9
$CHAMFERB
 40
0.0
  9
$CHAMFERC
 40
0.0
  9
$CHAMFERD
 40
0.0
  9
$SKPOLY
 70
     0
  9
$TDCREATE
 40
2454575.699976852
  9
$TDUCREATE
 40
2454575.324976852
  9
$TDUPDATE
 40
2454575.701523611
  9
$TDUUPDATE
 40
2454575.326523611
  9
$TDINDWG
 40
0.0015473032
  9
$TDUSRTIMER
 40
0.0015473032
  9
$USRTIMER
 70
     1
  9
$ANGBASE
 50
0.0
  9
$ANGDIR
 70
     0
  9
$PDMODE
 70
     0
  9
$PDSIZE
 40
0.0
  9
$PLINEWID
 40
0.0
  9
$SPLFRAME
 70
     0
  9
$SPLINETYPE
 70
     6
  9
$SPLINESEGS
 70
     8
  9
$HANDSEED
  5
769
  9
$SURFTAB1
 70
     6
  9
$SURFTAB2
 70
     6
  9
$SURFTYPE
 70
     6
  9
$SURFU
 70
     6
  9
$SURFV
 70
     6
  9
$UCSBASE
  2

  9
$UCSNAME
  2

  9
$UCSORG
 10
0.0
 20
0.0
 30
0.0
  9
$UCSXDIR
 10
1.0
 20
0.0
 30
0.0
  9
$UCSYDIR
 10
0.0
 20
1.0
 30
0.0
  9
$UCSORTHOREF
  2

  9
$UCSORTHOVIEW
 70
     0
  9
$UCSORGTOP
 10
0.0
 20
0.0
 30
0.0
  9
$UCSORGBOTTOM
 10
0.0
 20
0.0
 30
0.0
  9
$UCSORGLEFT
 10
0.0
 20
0.0
 30
0.0
  9
$UCSORGRIGHT
 10
0.0
 20
0.0
 30
0.0
  9
$UCSORGFRONT
 10
0.0
 20
0.0
 30
0.0
  9
$UCSORGBACK
 10
0.0
 20
0.0
 30
0.0
  9
$PUCSBASE
  2

  9
$PUCSNAME
  2

  9
$PUCSORG
 10
0.0
 20
0.0
 30
0.0
  9
$PUCSXDIR
 10
1.0
 20
0.0
 30
0.0
  9
$PUCSYDIR
 10
0.0
 20
1.0
 30
0.0
  9
$PUCSORTHOREF
  2

  9
$PUCSORTHOVIEW
 70
     0
  9
$PUCSORGTOP
 10
0.0
 20
0.0
 30
0.0
  9
$PUCSORGBOTTOM
 10
0.0
 20
0.0
 30
0.0
  9
$PUCSORGLEFT
 10
0.0
 20
0.0
 30
0.0
  9
$PUCSORGRIGHT
 10
0.0
 20
0.0
 30
0.0
  9
$PUCSORGFRONT
 10
0.0
 20
0.0
 30
0.0
  9
$PUCSORGBACK
 10
0.0
 20
0.0
 30
0.0
  9
$USERI1
 70
     0
  9
$USERI2
 70
     0
  9
$USERI3
 70
     0
  9
$USERI4
 70
     0
  9
$USERI5
 70
     0
  9
$USERR1
 40
0.0
  9
$USERR2
 40
0.0
  9
$USERR3
 40
0.0
  9
$USERR4
 40
0.0
  9
$USERR5
 40
0.0
  9
$WORLDVIEW
 70
     1
  9
$SHADEDGE
 70
     3
  9
$SHADEDIF
 70
    70
  9
$TILEMODE
 70
     1
  9
$MAXACTVP
 70
    64
  9
$PINSBASE
 10
0.0
 20
0.0
 30
0.0
  9
$PLIMCHECK
 70
     0
  9
$PEXTMIN
 10
1.000000000000000E+20
 20
1.000000000000000E+20
 30
1.000000000000000E+20
  9
$PEXTMAX
 10
-1.000000000000000E+20
 20
-1.000000000000000E+20
 30
-1.000000000000000E+20
  9
$PLIMMIN
 10
0.0
 20
0.0
  9
$PLIMMAX
 10
12.0
 20
9.0
  9
$UNITMODE
 70
     0
  9
$VISRETAIN
 70
     1
  9
$PLINEGEN
 70
     0
  9
$PSLTSCALE
 70
     1
  9
$TREEDEPTH
 70
  3020
  9
$CMLSTYLE
  2
Standard
  9
$CMLJUST
 70
     0
  9
$CMLSCALE
 40
1.0
  9
$PROXYGRAPHICS
 70
     1
  9
$MEASUREMENT
 70
     0
  9
$CELWEIGHT
370
    -1
  9
$ENDCAPS
280
     0
  9
$JOINSTYLE
280
     0
  9
$LWDISPLAY
290
     0
  9
$INSUNITS
 70
     2
  9
$HYPERLINKBASE
  1

  9
$STYLESHEET
  1

  9
$XEDIT
290
     1
  9
$CEPSNTYPE
380
     0
  9
$PSTYLEMODE
290
     1
  9
$FINGERPRINTGUID
  2
{2635FE79-A643-44AD-9814-3926EADC58A0}
  9
$VERSIONGUID
  2
{568F5AD6-9AC6-47E8-B36D-74C8B4E5A563}
  9
$EXTNAMES
290
     1
  9
$PSVPSCALE
 40
0.0
  9
$OLESTARTUP
290
     0
  0
ENDSEC
  0
SECTION
  2
CLASSES
  0
CLASS
  1
ACDBDICTIONARYWDFLT
  2
AcDbDictionaryWithDefault
  3
ObjectDBX Classes
 90
        0
280
     0
281
     0
  0
CLASS
  1
TABLESTYLE
  2
AcDbTableStyle
  3
ObjectDBX Classes
 90
     2047
280
     0
281
     0
  0
CLASS
  1
AECC_TREE_NODE
  2
AeccDbTreeNode
  3
AeccvBase10|Product Desc: Autodesk Civil 3D |Company: Autodesk,Inc. |WEB Address: www.autodesk.com
 90
     1023
280
     0
281
     0
  0
CLASS
  1
AECC_CLASS_NODE
  2
AeccDbClassNode
  3
AeccLand10|Product Desc: Autodesk Civil 3D |Company: Autodesk,Inc. |WEB Address: www.autodesk.com
 90
     1023
280
     0
281
     0
  0
CLASS
  1
AECC_ROOT_SETTINGS_NODE
  2
AeccDbRootSettingsNode
  3
AeccvBase10|Product Desc: Autodesk Civil 3D |Company: Autodesk,Inc. |WEB Address: www.autodesk.com
 90
     1023
280
     0
281
     0
  0
CLASS
  1
AEC_VARS_DWG_SETUP
  2
AecDbVarsDwgSetup
  3
AecBase40|Product Desc: Autodesk Architectural Desktop 2005 |Company: Autodesk,Inc. |WEB Address: www.autodesk.com
 90
      129
280
     0
281
     0
  0
CLASS
  1
DMMAPMANAGER
  2
AcMapDMMapManager
  3
AcMapDisplayManagement
 90
     1024
280
     0
281
     0
  0
CLASS
  1
DMSTYLELIBRARY
  2
AcMapDMStyleLibrary
  3
AcMapDisplayManagement
 90
     1024
280
     0
281
     0
  0
CLASS
  1
DMMAP
  2
AcMapDMMap
  3
AcMapDisplayManagement
 90
     1024
280
     0
281
     0
  0
CLASS
  1
DMBASEELEMENT
  2
AcMapDMBaseElement
  3
AcMapDisplayManagement
 90
     1024
280
     0
281
     0
  0
CLASS
  1
DMDEFAULTSTYLE
  2
AcMapDMDefaultStyle
  3
AcMapDisplayManagement
 90
     1024
280
     0
281
     0
  0
CLASS
  1
DMSTYLEREFERENCE
  2
AcMapDMStyleReference
  3
AcMapDisplayManagement
 90
     1024
280
     0
281
     0
  0
CLASS
  1
DMSTYLECATEGORY
  2
AcMapDMStyleCategory
  3
AcMapDisplayManagement
 90
     1024
280
     0
281
     0
  0
CLASS
  1
AECC_SETTINGS_NODE
  2
AeccDbSettingsNode
  3
AeccvBase10|Product Desc: Autodesk Civil 3D |Company: Autodesk,Inc. |WEB Address: www.autodesk.com
 90
     1023
280
     0
281
     0
  0
CLASS
  1
AECC_PROFILE_VIEW_STYLE
  2
AeccDbGraphStyleProfile
  3
AeccLand10|Product Desc: Autodesk Civil 3D |Company: Autodesk,Inc. |WEB Address: www.autodesk.com
 90
      129
280
     0
281
     0
  0
CLASS
  1
AECC_PROFILE_VIEW_BAND_STYLE_SET
  2
AeccDbGraphProfileBandStyleSet
  3
AeccLand10|Product Desc: Autodesk Civil 3D |Company: Autodesk,Inc. |WEB Address: www.autodesk.com
 90
      129
280
     0
281
     0
  0
CLASS
  1
AECC_PROFILE_VIEW_DATA_BAND_STYLE
  2
AeccDbGraphStyleProfileDataBands
  3
AeccLand10|Product Desc: Autodesk Civil 3D |Company: Autodesk,Inc. |WEB Address: www.autodesk.com
 90
      129
280
     0
281
     0
  0
CLASS
  1
AECC_LABEL_NODE
  2
AeccDbLabelNode
  3
AeccLand10|Product Desc: Autodesk Civil 3D |Company: Autodesk,Inc. |WEB Address: www.autodesk.com
 90
     1023
280
     0
281
     0
  0
CLASS
  1
AECC_LABEL_COLLECTOR_STYLE
  2
AeccDbLabelStyleCollector
  3
AeccLand10|Product Desc: Autodesk Civil 3D |Company: Autodesk,Inc. |WEB Address: www.autodesk.com
 90
     1023
280
     0
281
     0
  0
CLASS
  1
AECC_LABEL_TEXT_STYLE
  2
AeccDbLabelStyleText
  3
AeccLand10|Product Desc: Autodesk Civil 3D |Company: Autodesk,Inc. |WEB Address: www.autodesk.com
 90
     1023
280
     0
281
     0
  0
CLASS
  1
AECC_PROFILE_VIEW_HORIZONTAL_GEOMETRY_BAND_STYLE
  2
AeccDbGraphStyleHorGeometryBands
  3
AeccLand10|Product Desc: Autodesk Civil 3D |Company: Autodesk,Inc. |WEB Address: www.autodesk.com
 90
      129
280
     0
281
     0
  0
CLASS
  1
AECC_PROFILE_VIEW_VERTICAL_GEOMETRY_BAND_STYLE
  2
AeccDbGraphStyleVertGeometryBands
  3
AeccLand10|Product Desc: Autodesk Civil 3D |Company: Autodesk,Inc. |WEB Address: www.autodesk.com
 90
      129
280
     0
281
     0
  0
CLASS
  1
AECC_LABEL_RADIAL_LINE_STYLE
  2
AeccDbLabelStyleRadialLine
  3
AeccLand10|Product Desc: Autodesk Civil 3D |Company: Autodesk,Inc. |WEB Address: www.autodesk.com
 90
     1023
280
     0
281
     0
  0
CLASS
  1
AECC_POINT_STYLE
  2
AeccDbPointStyle
  3
AeccLand10|Product Desc: Autodesk Civil 3D |Company: Autodesk,Inc. |WEB Address: www.autodesk.com
 90
      895
280
     0
281
     0
  0
CLASS
  1
AECC_PROFILE_LABEL_SET
  2
AeccDbVAlignStnLabelsDlgTemplate
  3
AeccLand10|Product Desc: Autodesk Civil 3D |Company: Autodesk,Inc. |WEB Address: www.autodesk.com
 90
     1023
280
     0
281
     0
  0
CLASS
  1
AECC_SECTION_VIEW_STYLE
  2
AeccDbGraphStyleCrossSection
  3
AeccLand10|Product Desc: Autodesk Civil 3D |Company: Autodesk,Inc. |WEB Address: www.autodesk.com
 90
      129
280
     0
281
     0
  0
CLASS
  1
AECC_SECTION_VIEW_BAND_STYLE_SET
  2
AeccDbGraphSectionBandStyleSet
  3
AeccLand10|Product Desc: Autodesk Civil 3D |Company: Autodesk,Inc. |WEB Address: www.autodesk.com
 90
      129
280
     0
281
     0
  0
CLASS
  1
AECC_SECTION_VIEW_DATA_BAND_STYLE
  2
AeccDbGraphStyleSectionDataBands
  3
AeccLand10|Product Desc: Autodesk Civil 3D |Company: Autodesk,Inc. |WEB Address: www.autodesk.com
 90
      129
280
     0
281
     0
  0
CLASS
  1
AECC_SECTION_LABEL_SET
  2
AeccDbSectionLabelsDlgTemplate
  3
AeccLand10|Product Desc: Autodesk Civil 3D |Company: Autodesk,Inc. |WEB Address: www.autodesk.com
 90
     1023
280
     0
281
     0
  0
CLASS
  1
AECC_ALIGNMENT_STYLE
  2
AeccDbAlignmentStyle
  3
AeccLand10|Product Desc: Autodesk Civil 3D |Company: Autodesk,Inc. |WEB Address: www.autodesk.com
 90
     1023
280
     0
281
     0
  0
CLASS
  1
AECC_LABEL_VECTOR_ARROW_STYLE
  2
AeccDbLabelStyleVectorArrow
  3
AeccLand10|Product Desc: Autodesk Civil 3D |Company: Autodesk,Inc. |WEB Address: www.autodesk.com
 90
     1023
280
     0
281
     0
  0
CLASS
  1
AECC_ALIGNMENT_LABEL_SET
  2
AeccDbAlignStnLabelsDlgTemplate
  3
AeccLand10|Product Desc: Autodesk Civil 3D |Company: Autodesk,Inc. |WEB Address: www.autodesk.com
 90
     1023
280
     0
281
     0
  0
CLASS
  1
AECC_SURFACE_STYLE
  2
AeccDbSurfaceStyle
  3
AeccLand10|Product Desc: Autodesk Civil 3D |Company: Autodesk,Inc. |WEB Address: www.autodesk.com
 90
      129
280
     0
281
     0
  0
CLASS
  1
AECC_LEGEND_TABLE_STYLE
  2
AeccDbLegendScheduleTableStyle
  3
AeccLand10|Product Desc: Autodesk Civil 3D |Company: Autodesk,Inc. |WEB Address: www.autodesk.com
 90
     1023
280
     0
281
     0
  0
CLASS
  1
AECC_SECTION_STYLE
  2
AeccDbSectionStyle
  3
AeccLand10|Product Desc: Autodesk Civil 3D |Company: Autodesk,Inc. |WEB Address: www.autodesk.com
 90
     1023
280
     0
281
     0
  0
CLASS
  1
AECC_GRADING_STYLE
  2
AeccDbGradingStyle
  3
AeccLand10|Product Desc: Autodesk Civil 3D |Company: Autodesk,Inc. |WEB Address: www.autodesk.com
 90
     1023
280
     0
281
     0
  0
CLASS
  1
AECC_GRADING_CRITERIA
  2
AeccDbGradingCriteria
  3
AeccLand10|Product Desc: Autodesk Civil 3D |Company: Autodesk,Inc. |WEB Address: www.autodesk.com
 90
     1023
280
     0
281
     0
  0
CLASS
  1
AECC_PARCEL_STYLE
  2
AeccDbParcelStyle
  3
AeccLand10|Product Desc: Autodesk Civil 3D |Company: Autodesk,Inc. |WEB Address: www.autodesk.com
 90
      129
280
     0
281
     0
  0
CLASS
  1
AECC_SAMPLE_LINE_GROUP_STYLE
  2
AeccDbSampleLineGroupStyle
  3
AeccLand10|Product Desc: Autodesk Civil 3D |Company: Autodesk,Inc. |WEB Address: www.autodesk.com
 90
      129
280
     0
281
     0
  0
CLASS
  1
AECC_SHEET_STYLE
  2
AeccDbSheetStyle
  3
AeccLand10|Product Desc: Autodesk Civil 3D |Company: Autodesk,Inc. |WEB Address: www.autodesk.com
 90
      129
280
     0
281
     0
  0
CLASS
  1
AECC_SAMPLE_LINE_STYLE
  2
AeccDbSampleLineStyle
  3
AeccLand10|Product Desc: Autodesk Civil 3D |Company: Autodesk,Inc. |WEB Address: www.autodesk.com
 90
     1023
280
     0
281
     0
  0
CLASS
  1
AECC_PROFILE_STYLE
  2
AeccDbVAlignmentStyle
  3
AeccLand10|Product Desc: Autodesk Civil 3D |Company: Autodesk,Inc. |WEB Address: www.autodesk.com
 90
     1023
280
     0
281
     0
  0
CLASS
  1
AECC_STATION_FORMAT_STYLE
  2
AeccDbStationFormatStyle
  3
AeccLand10|Product Desc: Autodesk Civil 3D |Company: Autodesk,Inc. |WEB Address: www.autodesk.com
 90
     1023
280
     0
281
     0
  0
CLASS
  1
AECC_TABLE_STYLE
  2
AeccDbScheduleTableStyle
  3
AeccLand10|Product Desc: Autodesk Civil 3D |Company: Autodesk,Inc. |WEB Address: www.autodesk.com
 90
     1023
280
     0
281
     0
  0
CLASS
  1
AECC_GRADING_CRITERIA_SET
  2
AeccDbGradingCriteriaSet
  3
AeccLand10|Product Desc: Autodesk Civil 3D |Company: Autodesk,Inc. |WEB Address: www.autodesk.com
 90
     1023
280
     0
281
     0
  0
CLASS
  1
AECC_FORMAT_MANAGER_OBJECT
  2
AeccDbFormatManagerObject
  3
AeccLand10|Product Desc: Autodesk Civil 3D |Company: Autodesk,Inc. |WEB Address: www.autodesk.com
 90
     1023
280
     0
281
     0
  0
CLASS
  1
AECC_POINT_DESCRIPTION_KEY_SET_NODE
  2
AeccDbPointDescKeySetsNode
  3
AeccvBase10|Product Desc: Autodesk Civil 3D |Company: Autodesk,Inc. |WEB Address: www.autodesk.com
 90
     1023
280
     0
281
     0
  0
CLASS
  1
DICTIONARYVAR
  2
AcDbDictionaryVar
  3
ObjectDBX Classes
 90
        0
280
     0
281
     0
  0
CLASS
  1
ACDBPLACEHOLDER
  2
AcDbPlaceHolder
  3
ObjectDBX Classes
 90
        0
280
     0
281
     0
  0
CLASS
  1
LAYOUT
  2
AcDbLayout
  3
ObjectDBX Classes
 90
        0
280
     0
281
     0
  0
ENDSEC
  0
SECTION
  2
TABLES
  0
TABLE
  2
VPORT
  5
8
330
0
100
AcDbSymbolTable
 70
     2
  0
VPORT
  5
763
330
8
100
AcDbSymbolTableRecord
100
AcDbViewportTableRecord
  2
*Active
 70
     0
 10
0.0
 20
0.0
 11
1.0
 21
1.0
 12
36632.14118771756
 22
26630.22719585679
 13
0.0
 23
0.0
 14
1.0
 24
1.0
 15
0.0
 25
0.0
 16
0.0
 26
0.0
 36
1.0
 17
0.0
 27
0.0
 37
0.0
 40
9834.081445366159
 41
1.937399678972712
 42
50.0
 43
0.0
 44
0.0
 50
0.0
 51
0.0
 71
     0
 72
   100
 73
     1
 74
     1
 75
     0
 76
     0
 77
     0
 78
     0
281
     0
 65
     1
110
0.0
120
0.0
130
0.0
111
1.0
121
0.0
131
0.0
112
0.0
122
1.0
132
0.0
 79
     0
146
0.0
  0
ENDTAB
  0
TABLE
  2
LTYPE
  5
5
330
0
100
AcDbSymbolTable
 70
    35
  0
LTYPE
  5
13
330
5
100
AcDbSymbolTableRecord
100
AcDbLinetypeTableRecord
  2
ByBlock
 70
     0
  3

 72
    65
 73
     0
 40
0.0
  0
LTYPE
  5
14
330
5
100
AcDbSymbolTableRecord
100
AcDbLinetypeTableRecord
  2
ByLayer
 70
     0
  3

 72
    65
 73
     0
 40
0.0
  0
LTYPE
  5
15
330
5
100
AcDbSymbolTableRecord
100
AcDbLinetypeTableRecord
  2
CONTINUOUS
 70
     0
  3
実線
 72
    65
 73
     0
 40
0.0
  0
LTYPE
  5
26
330
5
100
AcDbSymbolTableRecord
100
AcDbLinetypeTableRecord
  2
DASHED1
 70
     0
  3
--  --  --  --  --  --  --  --  
 72
    65
 73
     2
 40
2.5
 49
1.25
 74
     0
 49
-1.25
 74
     0
  0
LTYPE
  5
27
330
5
100
AcDbSymbolTableRecord
100
AcDbLinetypeTableRecord
  2
DASHED2
 70
     0
  3
----    ----    ----    ----    
 72
    65
 73
     2
 40
5.0
 49
2.5
 74
     0
 49
-2.5
 74
     0
  0
LTYPE
  5
28
330
5
100
AcDbSymbolTableRecord
100
AcDbLinetypeTableRecord
  2
DASHED3
 70
     0
  3
------  ------  ------  ------  
 72
    65
 73
     2
 40
5.0
 49
3.75
 74
     0
 49
-1.25
 74
     0
  0
LTYPE
  5
29
330
5
100
AcDbSymbolTableRecord
100
AcDbLinetypeTableRecord
  2
CENTER1
 70
     0
  3
----- - ----- - ----- - ----- - 
 72
    65
 73
     4
 40
10.0
 49
6.25
 74
     0
 49
-1.25
 74
     0
 49
1.25
 74
     0
 49
-1.25
 74
     0
  0
LTYPE
  5
2A
330
5
100
AcDbSymbolTableRecord
100
AcDbLinetypeTableRecord
  2
CENTER2
 70
     0
  3
----------  --  ----------  --  
 72
    65
 73
     4
 40
20.0
 49
12.5
 74
     0
 49
-2.5
 74
     0
 49
2.5
 74
     0
 49
-2.5
 74
     0
  0
LTYPE
  5
2B
330
5
100
AcDbSymbolTableRecord
100
AcDbLinetypeTableRecord
  2
PHANTOM1
 70
     0
  3
--- - - --- - - --- - - --- - - 
 72
    65
 73
     6
 40
10.0
 49
3.25
 74
     0
 49
-1.25
 74
     0
 49
1.25
 74
     0
 49
-1.25
 74
     0
 49
1.25
 74
     0
 49
-1.25
 74
     0
  0
LTYPE
  5
2C
330
5
100
AcDbSymbolTableRecord
100
AcDbLinetypeTableRecord
  2
PHANTOM2
 70
     0
  3
--------  -  -  --------  -  -  
 72
    65
 73
     6
 40
20.0
 49
10.0
 74
     0
 49
-2.5
 74
     0
 49
1.25
 74
     0
 49
-2.5
 74
     0
 49
1.25
 74
     0
 49
-2.5
 74
     0
  0
LTYPE
  5
2D
330
5
100
AcDbSymbolTableRecord
100
AcDbLinetypeTableRecord
  2
DOT
 70
     0
  3
-   -   -   -   -   -   -   -   
 72
    65
 73
     2
 40
2.5
 49
0.625
 74
     0
 49
-1.875
 74
     0
  0
LTYPE
  5
2E
330
5
100
AcDbSymbolTableRecord
100
AcDbLinetypeTableRecord
  2
DUMMY
 70
     0
  3
ダミー
 72
    65
 73
     0
 40
0.0
  0
LTYPE
  5
2F
330
5
100
AcDbSymbolTableRecord
100
AcDbLinetypeTableRecord
  2
RAND1
 70
     0
  3
ランダム線1
 72
    65
 73
     4
 40
10.0
 49
1.0
 74
     0
 49
-2.0
 74
     0
 49
3.0
 74
     0
 49
-4.0
 74
     0
  0
LTYPE
  5
30
330
5
100
AcDbSymbolTableRecord
100
AcDbLinetypeTableRecord
  2
RAND2
 70
     0
  3
ランダム線2
 72
    65
 73
     4
 40
14.0
 49
2.0
 74
     0
 49
-3.0
 74
     0
 49
4.0
 74
     0
 49
-5.0
 74
     0
  0
LTYPE
  5
31
330
5
100
AcDbSymbolTableRecord
100
AcDbLinetypeTableRecord
  2
RAND3
 70
     0
  3
ランダム線3
 72
    65
 73
     4
 40
18.0
 49
3.0
 74
     0
 49
-4.0
 74
     0
 49
5.0
 74
     0
 49
-6.0
 74
     0
  0
LTYPE
  5
32
330
5
100
AcDbSymbolTableRecord
100
AcDbLinetypeTableRecord
  2
RAND4
 70
     0
  3
ランダム線4
 72
    65
 73
     4
 40
22.0
 49
4.0
 74
     0
 49
-5.0
 74
     0
 49
6.0
 74
     0
 49
-7.0
 74
     0
  0
LTYPE
  5
33
330
5
100
AcDbSymbolTableRecord
100
AcDbLinetypeTableRecord
  2
RAND5
 70
     0
  3
ランダム線5
 72
    65
 73
     4
 40
26.0
 49
5.0
 74
     0
 49
-6.0
 74
     0
 49
7.0
 74
     0
 49
-8.0
 74
     0
  0
LTYPE
  5
34
330
5
100
AcDbSymbolTableRecord
100
AcDbLinetypeTableRecord
  2
LONG1
 70
     0
  3
----------  --  ----------  --  
 72
    65
 73
     4
 40
40.0
 49
32.5
 74
     0
 49
-2.5
 74
     0
 49
2.5
 74
     0
 49
-2.5
 74
     0
  0
LTYPE
  5
35
330
5
100
AcDbSymbolTableRecord
100
AcDbLinetypeTableRecord
  2
LONG2
 70
     0
  3
--------  -  -  --------  -  -  
 72
    65
 73
     6
 40
40.0
 49
30.0
 74
     0
 49
-2.5
 74
     0
 49
1.25
 74
     0
 49
-2.5
 74
     0
 49
1.25
 74
     0
 49
-2.5
 74
     0
  0
LTYPE
  5
36
330
5
100
AcDbSymbolTableRecord
100
AcDbLinetypeTableRecord
  2
LONG3
 70
     0
  3
+++++++++++++++..+++++++++++++++
 72
    65
 73
     2
 40
40.0
 49
37.5
 74
     0
 49
-2.5
 74
     0
  0
LTYPE
  5
37
330
5
100
AcDbSymbolTableRecord
100
AcDbLinetypeTableRecord
  2
LONG4
 70
     0
  3
+++++++++++++++..+++++++++++++++
 72
    65
 73
     2
 40
80.0
 49
75.0
 74
     0
 49
-5.0
 74
     0
  0
LTYPE
  5
38
330
5
100
AcDbSymbolTableRecord
100
AcDbLinetypeTableRecord
  2
LONG5
 70
     0
  3
----------  --  ----------  --  
 72
    65
 73
     4
 40
60.0
 49
37.5
 74
     0
 49
-7.5
 74
     0
 49
7.5
 74
     0
 49
-7.5
 74
     0
  0
LTYPE
  5
39
330
5
100
AcDbSymbolTableRecord
100
AcDbLinetypeTableRecord
  2
DASHED
 70
     0
  3
-------   -------------   ------
 72
    65
 73
     2
 40
7.5
 49
6.0
 74
     0
 49
-1.5
 74
     0
  0
LTYPE
  5
3A
330
5
100
AcDbSymbolTableRecord
100
AcDbLinetypeTableRecord
  2
DASHED_SPACED
 70
     0
  3
----        --------        ----
 72
    65
 73
     2
 40
12.0
 49
6.0
 74
     0
 49
-6.0
 74
     0
  0
LTYPE
  5
3B
330
5
100
AcDbSymbolTableRecord
100
AcDbLinetypeTableRecord
  2
LONG_DASHED_DOTTED
 70
     0
  3
------------- --- --------------
 72
    65
 73
     4
 40
15.25
 49
12.0
 74
     0
 49
-1.5
 74
     0
 49
0.25
 74
     0
 49
-1.5
 74
     0
  0
LTYPE
  5
3C
330
5
100
AcDbSymbolTableRecord
100
AcDbLinetypeTableRecord
  2
LONG_DASHED_DOUBLE-DOTTED
 70
     0
  3
----------- --- --- ------------
 72
    65
 73
     6
 40
17.0
 49
12.0
 74
     0
 49
-1.5
 74
     0
 49
0.25
 74
     0
 49
-1.5
 74
     0
 49
0.25
 74
     0
 49
-1.5
 74
     0
  0
LTYPE
  5
3D
330
5
100
AcDbSymbolTableRecord
100
AcDbLinetypeTableRecord
  2
LONG_DASHED_TRIPLICATE-DOTTED
 70
     0
  3
--------- --- --- --- ----------
 72
    65
 73
     8
 40
18.75
 49
12.0
 74
     0
 49
-1.5
 74
     0
 49
0.25
 74
     0
 49
-1.5
 74
     0
 49
0.25
 74
     0
 49
-1.5
 74
     0
 49
0.25
 74
     0
 49
-1.5
 74
     0
  0
LTYPE
  5
3E
330
5
100
AcDbSymbolTableRecord
100
AcDbLinetypeTableRecord
  2
DOTTED
 70
     0
  3
   -       -       -       -    
 72
    65
 73
     2
 40
1.75
 49
0.25
 74
     0
 49
-1.5
 74
     0
  0
LTYPE
  5
3F
330
5
100
AcDbSymbolTableRecord
100
AcDbLinetypeTableRecord
  2
CHAIN
 70
     0
  3
-------------- -- --------------
 72
    65
 73
     4
 40
18.5
 49
12.0
 74
     0
 49
-1.5
 74
     0
 49
3.5
 74
     0
 49
-1.5
 74
     0
  0
LTYPE
  5
40
330
5
100
AcDbSymbolTableRecord
100
AcDbLinetypeTableRecord
  2
CHAIN_DOUBLE_DASH
 70
     0
  3
------------ -- -- -------------
 72
    65
 73
     6
 40
23.5
 49
12.0
 74
     0
 49
-1.5
 74
     0
 49
3.5
 74
     0
 49
-1.5
 74
     0
 49
3.5
 74
     0
 49
-1.5
 74
     0
  0
LTYPE
  5
41
330
5
100
AcDbSymbolTableRecord
100
AcDbLinetypeTableRecord
  2
DASHED_DOTTED
 70
     0
  3
-----------     -     ----------
 72
    65
 73
     4
 40
9.25
 49
6.0
 74
     0
 49
-1.5
 74
     0
 49
0.25
 74
     0
 49
-1.5
 74
     0
  0
LTYPE
  5
42
330
5
100
AcDbSymbolTableRecord
100
AcDbLinetypeTableRecord
  2
DOUBLE-DASHED_DOTTED
 70
     0
  3
------   -----------   -   -----
 72
    65
 73
     6
 40
16.75
 49
6.0
 74
     0
 49
-1.5
 74
     0
 49
6.0
 74
     0
 49
-1.5
 74
     0
 49
0.25
 74
     0
 49
-1.5
 74
     0
  0
LTYPE
  5
43
330
5
100
AcDbSymbolTableRecord
100
AcDbLinetypeTableRecord
  2
DASHED_DOUBLE-DOTTED
 70
     0
  3
---------    -    -    ---------
 72
    65
 73
     6
 40
11.0
 49
6.0
 74
     0
 49
-1.5
 74
     0
 49
0.25
 74
     0
 49
-1.5
 74
     0
 49
0.25
 74
     0
 49
-1.5
 74
     0
  0
LTYPE
  5
44
330
5
100
AcDbSymbolTableRecord
100
AcDbLinetypeTableRecord
  2
DOUBLE-DASHED_DOUBLE-DOTTED
 70
     0
  3
-----   ---------   -   -   ----
 72
    65
 73
     8
 40
18.5
 49
6.0
 74
     0
 49
-1.5
 74
     0
 49
6.0
 74
     0
 49
-1.5
 74
     0
 49
0.25
 74
     0
 49
-1.5
 74
     0
 49
0.25
 74
     0
 49
-1.5
 74
     0
  0
LTYPE
  5
45
330
5
100
AcDbSymbolTableRecord
100
AcDbLinetypeTableRecord
  2
DASHED_TRIPLICATE-DOTTED
 70
     0
  3
-------    -    -    -    ------
 72
    65
 73
     8
 40
12.75
 49
6.0
 74
     0
 49
-1.5
 74
     0
 49
0.25
 74
     0
 49
-1.5
 74
     0
 49
0.25
 74
     0
 49
-1.5
 74
     0
 49
0.25
 74
     0
 49
-1.5
 74
     0
  0
LTYPE
  5
46
330
5
100
AcDbSymbolTableRecord
100
AcDbLinetypeTableRecord
  2
DOUBLE-DASHED_TRIPLICATE-DOTTED
 70
     0
  3
-----  ---------  -  -  -  -----
 72
    65
 73
    10
 40
20.25
 49
6.0
 74
     0
 49
-1.5
 74
     0
 49
6.0
 74
     0
 49
-1.5
 74
     0
 49
0.25
 74
     0
 49
-1.5
 74
     0
 49
0.25
 74
     0
 49
-1.5
 74
     0
 49
0.25
 74
     0
 49
-1.5
 74
     0
  0
LTYPE
  5
47
330
5
100
AcDbSymbolTableRecord
100
AcDbLinetypeTableRecord
  2
UNDEFINED
 70
     0
  3
--------------------------------
 72
    65
 73
     0
 40
0.0
  0
ENDTAB
  0
TABLE
  2
LAYER
  5
2
330
0
100
AcDbSymbolTable
 70
    11
  0
LAYER
  5
10
330
2
100
AcDbSymbolTableRecord
100
AcDbLayerTableRecord
  2
0
 70
     0
 62
     7
  6
CONTINUOUS
370
    -3
390
F
  0
LAYER
  5
49
330
2
100
AcDbSymbolTableRecord
100
AcDbLayerTableRecord
  2
_0-0_
 70
     0
 62
     7
  6
CONTINUOUS
370
    -3
390
F
  0
LAYER
  5
4A
330
2
100
AcDbSymbolTableRecord
100
AcDbLayerTableRecord
  2
_0-2_
 70
     0
 62
     7
  6
CONTINUOUS
370
    -3
390
F
  0
LAYER
  5
4B
330
2
100
AcDbSymbolTableRecord
100
AcDbLayerTableRecord
  2
_0-3_
 70
     0
 62
     7
  6
CONTINUOUS
370
    -3
390
F
  0
LAYER
  5
4C
330
2
100
AcDbSymbolTableRecord
100
AcDbLayerTableRecord
  2
_0-6_
 70
     0
 62
     7
  6
CONTINUOUS
370
    -3
390
F
  0
LAYER
  5
4D
330
2
100
AcDbSymbolTableRecord
100
AcDbLayerTableRecord
  2
_0-7_
 70
     0
 62
     7
  6
CONTINUOUS
370
    -3
390
F
  0
LAYER
  5
4E
330
2
100
AcDbSymbolTableRecord
100
AcDbLayerTableRecord
  2
_0-9_
 70
     0
 62
     7
  6
CONTINUOUS
370
    -3
390
F
  0
LAYER
  5
4F
330
2
100
AcDbSymbolTableRecord
100
AcDbLayerTableRecord
  2
_0-B_
 70
     0
 62
     7
  6
CONTINUOUS
370
    -3
390
F
  0
LAYER
  5
50
330
2
100
AcDbSymbolTableRecord
100
AcDbLayerTableRecord
  2
_0-E_
 70
     0
 62
     7
  6
CONTINUOUS
370
    -3
390
F
  0
LAYER
  5
51
330
2
100
AcDbSymbolTableRecord
100
AcDbLayerTableRecord
  2
_0-F_
 70
     0
 62
     7
  6
CONTINUOUS
370
    -3
390
F
  0
LAYER
  5
52
330
2
100
AcDbSymbolTableRecord
100
AcDbLayerTableRecord
  2
ADD_LINE
 70
     0
 62
     7
  6
CONTINUOUS
370
    -3
390
F
  0
ENDTAB
  0
TABLE
  2
STYLE
  5
3
330
0
100
AcDbSymbolTable
 70
     2
  0
STYLE
  5
11
330
3
100
AcDbSymbolTableRecord
100
AcDbTextStyleTableRecord
  2
STANDARD
 70
     0
 40
0.0
 41
1.0
 50
0.0
 71
     0
 42
0.2
  3
MS Gothic.ttf
  4

1001
ACAD
1000
MS Gothic
1071
    32817
  0
STYLE
  5
48
330
3
100
AcDbSymbolTableRecord
100
AcDbTextStyleTableRecord
  2
TATEGAKI
 70
     4
 40
0.0
 41
1.0
 50
0.0
 71
     0
 42
1.0
  3
txt
  4
bigfont.shx
  0
ENDTAB
  0
TABLE
  2
VIEW
  5
6
330
0
100
AcDbSymbolTable
 70
     0
  0
ENDTAB
  0
TABLE
  2
UCS
  5
7
330
0
100
AcDbSymbolTable
 70
     0
  0
ENDTAB
  0
TABLE
  2
APPID
  5
9
330
0
100
AcDbSymbolTable
 70
     3
  0
APPID
  5
12
330
9
100
AcDbSymbolTableRecord
100
AcDbRegAppTableRecord
  2
ACAD
 70
     0
  0
APPID
  5
75A
330
9
100
AcDbSymbolTableRecord
100
AcDbRegAppTableRecord
  2
DCO15
 70
     0
  0
APPID
  5
75C
330
9
100
AcDbSymbolTableRecord
100
AcDbRegAppTableRecord
  2
ADE
 70
     0
  0
ENDTAB
  0
TABLE
  2
DIMSTYLE
  5
A
330
0
100
AcDbSymbolTable
 70
     1
100
AcDbDimStyleTable
 71
     0
  0
DIMSTYLE
105
474
330
A
100
AcDbSymbolTableRecord
100
AcDbDimStyleTableRecord
  2
Standard
 70
     0
340
11
  0
ENDTAB
  0
TABLE
  2
BLOCK_RECORD
  5
1
330
0
100
AcDbSymbolTable
 70
     0
  0
BLOCK_RECORD
  5
22
330
1
100
AcDbSymbolTableRecord
100
AcDbBlockTableRecord
  2
*Model_Space
340
25
  0
BLOCK_RECORD
  5
1E
330
1
100
AcDbSymbolTableRecord
100
AcDbBlockTableRecord
  2
*Paper_Space
340
21
  0
ENDTAB
  0
ENDSEC
  0
SECTION
  2
BLOCKS
  0
BLOCK
  5
23
330
22
100
AcDbEntity
  8
0
100
AcDbBlockBegin
  2
*Model_Space
 70
     0
 10
0.0
 20
0.0
 30
0.0
  3
*Model_Space
  1

  0
ENDBLK
  5
24
330
22
100
AcDbEntity
  8
0
100
AcDbBlockEnd
  0
BLOCK
  5
1F
330
1E
100
AcDbEntity
 67
     1
  8
0
100
AcDbBlockBegin
  2
*Paper_Space
 70
     0
 10
0.0
 20
0.0
 30
0.0
  3
*Paper_Space
  1

  0
ENDBLK
  5
20
330
1E
100
AcDbEntity
 67
     1
  8
0
100
AcDbBlockEnd
  0
ENDSEC
  0
SECTION
  2
ENTITIES
  0
LINE
  5
56
330
22
100
AcDbEntity
  8
_0-F_
  6
Continuous
 62
     2
100
AcDbLine
 10
37999.9991752006
 20
26918.83726377744
 30
0.0
 11
37999.9991752006
 21
27918.83808857686
 31
0.0
  0
LINE
  5
57
330
22
100
AcDbEntity
  8
_0-F_
  6
Continuous
 62
     2
100
AcDbLine
 10
37999.9991752006
 20
26918.83726377744
 30
0.0
 11
40500.0
 21
26918.83726377744
 31
0.0
  0
LINE
  5
58
330
22
100
AcDbEntity
  8
_0-F_
  6
Continuous
 62
     2
100
AcDbLine
 10
3499.999175200591
 20
27918.83808857686
 30
0.0
 11
40500.0
 21
27918.83808857686
 31
0.0
  0
LINE
  5
59
330
22
100
AcDbEntity
  8
_0-F_
  6
Continuous
 62
     2
100
AcDbLine
 10
3499.999175200591
 20
2918.837263777449
 30
0.0
 11
3499.999175200591
 21
27918.83808857686
 31
0.0
  0
LINE
  5
5A
330
22
100
AcDbEntity
  8
_0-F_
  6
Continuous
 62
     2
100
AcDbLine
 10
40500.0
 20
2918.837263777449
 30
0.0
 11
3499.999175200591
 21
2918.837263777449
 31
0.0
  0
LINE
  5
5B
330
22
100
AcDbEntity
  8
_0-F_
  6
Continuous
 62
     2
100
AcDbLine
 10
40500.0
 20
27918.83808857686
 30
0.0
 11
40500.0
 21
2918.837263777449
 31
0.0
  0
TEXT
  5
5C
330
22
100
AcDbEntity
  8
_0-F_
 62
     7
100
AcDbText
 10
38545.0766073691
 20
27185.69863809122
 30
0.0
 40
400.0
  1
１４Ｍ
100
AcDbText
  0
LINE
  5
5D
330
22
100
AcDbEntity
  8
_0-9_
  6
Continuous
 62
     4
100
AcDbLine
 10
13235.08985968702
 20
4108.107592608478
 30
0.0
 11
31235.0873852888
 21
4108.107592608478
 31
0.0
  0
LINE
  5
5E
330
22
100
AcDbEntity
  8
_0-2_
  6
Continuous
 62
     7
100
AcDbLine
 10
13010.95639394588
 20
6681.122032371729
 30
0.0
 11
13457.95643353626
 21
6681.122032371729
 31
0.0
  0
LINE
  5
5F
330
22
100
AcDbEntity
  8
_0-2_
  6
Continuous
 62
     7
100
AcDbLine
 10
13124.45704058862
 20
23681.12430057009
 30
0.0
 11
13344.45578689352
 21
23681.12430057009
 31
0.0
  0
LINE
  5
60
330
22
100
AcDbEntity
  8
_0-2_
  6
Continuous
 62
     7
100
AcDbLine
 10
19010.95639394589
 20
6681.122032371729
 30
0.0
 11
19457.95643353625
 21
6681.122032371729
 31
0.0
  0
LINE
  5
61
330
22
100
AcDbEntity
  8
_0-B_
  6
Continuous
 62
     3
100
AcDbLine
 10
10010.95639394588
 20
9681.121413772171
 30
0.0
 11
13030.9866475882
 21
9681.121413772171
 31
0.0
  0
LINE
  5
62
330
22
100
AcDbEntity
  8
_0-B_
  6
Continuous
 62
     3
100
AcDbLine
 10
19437.92741709305
 20
9681.121413772171
 30
0.0
 11
25030.9866475882
 21
9681.121413772171
 31
0.0
  0
LINE
  5
63
330
22
100
AcDbEntity
  8
_0-9_
  6
Continuous
 62
     4
100
AcDbLine
 10
13235.08985968702
 20
5181.122032371726
 30
0.0
 11
13235.08985968702
 21
4108.107592608478
 31
0.0
  0
LINE
  5
64
330
22
100
AcDbEntity
  8
_0-9_
  6
Continuous
 62
     4
100
AcDbLine
 10
19235.08985968702
 20
5181.122032371726
 30
0.0
 11
19235.08985968702
 21
4108.107592608478
 31
0.0
  0
LINE
  5
65
330
22
100
AcDbEntity
  8
_0-9_
  6
Continuous
 62
     4
100
AcDbLine
 10
25235.08985968702
 20
5181.122032371726
 30
0.0
 11
25235.08985968702
 21
4108.107592608478
 31
0.0
  0
LINE
  5
66
330
22
100
AcDbEntity
  8
_0-9_
  6
Continuous
 62
     4
100
AcDbLine
 10
31235.0873852888
 20
5181.122032371726
 30
0.0
 11
31235.0873852888
 21
4108.107592608478
 31
0.0
  0
LINE
  5
67
330
22
100
AcDbEntity
  8
_0-9_
  6
Continuous
 62
     4
100
AcDbLine
 10
8734.456413741074
 20
23681.12430057009
 30
0.0
 11
8734.456413741074
 21
6681.123269570841
 31
0.0
  0
LINE
  5
68
330
22
100
AcDbEntity
  8
_0-9_
  6
Continuous
 62
     4
100
AcDbLine
 10
9234.455588941662
 20
9681.123888170397
 30
0.0
 11
9234.455588941662
 21
23681.12430057009
 31
0.0
  0
LINE
  5
69
330
22
100
AcDbEntity
  8
_0-2_
  6
Continuous
 62
     7
100
AcDbLine
 10
13209.45633126113
 20
23466.05950432855
 30
0.0
 11
13209.45633126113
 21
23566.05983424832
 31
0.0
  0
LINE
  5
6A
330
22
100
AcDbEntity
  8
_0-2_
  6
Continuous
 62
     7
100
AcDbLine
 10
13209.45633126113
 20
23566.05983424832
 30
0.0
 11
13259.45649622101
 21
23566.05983424832
 31
0.0
  0
LINE
  5
6B
330
22
100
AcDbEntity
  8
_0-2_
  6
Continuous
 62
     7
100
AcDbLine
 10
13259.45649622101
 20
23566.05983424832
 30
0.0
 11
13259.45649622101
 21
23466.05950432855
 31
0.0
  0
LINE
  5
6C
330
22
100
AcDbEntity
  8
_0-2_
  6
Continuous
 62
     7
100
AcDbLine
 10
13259.45649622101
 20
23466.05950432855
 30
0.0
 11
13209.45633126113
 21
23466.05950432855
 31
0.0
  0
LINE
  5
6D
330
22
100
AcDbEntity
  8
_0-2_
  6
Continuous
 62
     7
100
AcDbLine
 10
13446.45666777929
 20
23546.06174778294
 30
0.0
 11
13446.45666777929
 21
23656.05864653717
 31
0.0
  0
LINE
  5
6E
330
22
100
AcDbEntity
  8
_0-2_
  6
Continuous
 62
     7
100
AcDbLine
 10
13446.45666777929
 20
23656.05864653717
 30
0.0
 11
13646.4560904197
 21
23656.05864653717
 31
0.0
  0
LINE
  5
6F
330
22
100
AcDbEntity
  8
_0-2_
  6
Continuous
 62
     7
100
AcDbLine
 10
12528.31512230315
 20
9181.121619972026
 30
0.0
 11
12528.31512230315
 21
9381.119186813767
 31
0.0
  0
LINE
  5
70
330
22
100
AcDbEntity
  8
_0-2_
  6
Continuous
 62
     7
100
AcDbLine
 10
13028.31553470285
 20
9181.121619972026
 30
0.0
 11
12528.31512230315
 21
9181.121619972026
 31
0.0
  0
LINE
  5
71
330
22
100
AcDbEntity
  8
_0-2_
  6
Continuous
 62
     7
100
AcDbLine
 10
13940.59770517899
 20
9381.119186813767
 30
0.0
 11
13940.59770517899
 21
9181.121619972026
 31
0.0
  0
LINE
  5
72
330
22
100
AcDbEntity
  8
_0-2_
  6
Continuous
 62
     7
100
AcDbLine
 10
13009.45690862072
 20
9256.121867411847
 30
0.0
 11
13009.45690862072
 21
9306.121413772171
 31
0.0
  0
LINE
  5
73
330
22
100
AcDbEntity
  8
_0-2_
  6
Continuous
 62
     7
100
AcDbLine
 10
13009.45690862072
 20
9306.121413772171
 30
0.0
 11
13459.45591886142
 21
9306.121413772171
 31
0.0
  0
LINE
  5
74
330
22
100
AcDbEntity
  8
_0-2_
  6
Continuous
 62
     7
100
AcDbLine
 10
13459.45591886142
 20
9306.121413772171
 30
0.0
 11
13459.45591886142
 21
9256.121867411847
 31
0.0
  0
LINE
  5
75
330
22
100
AcDbEntity
  8
_0-2_
  6
Continuous
 62
     7
100
AcDbLine
 10
13459.45591886142
 20
9256.121867411847
 30
0.0
 11
13009.45690862072
 21
9256.121867411847
 31
0.0
  0
LINE
  5
76
330
22
100
AcDbEntity
  8
_0-2_
  6
Continuous
 62
     7
100
AcDbLine
 10
13028.31553470285
 20
9181.121619972026
 30
0.0
 11
13010.95639394588
 21
6681.122032371729
 31
0.0
  0
LINE
  5
77
330
22
100
AcDbEntity
  8
_0-2_
  6
Continuous
 62
     7
100
AcDbLine
 10
13028.31553470285
 20
9256.121867411847
 30
0.0
 11
13028.31553470285
 21
9181.121619972026
 31
0.0
  0
LINE
  5
78
330
22
100
AcDbEntity
  8
_0-2_
  6
Continuous
 62
     7
100
AcDbLine
 10
13440.76431465957
 20
9256.121867411847
 30
0.0
 11
13457.95643353626
 21
6681.122032371729
 31
0.0
  0
LINE
  5
79
330
22
100
AcDbEntity
  8
_0-2_
  6
Continuous
 62
     7
100
AcDbLine
 10
13940.59770517899
 20
9181.121619972026
 30
0.0
 11
13441.26414310129
 21
9181.121619972026
 31
0.0
  0
LINE
  5
7A
330
22
100
AcDbEntity
  8
_0-2_
  6
Continuous
 62
     7
100
AcDbLine
 10
13439.93044245729
 20
9381.119186813767
 30
0.0
 11
13940.59770517899
 21
9381.119186813767
 31
0.0
  0
LINE
  5
7B
330
22
100
AcDbEntity
  8
_0-2_
  6
Continuous
 62
     7
100
AcDbLine
 10
12528.31512230315
 20
9381.119186813767
 30
0.0
 11
13028.98238502486
 21
9381.119186813767
 31
0.0
  0
LINE
  5
7C
330
22
100
AcDbEntity
  8
_0-2_
  6
Continuous
 62
     7
100
AcDbLine
 10
18528.31512230314
 20
9181.120382772908
 30
0.0
 11
18528.31512230314
 21
9381.120424012882
 31
0.0
  0
LINE
  5
7D
330
22
100
AcDbEntity
  8
_0-2_
  6
Continuous
 62
     7
100
AcDbLine
 10
19028.31553470285
 20
9181.121619972026
 30
0.0
 11
18528.31512230314
 21
9181.121619972026
 31
0.0
  0
LINE
  5
7E
330
22
100
AcDbEntity
  8
_0-2_
  6
Continuous
 62
     7
100
AcDbLine
 10
19940.597705179
 20
9381.120424012882
 30
0.0
 11
19940.597705179
 21
9181.120382772908
 31
0.0
  0
LINE
  5
7F
330
22
100
AcDbEntity
  8
_0-2_
  6
Continuous
 62
     7
100
AcDbLine
 10
19009.45690862072
 20
9256.121867411847
 30
0.0
 11
19009.45690862072
 21
9306.121413772171
 31
0.0
  0
LINE
  5
80
330
22
100
AcDbEntity
  8
_0-2_
  6
Continuous
 62
     7
100
AcDbLine
 10
19009.45690862072
 20
9306.121413772171
 30
0.0
 11
19459.45591886143
 21
9306.121413772171
 31
0.0
  0
LINE
  5
81
330
22
100
AcDbEntity
  8
_0-2_
  6
Continuous
 62
     7
100
AcDbLine
 10
19459.45591886143
 20
9306.121413772171
 30
0.0
 11
19459.45591886143
 21
9256.121867411847
 31
0.0
  0
LINE
  5
82
330
22
100
AcDbEntity
  8
_0-2_
  6
Continuous
 62
     7
100
AcDbLine
 10
19459.45591886143
 20
9256.121867411847
 30
0.0
 11
19009.45690862072
 21
9256.121867411847
 31
0.0
  0
LINE
  5
83
330
22
100
AcDbEntity
  8
_0-2_
  6
Continuous
 62
     7
100
AcDbLine
 10
19940.597705179
 20
9181.121619972026
 30
0.0
 11
19441.26414310129
 21
9181.121619972026
 31
0.0
  0
LINE
  5
84
330
22
100
AcDbEntity
  8
_0-2_
  6
Continuous
 62
     7
100
AcDbLine
 10
19439.93044245729
 20
9381.119186813767
 30
0.0
 11
19940.597705179
 21
9381.119186813767
 31
0.0
  0
LINE
  5
85
330
22
100
AcDbEntity
  8
_0-2_
  6
Continuous
 62
     7
100
AcDbLine
 10
18528.31512230314
 20
9381.119186813767
 30
0.0
 11
19028.98238502486
 21
9381.119186813767
 31
0.0
  0
LINE
  5
86
330
22
100
AcDbEntity
  8
_0-2_
  6
Continuous
 62
     7
100
AcDbLine
 10
19028.31553470285
 20
9256.121867411847
 30
0.0
 11
19028.31553470285
 21
9181.121619972026
 31
0.0
  0
LINE
  5
87
330
22
100
AcDbEntity
  8
_0-2_
  6
Continuous
 62
     7
100
AcDbLine
 10
19028.14851282257
 20
9256.121867411847
 30
0.0
 11
19010.95639394589
 21
6681.122032371729
 31
0.0
  0
LINE
  5
88
330
22
100
AcDbEntity
  8
_0-2_
  6
Continuous
 62
     7
100
AcDbLine
 10
19440.76431465957
 20
9256.121867411847
 30
0.0
 11
19457.95643353625
 21
6681.122032371729
 31
0.0
  0
LINE
  5
89
330
22
100
AcDbEntity
  8
_0-2_
  6
Continuous
 62
     7
100
AcDbLine
 10
13072.45632466274
 20
23526.05871252112
 30
0.0
 11
13072.45632466274
 21
23626.05904244088
 31
0.0
  0
LINE
  5
8A
330
22
100
AcDbEntity
  8
_0-2_
  6
Continuous
 62
     7
100
AcDbLine
 10
13072.45632466274
 20
23626.05904244088
 30
0.0
 11
13396.45650281941
 21
23626.05904244088
 31
0.0
  0
LINE
  5
8B
330
22
100
AcDbEntity
  8
_0-2_
  6
Continuous
 62
     7
100
AcDbLine
 10
13396.45650281941
 20
23526.05871252112
 30
0.0
 11
13396.45650281941
 21
23626.05904244088
 31
0.0
  0
LINE
  5
8C
330
22
100
AcDbEntity
  8
_0-2_
  6
Continuous
 62
     7
100
AcDbLine
 10
13209.45633126113
 20
23526.05871252112
 30
0.0
 11
13072.45632466274
 21
23526.05871252112
 31
0.0
  0
LINE
  5
8D
330
22
100
AcDbEntity
  8
_0-2_
  6
Continuous
 62
     7
100
AcDbLine
 10
13396.45650281941
 20
23526.05871252112
 30
0.0
 11
13259.45649622101
 21
23526.05871252112
 31
0.0
  0
LINE
  5
8E
330
22
100
AcDbEntity
  8
_0-2_
  6
Continuous
 62
     7
100
AcDbLine
 10
13646.4560904197
 20
23656.05864653717
 30
0.0
 11
13646.4560904197
 21
23546.06174778294
 31
0.0
  0
LINE
  5
8F
330
22
100
AcDbEntity
  8
_0-2_
  6
Continuous
 62
     7
100
AcDbLine
 10
13646.4560904197
 20
23646.0620777027
 30
0.0
 11
18822.45673706244
 21
23646.0620777027
 31
0.0
  0
LINE
  5
90
330
22
100
AcDbEntity
  8
_0-2_
  6
Continuous
 62
     7
100
AcDbLine
 10
13646.4560904197
 20
23556.0583166174
 30
0.0
 11
18822.45673706244
 21
23556.0583166174
 31
0.0
  0
LINE
  5
91
330
22
100
AcDbEntity
  8
_0-2_
  6
Continuous
 62
     7
100
AcDbLine
 10
19344.45578689352
 20
23681.12430057009
 30
0.0
 11
19124.45704058862
 21
23681.12430057009
 31
0.0
  0
LINE
  5
92
330
22
100
AcDbEntity
  8
_0-2_
  6
Continuous
 62
     7
100
AcDbLine
 10
19259.45649622101
 20
23466.05950432855
 30
0.0
 11
19259.45649622101
 21
23566.05983424832
 31
0.0
  0
LINE
  5
93
330
22
100
AcDbEntity
  8
_0-2_
  6
Continuous
 62
     7
100
AcDbLine
 10
19259.45649622101
 20
23566.05983424832
 30
0.0
 11
19209.45633126113
 21
23566.05983424832
 31
0.0
  0
LINE
  5
94
330
22
100
AcDbEntity
  8
_0-2_
  6
Continuous
 62
     7
100
AcDbLine
 10
19209.45633126113
 20
23566.05983424832
 30
0.0
 11
19209.45633126113
 21
23466.05950432855
 31
0.0
  0
LINE
  5
95
330
22
100
AcDbEntity
  8
_0-2_
  6
Continuous
 62
     7
100
AcDbLine
 10
19022.45615970285
 20
23546.06174778294
 30
0.0
 11
19022.45615970285
 21
23656.05864653717
 31
0.0
  0
LINE
  5
96
330
22
100
AcDbEntity
  8
_0-2_
  6
Continuous
 62
     7
100
AcDbLine
 10
19022.45615970285
 20
23656.05864653717
 30
0.0
 11
18822.45673706244
 21
23656.05864653717
 31
0.0
  0
LINE
  5
97
330
22
100
AcDbEntity
  8
_0-2_
  6
Continuous
 62
     7
100
AcDbLine
 10
19396.45650281941
 20
23526.05871252112
 30
0.0
 11
19396.45650281941
 21
23626.05904244088
 31
0.0
  0
LINE
  5
98
330
22
100
AcDbEntity
  8
_0-2_
  6
Continuous
 62
     7
100
AcDbLine
 10
19396.45650281941
 20
23626.05904244088
 30
0.0
 11
19072.45632466273
 21
23626.05904244088
 31
0.0
  0
LINE
  5
99
330
22
100
AcDbEntity
  8
_0-2_
  6
Continuous
 62
     7
100
AcDbLine
 10
19072.45632466273
 20
23526.05871252112
 30
0.0
 11
19072.45632466273
 21
23626.05904244088
 31
0.0
  0
LINE
  5
9A
330
22
100
AcDbEntity
  8
_0-2_
  6
Continuous
 62
     7
100
AcDbLine
 10
19259.45649622101
 20
23526.05871252112
 30
0.0
 11
19396.45650281941
 21
23526.05871252112
 31
0.0
  0
LINE
  5
9B
330
22
100
AcDbEntity
  8
_0-2_
  6
Continuous
 62
     7
100
AcDbLine
 10
18822.45673706244
 20
23656.05864653717
 30
0.0
 11
18822.45673706244
 21
23546.06174778294
 31
0.0
  0
LINE
  5
9C
330
22
100
AcDbEntity
  8
_0-2_
  6
Continuous
 62
     7
100
AcDbLine
 10
13072.45632466274
 20
23576.05640308277
 30
0.0
 11
13396.45650281941
 21
23576.05640308277
 31
0.0
  0
LINE
  5
9D
330
22
100
AcDbEntity
  8
_0-3_
  6
Continuous
 62
     6
100
AcDbLine
 10
13184.53048072798
 20
10082.20651987437
 30
0.0
 11
13184.53048072798
 21
10285.9546558277
 31
0.0
  0
LINE
  5
9E
330
22
100
AcDbEntity
  8
_0-3_
  6
Continuous
 62
     6
100
AcDbLine
 10
13284.53081064774
 20
10076.72201620566
 30
0.0
 11
13284.53081064774
 21
10281.23226681271
 31
0.0
  0
LINE
  5
9F
330
22
100
AcDbEntity
  8
_0-2_
  6
Continuous
 62
     7
100
AcDbLine
 10
25457.95395913803
 20
6681.122032371729
 30
0.0
 11
25010.95391954766
 21
6681.122032371729
 31
0.0
  0
LINE
  5
A0
330
22
100
AcDbEntity
  8
_0-2_
  6
Continuous
 62
     7
100
AcDbLine
 10
25344.45331249529
 20
23681.12430057009
 30
0.0
 11
25124.4545661904
 21
23681.12430057009
 31
0.0
  0
LINE
  5
A1
330
22
100
AcDbEntity
  8
_0-2_
  6
Continuous
 62
     7
100
AcDbLine
 10
25940.59523078077
 20
9181.120382772908
 30
0.0
 11
25940.59523078077
 21
9381.120424012882
 31
0.0
  0
LINE
  5
A2
330
22
100
AcDbEntity
  8
_0-2_
  6
Continuous
 62
     7
100
AcDbLine
 10
25440.59358118195
 20
9181.120382772908
 30
0.0
 11
25940.59523078077
 21
9181.120382772908
 31
0.0
  0
LINE
  5
A3
330
22
100
AcDbEntity
  8
_0-2_
  6
Continuous
 62
     7
100
AcDbLine
 10
24528.31264790492
 20
9381.120424012882
 30
0.0
 11
24528.31264790492
 21
9181.120382772908
 31
0.0
  0
LINE
  5
A4
330
22
100
AcDbEntity
  8
_0-2_
  6
Continuous
 62
     7
100
AcDbLine
 10
25459.4534444632
 20
9256.121867411847
 30
0.0
 11
25459.4534444632
 21
9306.121413772171
 31
0.0
  0
LINE
  5
A5
330
22
100
AcDbEntity
  8
_0-2_
  6
Continuous
 62
     7
100
AcDbLine
 10
25459.4534444632
 20
9306.121413772171
 30
0.0
 11
25009.45443422249
 21
9306.121413772171
 31
0.0
  0
LINE
  5
A6
330
22
100
AcDbEntity
  8
_0-2_
  6
Continuous
 62
     7
100
AcDbLine
 10
25009.45443422249
 20
9306.121413772171
 30
0.0
 11
25009.45443422249
 21
9256.121867411847
 31
0.0
  0
LINE
  5
A7
330
22
100
AcDbEntity
  8
_0-2_
  6
Continuous
 62
     7
100
AcDbLine
 10
25009.45443422249
 20
9256.121867411847
 30
0.0
 11
25459.4534444632
 21
9256.121867411847
 31
0.0
  0
LINE
  5
A8
330
22
100
AcDbEntity
  8
_0-2_
  6
Continuous
 62
     7
100
AcDbLine
 10
25440.59358118195
 20
9181.120382772908
 30
0.0
 11
25457.95395913803
 21
6681.122032371729
 31
0.0
  0
LINE
  5
A9
330
22
100
AcDbEntity
  8
_0-2_
  6
Continuous
 62
     7
100
AcDbLine
 10
25440.59358118195
 20
9256.121867411847
 30
0.0
 11
25440.59358118195
 21
9181.120382772908
 31
0.0
  0
LINE
  5
AA
330
22
100
AcDbEntity
  8
_0-2_
  6
Continuous
 62
     7
100
AcDbLine
 10
25028.14603842435
 20
9256.121867411847
 30
0.0
 11
25010.95391954766
 21
6681.122032371729
 31
0.0
  0
LINE
  5
AB
330
22
100
AcDbEntity
  8
_0-2_
  6
Continuous
 62
     7
100
AcDbLine
 10
24528.31264790492
 20
9181.120382772908
 30
0.0
 11
25028.31429750374
 21
9181.120382772908
 31
0.0
  0
LINE
  5
AC
330
22
100
AcDbEntity
  8
_0-2_
  6
Continuous
 62
     7
100
AcDbLine
 10
25028.98238502486
 20
9381.120424012882
 30
0.0
 11
24528.31264790492
 21
9381.120424012882
 31
0.0
  0
LINE
  5
AD
330
22
100
AcDbEntity
  8
_0-2_
  6
Continuous
 62
     7
100
AcDbLine
 10
25940.59523078077
 20
9381.120424012882
 30
0.0
 11
25439.93044245729
 21
9381.120424012882
 31
0.0
  0
LINE
  5
AE
330
22
100
AcDbEntity
  8
_0-2_
  6
Continuous
 62
     7
100
AcDbLine
 10
19440.59729277929
 20
9181.120382772908
 30
0.0
 11
19940.597705179
 21
9181.120382772908
 31
0.0
  0
LINE
  5
AF
330
22
100
AcDbEntity
  8
_0-2_
  6
Continuous
 62
     7
100
AcDbLine
 10
18528.31512230314
 20
9181.120382772908
 30
0.0
 11
19027.64868438085
 21
9181.120382772908
 31
0.0
  0
LINE
  5
B0
330
22
100
AcDbEntity
  8
_0-2_
  6
Continuous
 62
     7
100
AcDbLine
 10
19028.98238502486
 20
9381.120424012882
 30
0.0
 11
18528.31512230314
 21
9381.120424012882
 31
0.0
  0
LINE
  5
B1
330
22
100
AcDbEntity
  8
_0-2_
  6
Continuous
 62
     7
100
AcDbLine
 10
19940.597705179
 20
9381.120424012882
 30
0.0
 11
19439.93044245729
 21
9381.120424012882
 31
0.0
  0
LINE
  5
B2
330
22
100
AcDbEntity
  8
_0-2_
  6
Continuous
 62
     7
100
AcDbLine
 10
19440.59729277929
 20
9256.121867411847
 30
0.0
 11
19440.59729277929
 21
9181.120382772908
 31
0.0
  0
LINE
  5
B3
330
22
100
AcDbEntity
  8
_0-2_
  6
Continuous
 62
     7
100
AcDbLine
 10
31457.95643353627
 20
6681.122032371729
 30
0.0
 11
31010.95639394589
 21
6681.122032371729
 31
0.0
  0
LINE
  5
B4
330
22
100
AcDbEntity
  8
_0-B_
  6
Continuous
 62
     3
100
AcDbLine
 10
31030.98417318997
 20
9681.121413772171
 30
0.0
 11
25437.92617989395
 21
9681.121413772171
 31
0.0
  0
LINE
  5
B5
330
22
100
AcDbEntity
  8
_0-2_
  6
Continuous
 62
     7
100
AcDbLine
 10
31940.59770517899
 20
9181.120382772908
 30
0.0
 11
31940.59770517899
 21
9381.120424012882
 31
0.0
  0
LINE
  5
B6
330
22
100
AcDbEntity
  8
_0-2_
  6
Continuous
 62
     7
100
AcDbLine
 10
31440.59605558018
 20
9181.120382772908
 30
0.0
 11
31940.59770517899
 21
9181.120382772908
 31
0.0
  0
LINE
  5
B7
330
22
100
AcDbEntity
  8
_0-2_
  6
Continuous
 62
     7
100
AcDbLine
 10
30528.31512230315
 20
9381.120424012882
 30
0.0
 11
30528.31512230315
 21
9181.120382772908
 31
0.0
  0
LINE
  5
B8
330
22
100
AcDbEntity
  8
_0-2_
  6
Continuous
 62
     7
100
AcDbLine
 10
31459.45591886142
 20
9256.121867411847
 30
0.0
 11
31459.45591886142
 21
9306.121413772171
 31
0.0
  0
LINE
  5
B9
330
22
100
AcDbEntity
  8
_0-2_
  6
Continuous
 62
     7
100
AcDbLine
 10
31459.45591886142
 20
9306.121413772171
 30
0.0
 11
31009.45690862072
 21
9306.121413772171
 31
0.0
  0
LINE
  5
BA
330
22
100
AcDbEntity
  8
_0-2_
  6
Continuous
 62
     7
100
AcDbLine
 10
31009.45690862072
 20
9306.121413772171
 30
0.0
 11
31009.45690862072
 21
9256.121867411847
 31
0.0
  0
LINE
  5
BB
330
22
100
AcDbEntity
  8
_0-2_
  6
Continuous
 62
     7
100
AcDbLine
 10
31009.45690862072
 20
9256.121867411847
 30
0.0
 11
31459.45591886142
 21
9256.121867411847
 31
0.0
  0
LINE
  5
BC
330
22
100
AcDbEntity
  8
_0-2_
  6
Continuous
 62
     7
100
AcDbLine
 10
30528.31512230315
 20
9181.120382772908
 30
0.0
 11
31028.31677190197
 21
9181.120382772908
 31
0.0
  0
LINE
  5
BD
330
22
100
AcDbEntity
  8
_0-2_
  6
Continuous
 62
     7
100
AcDbLine
 10
31028.97991062663
 20
9381.120424012882
 30
0.0
 11
30528.31512230315
 21
9381.120424012882
 31
0.0
  0
LINE
  5
BE
330
22
100
AcDbEntity
  8
_0-2_
  6
Continuous
 62
     7
100
AcDbLine
 10
31940.59770517899
 20
9381.120424012882
 30
0.0
 11
31439.92796805906
 21
9381.120424012882
 31
0.0
  0
LINE
  5
BF
330
22
100
AcDbEntity
  8
_0-2_
  6
Continuous
 62
     7
100
AcDbLine
 10
31440.59605558018
 20
9256.121867411847
 30
0.0
 11
31440.59605558018
 21
9181.120382772908
 31
0.0
  0
LINE
  5
C0
330
22
100
AcDbEntity
  8
_0-2_
  6
Continuous
 62
     7
100
AcDbLine
 10
31440.76431465957
 20
9256.121867411847
 30
0.0
 11
31457.95643353627
 21
6681.122032371729
 31
0.0
  0
LINE
  5
C1
330
22
100
AcDbEntity
  8
_0-2_
  6
Continuous
 62
     7
100
AcDbLine
 10
31028.14851282258
 20
9256.121867411847
 30
0.0
 11
31010.95639394589
 21
6681.122032371729
 31
0.0
  0
LINE
  5
C2
330
22
100
AcDbEntity
  8
_0-2_
  6
Continuous
 62
     7
100
AcDbLine
 10
31124.45704058863
 20
23681.12430057009
 30
0.0
 11
31344.45578689353
 21
23681.12430057009
 31
0.0
  0
LINE
  5
C3
330
22
100
AcDbEntity
  8
_0-2_
  6
Continuous
 62
     7
100
AcDbLine
 10
25028.31429750374
 20
9181.120382772908
 30
0.0
 11
25010.95391954766
 21
6681.122032371729
 31
0.0
  0
LINE
  5
C4
330
22
100
AcDbEntity
  8
_0-2_
  6
Continuous
 62
     7
100
AcDbLine
 10
25028.31429750374
 20
9256.121867411847
 30
0.0
 11
25028.31429750374
 21
9181.120382772908
 31
0.0
  0
LINE
  5
C5
330
22
100
AcDbEntity
  8
_0-2_
  6
Continuous
 62
     7
100
AcDbLine
 10
25440.76184026134
 20
9256.121867411847
 30
0.0
 11
25457.95395913803
 21
6681.122032371729
 31
0.0
  0
LINE
  5
C6
330
22
100
AcDbEntity
  8
_0-2_
  6
Continuous
 62
     7
100
AcDbLine
 10
31028.31677190197
 20
9256.121867411847
 30
0.0
 11
31028.31677190197
 21
9181.120382772908
 31
0.0
  0
LINE
  5
C7
330
22
100
AcDbEntity
  8
_0-2_
  6
Continuous
 62
     7
100
AcDbLine
 10
19396.45650281941
 20
23576.05640308277
 30
0.0
 11
19072.45632466273
 21
23576.05640308277
 31
0.0
  0
LINE
  5
C8
330
22
100
AcDbEntity
  8
_0-2_
  6
Continuous
 62
     7
100
AcDbLine
 10
13396.45650281941
 20
23626.05904244088
 30
0.0
 11
13446.45666777929
 21
23646.0620777027
 31
0.0
  0
LINE
  5
C9
330
22
100
AcDbEntity
  8
_0-2_
  6
Continuous
 62
     7
100
AcDbLine
 10
13396.45650281941
 20
23576.05640308277
 30
0.0
 11
13446.45666777929
 21
23556.0583166174
 31
0.0
  0
LINE
  5
CA
330
22
100
AcDbEntity
  8
_0-2_
  6
Continuous
 62
     7
100
AcDbLine
 10
19072.45632466273
 20
23626.05904244088
 30
0.0
 11
19022.45615970285
 21
23646.0620777027
 31
0.0
  0
LINE
  5
CB
330
22
100
AcDbEntity
  8
_0-2_
  6
Continuous
 62
     7
100
AcDbLine
 10
19072.45632466273
 20
23576.05640308277
 30
0.0
 11
19022.45615970285
 21
23556.0583166174
 31
0.0
  0
LINE
  5
CC
330
22
100
AcDbEntity
  8
_0-B_
  6
Continuous
 62
     3
100
AcDbLine
 10
34234.45393934285
 20
9681.121413772171
 30
0.0
 11
31437.92865429217
 21
9681.121413772171
 31
0.0
  0
LINE
  5
CD
330
22
100
AcDbEntity
  8
_0-0_
  6
Continuous
 62
     7
100
AcDbLine
 10
13196.95938301894
 20
19105.92238967484
 30
0.0
 11
13271.95839325965
 21
19105.92238967484
 31
0.0
  0
LINE
  5
CE
330
22
100
AcDbEntity
  8
_0-0_
  6
Continuous
 62
     7
100
AcDbLine
 10
13196.95938301894
 20
19105.92238967484
 30
0.0
 11
13196.95938301894
 21
18955.92065759608
 31
0.0
  0
LINE
  5
CF
330
22
100
AcDbEntity
  8
_0-0_
  6
Continuous
 62
     7
100
AcDbLine
 10
13196.95938301894
 20
18955.92065759608
 30
0.0
 11
13271.95839325965
 21
18955.92065759608
 31
0.0
  0
LINE
  5
D0
330
22
100
AcDbEntity
  8
_0-0_
  6
Continuous
 62
     7
100
AcDbLine
 10
13271.95839325965
 20
19105.92238967484
 30
0.0
 11
13271.95839325965
 21
18955.92065759608
 31
0.0
  0
LINE
  5
D1
330
22
100
AcDbEntity
  8
_0-0_
  6
Continuous
 62
     7
100
AcDbLine
 10
13043.96239188718
 20
19030.922142235
 30
0.0
 11
13196.95938301894
 21
19030.922142235
 31
0.0
  0
LINE
  5
D2
330
22
100
AcDbEntity
  8
_0-0_
  6
Continuous
 62
     7
100
AcDbLine
 10
13043.96239188718
 20
19130.92123495566
 30
0.0
 11
13424.96033318786
 21
19130.92123495566
 31
0.0
  0
LINE
  5
D3
330
22
100
AcDbEntity
  8
_0-0_
  6
Continuous
 62
     7
100
AcDbLine
 10
13424.96033318786
 20
19030.922142235
 30
0.0
 11
13271.95839325965
 21
19030.922142235
 31
0.0
  0
LINE
  5
D4
330
22
100
AcDbEntity
  8
_0-0_
  6
Continuous
 62
     7
100
AcDbLine
 10
13043.96239188718
 20
19130.92123495566
 30
0.0
 11
13043.96239188718
 21
19030.922142235
 31
0.0
  0
LINE
  5
D5
330
22
100
AcDbEntity
  8
_0-0_
  6
Continuous
 62
     7
100
AcDbLine
 10
13424.96033318786
 20
19130.92123495566
 30
0.0
 11
13424.96033318786
 21
19030.922142235
 31
0.0
  0
LINE
  5
D6
330
22
100
AcDbEntity
  8
_0-0_
  6
Continuous
 62
     7
100
AcDbLine
 10
19197.13753969124
 20
9906.216183224239
 30
0.0
 11
19272.13160113549
 21
9906.216183224239
 31
0.0
  0
LINE
  5
D7
330
22
100
AcDbEntity
  8
_0-0_
  6
Continuous
 62
     7
100
AcDbLine
 10
19197.13753969124
 20
9906.216183224239
 30
0.0
 11
19197.13753969124
 21
9756.215688344596
 31
0.0
  0
LINE
  5
D8
330
22
100
AcDbEntity
  8
_0-0_
  6
Continuous
 62
     7
100
AcDbLine
 10
19197.13753969124
 20
9756.215688344596
 30
0.0
 11
19272.13160113549
 21
9756.215688344596
 31
0.0
  0
LINE
  5
D9
330
22
100
AcDbEntity
  8
_0-0_
  6
Continuous
 62
     7
100
AcDbLine
 10
19272.13160113549
 20
9906.216183224239
 30
0.0
 11
19272.13160113549
 21
9756.215688344596
 31
0.0
  0
LINE
  5
DA
330
22
100
AcDbEntity
  8
_0-0_
  6
Continuous
 62
     7
100
AcDbLine
 10
18985.35379549783
 20
9831.214698585304
 30
0.0
 11
19197.13753969124
 21
9831.214698585304
 31
0.0
  0
LINE
  5
DB
330
22
100
AcDbEntity
  8
_0-0_
  6
Continuous
 62
     7
100
AcDbLine
 10
19483.17797465746
 20
9831.214698585304
 30
0.0
 11
19272.13160113549
 21
9831.214698585304
 31
0.0
  0
LINE
  5
DC
330
22
100
AcDbEntity
  8
_0-0_
  6
Continuous
 62
     7
100
AcDbLine
 10
18985.35379549783
 20
9931.21502850507
 30
0.0
 11
18985.35379549783
 21
9831.214698585304
 31
0.0
  0
LINE
  5
DD
330
22
100
AcDbEntity
  8
_0-0_
  6
Continuous
 62
     7
100
AcDbLine
 10
18985.35379549783
 20
9931.21502850507
 30
0.0
 11
19483.17797465746
 21
9931.21502850507
 31
0.0
  0
LINE
  5
DE
330
22
100
AcDbEntity
  8
_0-0_
  6
Continuous
 62
     7
100
AcDbLine
 10
19483.17797465746
 20
9931.21502850507
 30
0.0
 11
19483.17797465746
 21
9831.214698585304
 31
0.0
  0
LINE
  5
DF
330
22
100
AcDbEntity
  8
_0-0_
  6
Continuous
 62
     7
100
AcDbLine
 10
31196.95195982426
 20
19105.34090609164
 30
0.0
 11
31271.95097006497
 21
19105.34090609164
 31
0.0
  0
LINE
  5
E0
330
22
100
AcDbEntity
  8
_0-0_
  6
Continuous
 62
     7
100
AcDbLine
 10
31196.95195982426
 20
19105.34090609164
 30
0.0
 11
31196.95195982426
 21
18955.33917401288
 31
0.0
  0
LINE
  5
E1
330
22
100
AcDbEntity
  8
_0-0_
  6
Continuous
 62
     7
100
AcDbLine
 10
31196.95195982426
 20
18955.33917401288
 30
0.0
 11
31271.95097006497
 21
18955.33917401288
 31
0.0
  0
LINE
  5
E2
330
22
100
AcDbEntity
  8
_0-0_
  6
Continuous
 62
     7
100
AcDbLine
 10
31271.95097006497
 20
19105.34090609164
 30
0.0
 11
31271.95097006497
 21
18955.33917401288
 31
0.0
  0
LINE
  5
E3
330
22
100
AcDbEntity
  8
_0-0_
  6
Continuous
 62
     7
100
AcDbLine
 10
31043.95496869252
 20
19030.33818425359
 30
0.0
 11
31196.95195982426
 21
19030.33818425359
 31
0.0
  0
LINE
  5
E4
330
22
100
AcDbEntity
  8
_0-0_
  6
Continuous
 62
     7
100
AcDbLine
 10
31043.95496869252
 20
19130.34098857158
 30
0.0
 11
31424.95290999318
 21
19130.34098857158
 31
0.0
  0
LINE
  5
E5
330
22
100
AcDbEntity
  8
_0-0_
  6
Continuous
 62
     7
100
AcDbLine
 10
31424.95290999318
 20
19030.33818425359
 30
0.0
 11
31271.95097006497
 21
19030.33818425359
 31
0.0
  0
LINE
  5
E6
330
22
100
AcDbEntity
  8
_0-0_
  6
Continuous
 62
     7
100
AcDbLine
 10
31043.95496869252
 20
19130.34098857158
 30
0.0
 11
31043.95496869252
 21
19030.33818425359
 31
0.0
  0
LINE
  5
E7
330
22
100
AcDbEntity
  8
_0-0_
  6
Continuous
 62
     7
100
AcDbLine
 10
31424.95290999318
 20
19130.34098857158
 30
0.0
 11
31424.95290999318
 21
19030.33818425359
 31
0.0
  0
LINE
  5
E8
330
22
100
AcDbEntity
  8
_0-0_
  6
Continuous
 62
     7
100
AcDbLine
 10
19196.95443422249
 20
19105.92238967484
 30
0.0
 11
19271.9534444632
 21
19105.92238967484
 31
0.0
  0
LINE
  5
E9
330
22
100
AcDbEntity
  8
_0-0_
  6
Continuous
 62
     7
100
AcDbLine
 10
19196.95443422249
 20
19105.92238967484
 30
0.0
 11
19196.95443422249
 21
18955.92065759608
 31
0.0
  0
LINE
  5
EA
330
22
100
AcDbEntity
  8
_0-0_
  6
Continuous
 62
     7
100
AcDbLine
 10
19196.95443422249
 20
18955.92065759608
 30
0.0
 11
19271.9534444632
 21
18955.92065759608
 31
0.0
  0
LINE
  5
EB
330
22
100
AcDbEntity
  8
_0-0_
  6
Continuous
 62
     7
100
AcDbLine
 10
19271.9534444632
 20
19105.92238967484
 30
0.0
 11
19271.9534444632
 21
18955.92065759608
 31
0.0
  0
LINE
  5
EC
330
22
100
AcDbEntity
  8
_0-0_
  6
Continuous
 62
     7
100
AcDbLine
 10
19043.95744309073
 20
19030.91966783678
 30
0.0
 11
19196.95443422249
 21
19030.91966783678
 31
0.0
  0
LINE
  5
ED
330
22
100
AcDbEntity
  8
_0-0_
  6
Continuous
 62
     7
100
AcDbLine
 10
19043.95744309073
 20
19130.92247215477
 30
0.0
 11
19424.95538439141
 21
19130.92247215477
 31
0.0
  0
LINE
  5
EE
330
22
100
AcDbEntity
  8
_0-0_
  6
Continuous
 62
     7
100
AcDbLine
 10
19424.95538439141
 20
19030.91966783678
 30
0.0
 11
19271.9534444632
 21
19030.91966783678
 31
0.0
  0
LINE
  5
EF
330
22
100
AcDbEntity
  8
_0-0_
  6
Continuous
 62
     7
100
AcDbLine
 10
19043.95744309073
 20
19130.92247215477
 30
0.0
 11
19043.95744309073
 21
19030.91966783678
 31
0.0
  0
LINE
  5
F0
330
22
100
AcDbEntity
  8
_0-0_
  6
Continuous
 62
     7
100
AcDbLine
 10
19424.95538439141
 20
19130.92247215477
 30
0.0
 11
19424.95538439141
 21
19030.91966783678
 31
0.0
  0
LINE
  5
F1
330
22
100
AcDbEntity
  8
_0-0_
  6
Continuous
 62
     7
100
AcDbLine
 10
31196.95690862072
 20
14605.19120499894
 30
0.0
 11
31271.95591886143
 21
14605.19120499894
 31
0.0
  0
LINE
  5
F2
330
22
100
AcDbEntity
  8
_0-0_
  6
Continuous
 62
     7
100
AcDbLine
 10
31196.95690862072
 20
14605.19120499894
 30
0.0
 11
31196.95690862072
 21
14455.1907101193
 31
0.0
  0
LINE
  5
F3
330
22
100
AcDbEntity
  8
_0-0_
  6
Continuous
 62
     7
100
AcDbLine
 10
31196.95690862072
 20
14455.1907101193
 30
0.0
 11
31271.95591886143
 21
14455.1907101193
 31
0.0
  0
LINE
  5
F4
330
22
100
AcDbEntity
  8
_0-0_
  6
Continuous
 62
     7
100
AcDbLine
 10
31271.95591886143
 20
14605.19120499894
 30
0.0
 11
31271.95591886143
 21
14455.1907101193
 31
0.0
  0
LINE
  5
F5
330
22
100
AcDbEntity
  8
_0-0_
  6
Continuous
 62
     7
100
AcDbLine
 10
31016.5633803268
 20
14630.19128747888
 30
0.0
 11
31452.3444983589
 21
14630.19128747888
 31
0.0
  0
LINE
  5
F6
330
22
100
AcDbEntity
  8
_0-0_
  6
Continuous
 62
     7
100
AcDbLine
 10
31016.5633803268
 20
14630.19128747888
 30
0.0
 11
31016.5633803268
 21
14530.19095755912
 31
0.0
  0
LINE
  5
F7
330
22
100
AcDbEntity
  8
_0-0_
  6
Continuous
 62
     7
100
AcDbLine
 10
31016.5633803268
 20
14530.19095755912
 30
0.0
 11
31196.95690862072
 21
14530.19095755912
 31
0.0
  0
LINE
  5
F8
330
22
100
AcDbEntity
  8
_0-0_
  6
Continuous
 62
     7
100
AcDbLine
 10
31452.3444983589
 20
14630.19128747888
 30
0.0
 11
31452.3444983589
 21
14530.19095755912
 31
0.0
  0
LINE
  5
F9
330
22
100
AcDbEntity
  8
_0-0_
  6
Continuous
 62
     7
100
AcDbLine
 10
31452.3444983589
 20
14530.19095755912
 30
0.0
 11
31271.95591886143
 21
14530.19095755912
 31
0.0
  0
LINE
  5
FA
330
22
100
AcDbEntity
  8
_0-0_
  6
Continuous
 62
     7
100
AcDbLine
 10
31452.33954956245
 20
14630.19128747888
 30
0.0
 11
31452.33954956245
 21
14530.19095755912
 31
0.0
  0
LINE
  5
FB
330
22
100
AcDbEntity
  8
_0-0_
  6
Continuous
 62
     7
100
AcDbLine
 10
31072.45508746363
 20
23530.52747571791
 30
0.0
 11
31072.45508746363
 21
23630.52780563767
 31
0.0
  0
LINE
  5
FC
330
22
100
AcDbEntity
  8
_0-0_
  6
Continuous
 62
     7
100
AcDbLine
 10
31072.45508746363
 20
23630.52780563767
 30
0.0
 11
31396.45279122207
 21
23630.52780563767
 31
0.0
  0
LINE
  5
FD
330
22
100
AcDbEntity
  8
_0-0_
  6
Continuous
 62
     7
100
AcDbLine
 10
31396.45279122207
 20
23630.52780563767
 30
0.0
 11
31396.45279122207
 21
23530.52747571791
 31
0.0
  0
LINE
  5
FE
330
22
100
AcDbEntity
  8
_0-0_
  6
Continuous
 62
     7
100
AcDbLine
 10
25196.94948542604
 20
14605.19120499894
 30
0.0
 11
25271.94849566675
 21
14605.19120499894
 31
0.0
  0
LINE
  5
FF
330
22
100
AcDbEntity
  8
_0-0_
  6
Continuous
 62
     7
100
AcDbLine
 10
25196.94948542604
 20
14605.19120499894
 30
0.0
 11
25196.94948542604
 21
14455.1907101193
 31
0.0
  0
LINE
  5
100
330
22
100
AcDbEntity
  8
_0-0_
  6
Continuous
 62
     7
100
AcDbLine
 10
25196.94948542604
 20
14455.1907101193
 30
0.0
 11
25271.94849566675
 21
14455.1907101193
 31
0.0
  0
LINE
  5
101
330
22
100
AcDbEntity
  8
_0-0_
  6
Continuous
 62
     7
100
AcDbLine
 10
25271.94849566675
 20
14605.19120499894
 30
0.0
 11
25271.94849566675
 21
14455.1907101193
 31
0.0
  0
LINE
  5
102
330
22
100
AcDbEntity
  8
ADD_LINE
  6
DOT
 62
     7
100
AcDbLine
 10
25234.44651614817
 20
14685.67224451013
 30
0.0
 11
25234.44651614817
 21
14423.18313186233
 31
0.0
  0
LINE
  5
103
330
22
100
AcDbEntity
  8
_0-0_
  6
Continuous
 62
     7
100
AcDbLine
 10
25016.55595713212
 20
14630.19128747888
 30
0.0
 11
25452.33707516421
 21
14630.19128747888
 31
0.0
  0
LINE
  5
104
330
22
100
AcDbEntity
  8
_0-0_
  6
Continuous
 62
     7
100
AcDbLine
 10
25016.55595713212
 20
14630.19128747888
 30
0.0
 11
25016.55595713212
 21
14530.19095755912
 31
0.0
  0
LINE
  5
105
330
22
100
AcDbEntity
  8
_0-0_
  6
Continuous
 62
     7
100
AcDbLine
 10
25016.55595713212
 20
14530.19095755912
 30
0.0
 11
25196.94948542604
 21
14530.19095755912
 31
0.0
  0
LINE
  5
106
330
22
100
AcDbEntity
  8
_0-0_
  6
Continuous
 62
     7
100
AcDbLine
 10
25452.33707516421
 20
14630.19128747888
 30
0.0
 11
25452.33707516421
 21
14530.19095755912
 31
0.0
  0
LINE
  5
107
330
22
100
AcDbEntity
  8
_0-0_
  6
Continuous
 62
     7
100
AcDbLine
 10
25452.33707516421
 20
14530.19095755912
 30
0.0
 11
25271.94849566675
 21
14530.19095755912
 31
0.0
  0
LINE
  5
108
330
22
100
AcDbEntity
  8
_0-0_
  6
Continuous
 62
     7
100
AcDbLine
 10
25452.33212636776
 20
14630.19128747888
 30
0.0
 11
25452.33212636776
 21
14530.19095755912
 31
0.0
  0
LINE
  5
109
330
22
100
AcDbEntity
  8
_0-0_
  6
Continuous
 62
     7
100
AcDbLine
 10
19196.94948542604
 20
14605.19120499894
 30
0.0
 11
19271.94849566675
 21
14605.19120499894
 31
0.0
  0
LINE
  5
10A
330
22
100
AcDbEntity
  8
_0-0_
  6
Continuous
 62
     7
100
AcDbLine
 10
19196.94948542604
 20
14605.19120499894
 30
0.0
 11
19196.94948542604
 21
14455.1907101193
 31
0.0
  0
LINE
  5
10B
330
22
100
AcDbEntity
  8
_0-0_
  6
Continuous
 62
     7
100
AcDbLine
 10
19196.94948542604
 20
14455.1907101193
 30
0.0
 11
19271.94849566675
 21
14455.1907101193
 31
0.0
  0
LINE
  5
10C
330
22
100
AcDbEntity
  8
_0-0_
  6
Continuous
 62
     7
100
AcDbLine
 10
19271.94849566675
 20
14605.19120499894
 30
0.0
 11
19271.94849566675
 21
14455.1907101193
 31
0.0
  0
LINE
  5
10D
330
22
100
AcDbEntity
  8
_0-0_
  6
Continuous
 62
     7
100
AcDbLine
 10
19016.55595713211
 20
14630.19128747888
 30
0.0
 11
19452.33707516421
 21
14630.19128747888
 31
0.0
  0
LINE
  5
10E
330
22
100
AcDbEntity
  8
_0-0_
  6
Continuous
 62
     7
100
AcDbLine
 10
19016.55595713211
 20
14630.19128747888
 30
0.0
 11
19016.55595713211
 21
14530.19095755912
 31
0.0
  0
LINE
  5
10F
330
22
100
AcDbEntity
  8
_0-0_
  6
Continuous
 62
     7
100
AcDbLine
 10
19016.55595713211
 20
14530.19095755912
 30
0.0
 11
19196.94948542604
 21
14530.19095755912
 31
0.0
  0
LINE
  5
110
330
22
100
AcDbEntity
  8
_0-0_
  6
Continuous
 62
     7
100
AcDbLine
 10
19452.33707516421
 20
14630.19128747888
 30
0.0
 11
19452.33707516421
 21
14530.19095755912
 31
0.0
  0
LINE
  5
111
330
22
100
AcDbEntity
  8
_0-0_
  6
Continuous
 62
     7
100
AcDbLine
 10
19452.33707516421
 20
14530.19095755912
 30
0.0
 11
19271.94849566675
 21
14530.19095755912
 31
0.0
  0
LINE
  5
112
330
22
100
AcDbEntity
  8
_0-0_
  6
Continuous
 62
     7
100
AcDbLine
 10
19452.33212636775
 20
14630.19128747888
 30
0.0
 11
19452.33212636775
 21
14530.19095755912
 31
0.0
  0
LINE
  5
113
330
22
100
AcDbEntity
  8
_0-0_
  6
Continuous
 62
     7
100
AcDbLine
 10
13196.95938301894
 20
14605.19120499894
 30
0.0
 11
13271.95839325965
 21
14605.19120499894
 31
0.0
  0
LINE
  5
114
330
22
100
AcDbEntity
  8
_0-0_
  6
Continuous
 62
     7
100
AcDbLine
 10
13196.95938301894
 20
14605.19120499894
 30
0.0
 11
13196.95938301894
 21
14455.1907101193
 31
0.0
  0
LINE
  5
115
330
22
100
AcDbEntity
  8
_0-0_
  6
Continuous
 62
     7
100
AcDbLine
 10
13196.95938301894
 20
14455.1907101193
 30
0.0
 11
13271.95839325965
 21
14455.1907101193
 31
0.0
  0
LINE
  5
116
330
22
100
AcDbEntity
  8
_0-0_
  6
Continuous
 62
     7
100
AcDbLine
 10
13271.95839325965
 20
14605.19120499894
 30
0.0
 11
13271.95839325965
 21
14455.1907101193
 31
0.0
  0
LINE
  5
117
330
22
100
AcDbEntity
  8
_0-0_
  6
Continuous
 62
     7
100
AcDbLine
 10
13016.56585472503
 20
14630.19128747888
 30
0.0
 11
13452.34697275712
 21
14630.19128747888
 31
0.0
  0
LINE
  5
118
330
22
100
AcDbEntity
  8
_0-0_
  6
Continuous
 62
     7
100
AcDbLine
 10
13016.56585472503
 20
14630.19128747888
 30
0.0
 11
13016.56585472503
 21
14530.19095755912
 31
0.0
  0
LINE
  5
119
330
22
100
AcDbEntity
  8
_0-0_
  6
Continuous
 62
     7
100
AcDbLine
 10
13016.56585472503
 20
14530.19095755912
 30
0.0
 11
13196.95938301894
 21
14530.19095755912
 31
0.0
  0
LINE
  5
11A
330
22
100
AcDbEntity
  8
_0-0_
  6
Continuous
 62
     7
100
AcDbLine
 10
13452.34697275712
 20
14630.19128747888
 30
0.0
 11
13452.34697275712
 21
14530.19095755912
 31
0.0
  0
LINE
  5
11B
330
22
100
AcDbEntity
  8
_0-0_
  6
Continuous
 62
     7
100
AcDbLine
 10
13452.34697275712
 20
14530.19095755912
 30
0.0
 11
13271.95839325965
 21
14530.19095755912
 31
0.0
  0
LINE
  5
11C
330
22
100
AcDbEntity
  8
_0-0_
  6
Continuous
 62
     7
100
AcDbLine
 10
13452.34202396067
 20
14630.19128747888
 30
0.0
 11
13452.34202396067
 21
14530.19095755912
 31
0.0
  0
LINE
  5
11D
330
22
100
AcDbEntity
  8
_0-2_
  6
Continuous
 62
     7
100
AcDbLine
 10
18822.45673706244
 20
23546.06174778294
 30
0.0
 11
19022.45615970285
 21
23546.06174778294
 31
0.0
  0
LINE
  5
11E
330
22
100
AcDbEntity
  8
_0-2_
  6
Continuous
 62
     7
100
AcDbLine
 10
19072.45632466273
 20
23526.05871252112
 30
0.0
 11
19209.45633126113
 21
23526.05871252112
 31
0.0
  0
LINE
  5
11F
330
22
100
AcDbEntity
  8
_0-2_
  6
Continuous
 62
     7
100
AcDbLine
 10
13446.45666777929
 20
23546.06174778294
 30
0.0
 11
13646.4560904197
 21
23546.06174778294
 31
0.0
  0
LINE
  5
120
330
22
100
AcDbEntity
  8
_0-2_
  6
Continuous
 62
     7
100
AcDbLine
 10
19259.45649622101
 20
23466.05950432855
 30
0.0
 11
19209.45633126113
 21
23466.05950432855
 31
0.0
  0
LINE
  5
121
330
22
100
AcDbEntity
  8
_0-0_
  6
Continuous
 62
     7
100
AcDbLine
 10
25072.45756186185
 20
23531.50486301732
 30
0.0
 11
25072.45756186185
 21
23631.50519293708
 31
0.0
  0
LINE
  5
122
330
22
100
AcDbEntity
  8
_0-0_
  6
Continuous
 62
     7
100
AcDbLine
 10
25072.45756186185
 20
23631.50519293708
 30
0.0
 11
25396.4552656203
 21
23631.50519293708
 31
0.0
  0
LINE
  5
123
330
22
100
AcDbEntity
  8
_0-0_
  6
Continuous
 62
     7
100
AcDbLine
 10
25396.4552656203
 20
23631.50519293708
 30
0.0
 11
25396.4552656203
 21
23531.50486301732
 31
0.0
  0
LINE
  5
124
330
22
100
AcDbEntity
  8
_0-B_
  6
Continuous
 62
     3
100
AcDbLine
 10
13437.92741709306
 20
9681.121413772171
 30
0.0
 11
19030.98541038908
 21
9681.121413772171
 31
0.0
  0
LINE
  5
125
330
22
100
AcDbEntity
  8
_0-0_
  6
Continuous
 62
     7
100
AcDbLine
 10
13196.64884604154
 20
9906.216183224239
 30
0.0
 11
13271.64290748579
 21
9906.216183224239
 31
0.0
  0
LINE
  5
126
330
22
100
AcDbEntity
  8
_0-0_
  6
Continuous
 62
     7
100
AcDbLine
 10
13196.64884604154
 20
9906.216183224239
 30
0.0
 11
13196.64884604154
 21
9756.215688344596
 31
0.0
  0
LINE
  5
127
330
22
100
AcDbEntity
  8
_0-0_
  6
Continuous
 62
     7
100
AcDbLine
 10
13196.64884604154
 20
9756.215688344596
 30
0.0
 11
13271.64290748579
 21
9756.215688344596
 31
0.0
  0
LINE
  5
128
330
22
100
AcDbEntity
  8
_0-0_
  6
Continuous
 62
     7
100
AcDbLine
 10
12984.86015305167
 20
9831.214698585304
 30
0.0
 11
13196.64884604154
 21
9831.214698585304
 31
0.0
  0
LINE
  5
129
330
22
100
AcDbEntity
  8
_0-0_
  6
Continuous
 62
     7
100
AcDbLine
 10
12984.86015305167
 20
9931.21502850507
 30
0.0
 11
12984.86015305167
 21
9831.214698585304
 31
0.0
  0
LINE
  5
12A
330
22
100
AcDbEntity
  8
_0-0_
  6
Continuous
 62
     7
100
AcDbLine
 10
12984.86015305167
 20
9931.21502850507
 30
0.0
 11
13482.68928100775
 21
9931.21502850507
 31
0.0
  0
LINE
  5
12B
330
22
100
AcDbEntity
  8
_0-0_
  6
Continuous
 62
     7
100
AcDbLine
 10
13451.28916751535
 20
9831.214698585304
 30
0.0
 11
13482.68928100775
 21
9831.214698585304
 31
0.0
  0
LINE
  5
12C
330
22
100
AcDbEntity
  8
_0-0_
  6
Continuous
 62
     7
100
AcDbLine
 10
13482.68928100775
 20
9931.21502850507
 30
0.0
 11
13482.68928100775
 21
9831.214698585304
 31
0.0
  0
LINE
  5
12D
330
22
100
AcDbEntity
  8
_0-2_
  6
Continuous
 62
     7
100
AcDbLine
 10
13031.98877886987
 20
9831.214698585304
 30
0.0
 11
13028.48255658313
 21
9306.121413772171
 31
0.0
  0
LINE
  5
12E
330
22
100
AcDbEntity
  8
_0-2_
  6
Continuous
 62
     7
100
AcDbLine
 10
13436.92528581139
 20
9831.214698585304
 30
0.0
 11
13440.43027089901
 21
9306.121413772171
 31
0.0
  0
LINE
  5
12F
330
22
100
AcDbEntity
  8
_0-2_
  6
Continuous
 62
     7
100
AcDbLine
 10
13058.90033397967
 20
13862.1640592008
 30
0.0
 11
13032.65562919187
 21
9931.21502850507
 31
0.0
  0
LINE
  5
130
330
22
100
AcDbEntity
  8
_0-2_
  6
Continuous
 62
     7
100
AcDbLine
 10
19031.98754167076
 20
9831.214698585304
 30
0.0
 11
19028.48131938402
 21
9306.121413772171
 31
0.0
  0
LINE
  5
131
330
22
100
AcDbEntity
  8
_0-2_
  6
Continuous
 62
     7
100
AcDbLine
 10
19031.98630447165
 20
9831.214698585304
 30
0.0
 11
19028.48131938402
 21
9306.121413772171
 31
0.0
  0
LINE
  5
132
330
22
100
AcDbEntity
  8
_0-2_
  6
Continuous
 62
     7
100
AcDbLine
 10
19032.82141387304
 20
9956.121083852409
 30
0.0
 11
19032.65562919187
 21
9931.21502850507
 31
0.0
  0
LINE
  5
133
330
22
100
AcDbEntity
  8
_0-2_
  6
Continuous
 62
     7
100
AcDbLine
 10
19436.92652301049
 20
9831.214698585304
 30
0.0
 11
19440.43150809812
 21
9306.121413772171
 31
0.0
  0
LINE
  5
134
330
22
100
AcDbEntity
  8
_0-2_
  6
Continuous
 62
     7
100
AcDbLine
 10
19436.92528581139
 20
9831.214698585304
 30
0.0
 11
19440.43150809812
 21
9306.121413772171
 31
0.0
  0
LINE
  5
135
330
22
100
AcDbEntity
  8
_0-2_
  6
Continuous
 62
     7
100
AcDbLine
 10
19436.0914136091
 20
9956.121083852409
 30
0.0
 11
19436.25719829027
 21
9931.21502850507
 31
0.0
  0
LINE
  5
136
330
22
100
AcDbEntity
  8
_0-0_
  6
Continuous
 62
     7
100
AcDbLine
 10
25197.13753969125
 20
9906.218657622467
 30
0.0
 11
25272.1316011355
 21
9906.218657622467
 31
0.0
  0
LINE
  5
137
330
22
100
AcDbEntity
  8
_0-0_
  6
Continuous
 62
     7
100
AcDbLine
 10
25197.13753969125
 20
9906.218657622467
 30
0.0
 11
25197.13753969125
 21
9756.21816274282
 31
0.0
  0
LINE
  5
138
330
22
100
AcDbEntity
  8
_0-0_
  6
Continuous
 62
     7
100
AcDbLine
 10
25197.13753969125
 20
9756.21816274282
 30
0.0
 11
25272.1316011355
 21
9756.21816274282
 31
0.0
  0
LINE
  5
139
330
22
100
AcDbEntity
  8
_0-0_
  6
Continuous
 62
     7
100
AcDbLine
 10
25272.1316011355
 20
9906.218657622467
 30
0.0
 11
25272.1316011355
 21
9756.21816274282
 31
0.0
  0
LINE
  5
13A
330
22
100
AcDbEntity
  8
_0-0_
  6
Continuous
 62
     7
100
AcDbLine
 10
25483.17797465746
 20
9831.217172983532
 30
0.0
 11
25272.1316011355
 21
9831.217172983532
 31
0.0
  0
LINE
  5
13B
330
22
100
AcDbEntity
  8
_0-0_
  6
Continuous
 62
     7
100
AcDbLine
 10
24985.35379549783
 20
9931.217502903296
 30
0.0
 11
24985.35379549783
 21
9831.217172983532
 31
0.0
  0
LINE
  5
13C
330
22
100
AcDbEntity
  8
_0-0_
  6
Continuous
 62
     7
100
AcDbLine
 10
25197.13753969125
 20
9831.217172983532
 30
0.0
 11
24985.35379549783
 21
9831.217172983532
 31
0.0
  0
LINE
  5
13D
330
22
100
AcDbEntity
  8
_0-0_
  6
Continuous
 62
     7
100
AcDbLine
 10
24985.35379549783
 20
9931.217502903296
 30
0.0
 11
25483.17797465746
 21
9931.217502903296
 31
0.0
  0
LINE
  5
13E
330
22
100
AcDbEntity
  8
_0-0_
  6
Continuous
 62
     7
100
AcDbLine
 10
25483.17797465746
 20
9931.217502903296
 30
0.0
 11
25483.17797465746
 21
9831.217172983532
 31
0.0
  0
LINE
  5
13F
330
22
100
AcDbEntity
  8
_0-2_
  6
Continuous
 62
     7
100
AcDbLine
 10
25032.8177022757
 20
9956.122321051521
 30
0.0
 11
25032.65439199276
 21
9931.217502903296
 31
0.0
  0
LINE
  5
140
330
22
100
AcDbEntity
  8
_0-2_
  6
Continuous
 62
     7
100
AcDbLine
 10
25436.09017641
 20
9956.122321051521
 30
0.0
 11
25436.25348669293
 21
9931.217502903296
 31
0.0
  0
LINE
  5
141
330
22
100
AcDbEntity
  8
_0-2_
  6
Continuous
 62
     7
100
AcDbLine
 10
25031.97640687874
 20
9829.660776499157
 30
0.0
 11
25028.48255658313
 21
9306.121413772171
 31
0.0
  0
LINE
  5
142
330
22
100
AcDbEntity
  8
_0-2_
  6
Continuous
 62
     7
100
AcDbLine
 10
25031.98630447165
 20
9831.217172983532
 30
0.0
 11
25028.48255658313
 21
9306.121413772171
 31
0.0
  0
LINE
  5
143
330
22
100
AcDbEntity
  8
_0-2_
  6
Continuous
 62
     7
100
AcDbLine
 10
25436.9265230105
 20
9831.217172983532
 30
0.0
 11
25440.43027089901
 21
9306.121413772171
 31
0.0
  0
LINE
  5
144
330
22
100
AcDbEntity
  8
_0-2_
  6
Continuous
 62
     7
100
AcDbLine
 10
25436.92157421404
 20
9831.217172983532
 30
0.0
 11
25440.43027089901
 21
9306.121413772171
 31
0.0
  0
LINE
  5
145
330
22
100
AcDbEntity
  8
_0-0_
  6
Continuous
 62
     7
100
AcDbLine
 10
31197.13506529301
 20
9906.218657622467
 30
0.0
 11
31272.12912673728
 21
9906.218657622467
 31
0.0
  0
LINE
  5
146
330
22
100
AcDbEntity
  8
_0-0_
  6
Continuous
 62
     7
100
AcDbLine
 10
31197.13506529301
 20
9906.218657622467
 30
0.0
 11
31197.13506529301
 21
9756.21816274282
 31
0.0
  0
LINE
  5
147
330
22
100
AcDbEntity
  8
_0-0_
  6
Continuous
 62
     7
100
AcDbLine
 10
31197.13506529301
 20
9756.21816274282
 30
0.0
 11
31272.12912673728
 21
9756.21816274282
 31
0.0
  0
LINE
  5
148
330
22
100
AcDbEntity
  8
_0-0_
  6
Continuous
 62
     7
100
AcDbLine
 10
31272.12912673728
 20
9906.218657622467
 30
0.0
 11
31272.12912673728
 21
9756.21816274282
 31
0.0
  0
LINE
  5
149
330
22
100
AcDbEntity
  8
_0-0_
  6
Continuous
 62
     7
100
AcDbLine
 10
30985.35132109962
 20
9931.217502903296
 30
0.0
 11
30985.35132109962
 21
9831.217172983532
 31
0.0
  0
LINE
  5
14A
330
22
100
AcDbEntity
  8
_0-0_
  6
Continuous
 62
     7
100
AcDbLine
 10
31197.13506529301
 20
9831.217172983532
 30
0.0
 11
30985.35132109962
 21
9831.217172983532
 31
0.0
  0
LINE
  5
14B
330
22
100
AcDbEntity
  8
_0-0_
  6
Continuous
 62
     7
100
AcDbLine
 10
31272.12912673728
 20
9831.217172983532
 30
0.0
 11
31483.17550025924
 21
9831.217172983532
 31
0.0
  0
LINE
  5
14C
330
22
100
AcDbEntity
  8
_0-2_
  6
Continuous
 62
     7
100
AcDbLine
 10
31032.82017667392
 20
9956.122321051521
 30
0.0
 11
31032.656866391
 21
9931.217502903296
 31
0.0
  0
LINE
  5
14D
330
22
100
AcDbEntity
  8
_0-0_
  6
Continuous
 62
     7
100
AcDbLine
 10
30985.35132109962
 20
9931.217502903296
 30
0.0
 11
31483.17550025924
 21
9931.217502903296
 31
0.0
  0
LINE
  5
14E
330
22
100
AcDbEntity
  8
_0-3_
  6
Continuous
 62
     6
100
AcDbLine
 10
19184.53048072798
 20
10082.20775707348
 30
0.0
 11
19184.53048072798
 21
10285.9546558277
 31
0.0
  0
LINE
  5
14F
330
22
100
AcDbEntity
  8
_0-3_
  6
Continuous
 62
     6
100
AcDbLine
 10
19284.53081064774
 20
10076.72449060388
 30
0.0
 11
19284.53081064774
 21
10281.23350401182
 31
0.0
  0
LINE
  5
150
330
22
100
AcDbEntity
  8
_0-3_
  6
Continuous
 62
     6
100
AcDbLine
 10
25184.52800632976
 20
10082.20651987437
 30
0.0
 11
25184.52800632976
 21
10285.9546558277
 31
0.0
  0
LINE
  5
151
330
22
100
AcDbEntity
  8
_0-3_
  6
Continuous
 62
     6
100
AcDbLine
 10
25284.52833624952
 20
10076.72201620566
 30
0.0
 11
25284.52833624952
 21
10281.23226681271
 31
0.0
  0
LINE
  5
152
330
22
100
AcDbEntity
  8
_0-2_
  6
Continuous
 62
     7
100
AcDbLine
 10
31032.00857405568
 20
9831.217172983532
 30
0.0
 11
31028.6384436714
 21
9306.121413772171
 31
0.0
  0
LINE
  5
153
330
22
100
AcDbEntity
  8
_0-2_
  6
Continuous
 62
     7
100
AcDbLine
 10
31436.89930463001
 20
9831.217172983532
 30
0.0
 11
31440.27438381076
 21
9306.121413772171
 31
0.0
  0
LINE
  5
154
330
22
100
AcDbEntity
  8
_0-0_
  6
Continuous
 62
     7
100
AcDbLine
 10
25196.95443422249
 20
19105.34090609164
 30
0.0
 11
25271.9534444632
 21
19105.34090609164
 31
0.0
  0
LINE
  5
155
330
22
100
AcDbEntity
  8
_0-0_
  6
Continuous
 62
     7
100
AcDbLine
 10
25196.95443422249
 20
19105.34090609164
 30
0.0
 11
25196.95443422249
 21
18955.33917401288
 31
0.0
  0
LINE
  5
156
330
22
100
AcDbEntity
  8
_0-0_
  6
Continuous
 62
     7
100
AcDbLine
 10
25196.95443422249
 20
18955.33917401288
 30
0.0
 11
25271.9534444632
 21
18955.33917401288
 31
0.0
  0
LINE
  5
157
330
22
100
AcDbEntity
  8
_0-0_
  6
Continuous
 62
     7
100
AcDbLine
 10
25271.9534444632
 20
19105.34090609164
 30
0.0
 11
25271.9534444632
 21
18955.33917401288
 31
0.0
  0
LINE
  5
158
330
22
100
AcDbEntity
  8
_0-0_
  6
Continuous
 62
     7
100
AcDbLine
 10
25043.95744309074
 20
19030.33818425359
 30
0.0
 11
25196.95443422249
 21
19030.33818425359
 31
0.0
  0
LINE
  5
159
330
22
100
AcDbEntity
  8
_0-0_
  6
Continuous
 62
     7
100
AcDbLine
 10
25043.95744309074
 20
19130.34098857158
 30
0.0
 11
25424.95538439141
 21
19130.34098857158
 31
0.0
  0
LINE
  5
15A
330
22
100
AcDbEntity
  8
_0-0_
  6
Continuous
 62
     7
100
AcDbLine
 10
25424.95538439141
 20
19030.33818425359
 30
0.0
 11
25271.9534444632
 21
19030.33818425359
 31
0.0
  0
LINE
  5
15B
330
22
100
AcDbEntity
  8
_0-0_
  6
Continuous
 62
     7
100
AcDbLine
 10
25043.95744309074
 20
19130.34098857158
 30
0.0
 11
25043.95744309074
 21
19030.33818425359
 31
0.0
  0
LINE
  5
15C
330
22
100
AcDbEntity
  8
_0-0_
  6
Continuous
 62
     7
100
AcDbLine
 10
25424.95538439141
 20
19130.34098857158
 30
0.0
 11
25424.95538439141
 21
19030.33818425359
 31
0.0
  0
LINE
  5
15D
330
22
100
AcDbEntity
  8
_0-2_
  6
Continuous
 62
     7
100
AcDbLine
 10
19346.45881225775
 20
23381.12331081081
 30
0.0
 11
19373.50274767266
 21
19330.62867860536
 31
0.0
  0
LINE
  5
15E
330
22
100
AcDbEntity
  8
_0-0_
  6
CENTER1
 62
     4
100
AcDbLine
 10
13234.45641374107
 20
23416.05933936866
 30
0.0
 11
13234.45641374107
 21
24681.12265097128
 31
0.0
  0
LINE
  5
15F
330
22
100
AcDbEntity
  8
_0-2_
  6
Continuous
 62
     7
100
AcDbLine
 10
13124.45704058862
 20
23681.12430057009
 30
0.0
 11
13124.08959245201
 21
23626.05904244088
 31
0.0
  0
LINE
  5
160
330
22
100
AcDbEntity
  8
_0-2_
  6
Continuous
 62
     7
100
AcDbLine
 10
13344.45578689352
 20
23681.12430057009
 30
0.0
 11
13344.82323503013
 21
23626.05904244088
 31
0.0
  0
LINE
  5
161
330
22
100
AcDbEntity
  8
_0-0_
  6
CENTER1
 62
     4
100
AcDbLine
 10
25234.45641374108
 20
24681.12265097128
 30
0.0
 11
25234.45641374108
 21
23406.50073902027
 31
0.0
  0
LINE
  5
162
330
22
100
AcDbEntity
  8
_0-2_
  6
Continuous
 62
     7
100
AcDbLine
 10
13094.07637916548
 20
19130.92123495566
 30
0.0
 11
13123.42026773178
 21
23526.05871252112
 31
0.0
  0
LINE
  5
163
330
22
100
AcDbEntity
  8
_0-2_
  6
Continuous
 62
     7
100
AcDbLine
 10
13345.49255975036
 20
23526.05871252112
 30
0.0
 11
13374.83768551577
 21
19130.92123495566
 31
0.0
  0
LINE
  5
164
330
22
100
AcDbEntity
  8
_0-2_
  6
Continuous
 62
     7
100
AcDbLine
 10
19344.45578689352
 20
23681.12430057009
 30
0.0
 11
19344.82323503013
 21
23626.05904244088
 31
0.0
  0
LINE
  5
165
330
22
100
AcDbEntity
  8
_0-2_
  6
Continuous
 62
     7
100
AcDbLine
 10
19124.45704058862
 20
23681.12430057009
 30
0.0
 11
19124.08959245201
 21
23626.05904244088
 31
0.0
  0
LINE
  5
166
330
22
100
AcDbEntity
  8
_0-2_
  6
Continuous
 62
     7
100
AcDbLine
 10
19344.45578689352
 20
23681.12430057009
 30
0.0
 11
19344.82447222925
 21
23626.05904244088
 31
0.0
  0
LINE
  5
167
330
22
100
AcDbEntity
  8
_0-3_
  6
Continuous
 62
     6
100
AcDbLine
 10
31234.45393934284
 20
14605.19120499894
 30
0.0
 11
31234.45393934284
 21
23452.91550095017
 31
0.0
  0
LINE
  5
168
330
22
100
AcDbEntity
  8
_0-2_
  6
Continuous
 62
     7
100
AcDbLine
 10
19345.49132255125
 20
23526.05871252112
 30
0.0
 11
19374.83521111755
 21
19130.92247215477
 31
0.0
  0
LINE
  5
169
330
22
100
AcDbEntity
  8
_0-2_
  6
Continuous
 62
     7
100
AcDbLine
 10
19094.07637916548
 20
19130.92247215477
 30
0.0
 11
19123.42026773178
 21
23526.05871252112
 31
0.0
  0
LINE
  5
16A
330
22
100
AcDbEntity
  8
ADD_LINE
  6
DOT
 62
     7
100
AcDbLine
 10
13211.35914349719
 20
14481.12364073057
 30
0.0
 11
13259.40948265472
 21
14481.12364073057
 31
0.0
  0
LINE
  5
16B
330
22
100
AcDbEntity
  8
_0-2_
  6
Continuous
 62
     7
100
AcDbLine
 10
13058.90033397967
 20
13862.1640592008
 30
0.0
 11
13063.36043678267
 21
14530.19095755912
 31
0.0
  0
LINE
  5
16C
330
22
100
AcDbEntity
  8
_0-2_
  6
Continuous
 62
     7
100
AcDbLine
 10
13375.50453583778
 20
19030.922142235
 30
0.0
 11
13404.88554037747
 21
14630.19128747888
 31
0.0
  0
LINE
  5
16D
330
22
100
AcDbEntity
  8
_0-2_
  6
Continuous
 62
     7
100
AcDbLine
 10
13064.02852430378
 20
14630.19128747888
 30
0.0
 11
13093.40829164437
 21
19030.922142235
 31
0.0
  0
LINE
  5
16E
330
22
100
AcDbEntity
  8
_0-2_
  6
Continuous
 62
     7
100
AcDbLine
 10
19375.50329863866
 20
19030.91966783678
 30
0.0
 11
19404.88554037748
 21
14630.19128747888
 31
0.0
  0
LINE
  5
16F
330
22
100
AcDbEntity
  8
_0-2_
  6
Continuous
 62
     7
100
AcDbLine
 10
19404.20879246256
 20
14731.45974648965
 30
0.0
 11
19404.88430317835
 21
14630.19128747888
 31
0.0
  0
LINE
  5
170
330
22
100
AcDbEntity
  8
_0-2_
  6
Continuous
 62
     7
100
AcDbLine
 10
19064.02728710467
 20
14630.19128747888
 30
0.0
 11
19093.40829164437
 21
19030.91966783678
 31
0.0
  0
LINE
  5
171
330
22
100
AcDbEntity
  8
_0-2_
  6
Continuous
 62
     7
100
AcDbLine
 10
19064.70403501957
 20
14731.45974648965
 30
0.0
 11
19064.02852430379
 21
14630.19128747888
 31
0.0
  0
LINE
  5
172
330
22
100
AcDbEntity
  8
_0-2_
  6
Continuous
 62
     7
100
AcDbLine
 10
19063.36043678267
 20
14530.19095755912
 30
0.0
 11
19033.48950139416
 21
10056.12141377217
 31
0.0
  0
LINE
  5
173
330
22
100
AcDbEntity
  8
_0-2_
  6
Continuous
 62
     7
100
AcDbLine
 10
19405.55239069948
 20
14530.19095755912
 30
0.0
 11
19435.42332608799
 21
10056.12141377217
 31
0.0
  0
LINE
  5
174
330
22
100
AcDbEntity
  8
_0-2_
  6
Continuous
 62
     7
100
AcDbLine
 10
19063.36043678267
 20
14530.19095755912
 30
0.0
 11
19032.65439199276
 21
9931.21502850507
 31
0.0
  0
LINE
  5
175
330
22
100
AcDbEntity
  8
_0-2_
  6
Continuous
 62
     7
100
AcDbLine
 10
19405.55239069948
 20
14530.19095755912
 30
0.0
 11
19436.25843548938
 21
9931.21502850507
 31
0.0
  0
LINE
  5
176
330
22
100
AcDbEntity
  8
_0-2_
  6
Continuous
 62
     7
100
AcDbLine
 10
25405.55115350037
 20
14530.19095755912
 30
0.0
 11
25436.25843548939
 21
9931.217502903296
 31
0.0
  0
LINE
  5
177
330
22
100
AcDbEntity
  8
_0-2_
  6
Continuous
 62
     7
100
AcDbLine
 10
31032.656866391
 20
9931.217502903296
 30
0.0
 11
31063.37404597291
 21
14530.19095755912
 31
0.0
  0
LINE
  5
178
330
22
100
AcDbEntity
  8
_0-2_
  6
Continuous
 62
     7
100
AcDbLine
 10
31405.53878150924
 20
14530.19095755912
 30
0.0
 11
31436.2312171089
 21
9931.217502903296
 31
0.0
  0
LINE
  5
179
330
22
100
AcDbEntity
  8
_0-2_
  6
Continuous
 62
     7
100
AcDbLine
 10
25375.507010236
 20
19030.33818425359
 30
0.0
 11
25404.88306597925
 21
14630.19128747888
 31
0.0
  0
LINE
  5
17A
330
22
100
AcDbEntity
  8
_0-2_
  6
Continuous
 62
     7
100
AcDbLine
 10
25093.40581724614
 20
19030.33818425359
 30
0.0
 11
25064.02976150289
 21
14630.19128747888
 31
0.0
  0
LINE
  5
17B
330
22
100
AcDbEntity
  8
_0-2_
  6
Continuous
 62
     7
100
AcDbLine
 10
31064.04213349402
 20
14630.19128747888
 30
0.0
 11
31093.41324044082
 21
19030.33818425359
 31
0.0
  0
LINE
  5
17C
330
22
100
AcDbEntity
  8
_0-2_
  6
Continuous
 62
     7
100
AcDbLine
 10
31375.49958704133
 20
19030.33818425359
 30
0.0
 11
31404.87069398812
 21
14630.19128747888
 31
0.0
  0
LINE
  5
17D
330
22
100
AcDbEntity
  8
_0-9_
  6
Continuous
 62
     4
100
AcDbLine
 10
9734.457238540478
 20
23681.12430057009
 30
0.0
 11
9734.457238540478
 21
6681.123269570841
 31
0.0
  0
LINE
  5
17E
330
22
100
AcDbEntity
  8
_0-9_
  6
Continuous
 62
     4
100
AcDbLine
 10
12734.45600134136
 20
23681.12430057009
 30
0.0
 11
8734.456413741074
 21
23681.12430057009
 31
0.0
  0
LINE
  5
17F
330
22
100
AcDbEntity
  8
_0-9_
  6
Continuous
 62
     4
100
AcDbLine
 10
12729.95012217118
 20
23481.12364073058
 30
0.0
 11
9734.457238540478
 21
23481.12364073058
 31
0.0
  0
LINE
  5
180
330
22
100
AcDbEntity
  8
_0-9_
  6
Continuous
 62
     4
100
AcDbLine
 10
12729.95012217118
 20
18981.12364073057
 30
0.0
 11
9734.457238540478
 21
18981.12364073057
 31
0.0
  0
LINE
  5
181
330
22
100
AcDbEntity
  8
_0-9_
  6
Continuous
 62
     4
100
AcDbLine
 10
12729.95012217118
 20
14481.12364073057
 30
0.0
 11
9734.457238540478
 21
14481.12364073057
 31
0.0
  0
LINE
  5
182
330
22
100
AcDbEntity
  8
_0-9_
  6
Continuous
 62
     4
100
AcDbLine
 10
12729.95012217118
 20
9681.121413772171
 30
0.0
 11
9734.457238540478
 21
9681.121413772171
 31
0.0
  0
LINE
  5
183
330
22
100
AcDbEntity
  8
_0-9_
  6
Continuous
 62
     4
100
AcDbLine
 10
12729.95012217118
 20
9681.122650971284
 30
0.0
 11
9734.457238540478
 21
9681.122650971284
 31
0.0
  0
LINE
  5
184
330
22
100
AcDbEntity
  8
_0-9_
  6
Continuous
 62
     4
100
AcDbLine
 10
10534.45616630125
 20
9781.12050649282
 30
0.0
 11
9734.457238540478
 21
9781.12050649282
 31
0.0
  0
LINE
  5
185
330
22
100
AcDbEntity
  8
_0-9_
  6
Continuous
 62
     4
100
AcDbLine
 10
10534.45616630125
 20
9281.120712692674
 30
0.0
 11
9734.457238540478
 21
9281.120712692674
 31
0.0
  0
LINE
  5
186
330
22
100
AcDbEntity
  8
_0-9_
  6
Continuous
 62
     4
100
AcDbLine
 10
12216.43702105737
 20
9681.123888170397
 30
0.0
 11
9234.455588941662
 21
9681.123888170397
 31
0.0
  0
LINE
  5
187
330
22
100
AcDbEntity
  8
_0-9_
  6
Continuous
 62
     4
100
AcDbLine
 10
9234.455588941662
 20
6681.123269570841
 30
0.0
 11
9234.455588941662
 21
9681.121413772171
 31
0.0
  0
LINE
  5
188
330
22
100
AcDbEntity
  8
_0-9_
  6
Continuous
 62
     4
100
AcDbLine
 10
12734.45600134136
 20
6681.123269570841
 30
0.0
 11
8734.456413741074
 21
6681.123269570841
 31
0.0
  0
LINE
  5
189
330
22
100
AcDbEntity
  8
ADD_LINE
  6
DOT
 62
     3
100
AcDbLine
 10
38234.45723854048
 20
5798.311181970545
 30
0.0
 11
38234.45723854048
 21
24682.9833984375
 31
0.0
  0
LINE
  5
18A
330
22
100
AcDbEntity
  8
_0-2_
  6
Continuous
 62
     7
100
AcDbLine
 10
38457.95478393744
 20
6681.122032371729
 30
0.0
 11
38010.95474434707
 21
6681.122032371729
 31
0.0
  0
LINE
  5
18B
330
22
100
AcDbEntity
  8
_0-2_
  6
Continuous
 62
     7
100
AcDbLine
 10
38344.4541372947
 20
23681.12430057009
 30
0.0
 11
38124.45539098982
 21
23681.12430057009
 31
0.0
  0
LINE
  5
18C
330
22
100
AcDbEntity
  8
_0-2_
  6
Continuous
 62
     7
100
AcDbLine
 10
38440.59440598136
 20
9181.120382772908
 30
0.0
 11
38457.95478393744
 21
6681.122032371729
 31
0.0
  0
LINE
  5
18D
330
22
100
AcDbEntity
  8
_0-2_
  6
Continuous
 62
     7
100
AcDbLine
 10
38440.59440598136
 20
9256.121867411847
 30
0.0
 11
38440.59440598136
 21
9181.120382772908
 31
0.0
  0
LINE
  5
18E
330
22
100
AcDbEntity
  8
_0-0_
  6
CENTER1
 62
     4
100
AcDbLine
 10
38234.45723854048
 20
24681.12265097128
 30
0.0
 11
38234.45723854048
 21
5681.12120757232
 31
0.0
  0
LINE
  5
18F
330
22
100
AcDbEntity
  8
_0-0_
  6
Continuous
 62
     7
100
AcDbLine
 10
38016.55678193153
 20
14630.19128747888
 30
0.0
 11
38452.33789996363
 21
14630.19128747888
 31
0.0
  0
LINE
  5
190
330
22
100
AcDbEntity
  8
_0-0_
  6
Continuous
 62
     7
100
AcDbLine
 10
38016.55678193153
 20
14630.19128747888
 30
0.0
 11
38016.55678193153
 21
14530.19095755912
 31
0.0
  0
LINE
  5
191
330
22
100
AcDbEntity
  8
_0-0_
  6
Continuous
 62
     7
100
AcDbLine
 10
38016.55678193153
 20
14530.19095755912
 30
0.0
 11
38196.95031022545
 21
14530.19095755912
 31
0.0
  0
LINE
  5
192
330
22
100
AcDbEntity
  8
_0-0_
  6
Continuous
 62
     7
100
AcDbLine
 10
38452.33789996363
 20
14630.19128747888
 30
0.0
 11
38452.33789996363
 21
14530.19095755912
 31
0.0
  0
LINE
  5
193
330
22
100
AcDbEntity
  8
_0-0_
  6
Continuous
 62
     7
100
AcDbLine
 10
38452.33789996363
 20
14530.19095755912
 30
0.0
 11
38271.94932046616
 21
14530.19095755912
 31
0.0
  0
LINE
  5
194
330
22
100
AcDbEntity
  8
_0-0_
  6
Continuous
 62
     7
100
AcDbLine
 10
38452.33295116717
 20
14630.19128747888
 30
0.0
 11
38452.33295116717
 21
14530.19095755912
 31
0.0
  0
LINE
  5
195
330
22
100
AcDbEntity
  8
_0-0_
  6
Continuous
 62
     7
100
AcDbLine
 10
38072.45838666128
 20
23502.4133630701
 30
0.0
 11
38072.45838666128
 21
23602.41369298987
 31
0.0
  0
LINE
  5
196
330
22
100
AcDbEntity
  8
_0-0_
  6
Continuous
 62
     7
100
AcDbLine
 10
38072.45838666128
 20
23602.41369298987
 30
0.0
 11
38396.4560904197
 21
23602.41369298987
 31
0.0
  0
LINE
  5
197
330
22
100
AcDbEntity
  8
_0-0_
  6
Continuous
 62
     7
100
AcDbLine
 10
38396.4560904197
 20
23602.41369298987
 30
0.0
 11
38396.4560904197
 21
23502.4133630701
 31
0.0
  0
LINE
  5
198
330
22
100
AcDbEntity
  8
_0-0_
  6
Continuous
 62
     7
100
AcDbLine
 10
38072.45838666128
 20
23502.4133630701
 30
0.0
 11
38196.9552590219
 21
23502.4133630701
 31
0.0
  0
LINE
  5
199
330
22
100
AcDbEntity
  8
_0-0_
  6
Continuous
 62
     7
100
AcDbLine
 10
38396.4560904197
 20
23502.4133630701
 30
0.0
 11
38271.95426926261
 21
23502.4133630701
 31
0.0
  0
LINE
  5
19A
330
22
100
AcDbEntity
  8
_0-0_
  6
Continuous
 62
     7
100
AcDbLine
 10
38483.17879945687
 20
9831.217172983532
 30
0.0
 11
38272.13242593492
 21
9831.217172983532
 31
0.0
  0
LINE
  5
19B
330
22
100
AcDbEntity
  8
_0-0_
  6
Continuous
 62
     7
100
AcDbLine
 10
37985.35462029724
 20
9931.217502903296
 30
0.0
 11
37985.35462029724
 21
9831.217172983532
 31
0.0
  0
LINE
  5
19C
330
22
100
AcDbEntity
  8
_0-0_
  6
Continuous
 62
     7
100
AcDbLine
 10
38197.13836449065
 20
9831.217172983532
 30
0.0
 11
37985.35462029724
 21
9831.217172983532
 31
0.0
  0
LINE
  5
19D
330
22
100
AcDbEntity
  8
_0-0_
  6
Continuous
 62
     7
100
AcDbLine
 10
37985.35462029724
 20
9931.217502903296
 30
0.0
 11
38483.17879945687
 21
9931.217502903296
 31
0.0
  0
LINE
  5
19E
330
22
100
AcDbEntity
  8
_0-0_
  6
Continuous
 62
     7
100
AcDbLine
 10
38483.17879945687
 20
9931.217502903296
 30
0.0
 11
38483.17879945687
 21
9831.217172983532
 31
0.0
  0
LINE
  5
19F
330
22
100
AcDbEntity
  8
_0-2_
  6
Continuous
 62
     7
100
AcDbLine
 10
38032.81852707511
 20
9956.122321051521
 30
0.0
 11
38032.65521679217
 21
9931.217502903296
 31
0.0
  0
LINE
  5
1A0
330
22
100
AcDbEntity
  8
_0-2_
  6
Continuous
 62
     7
100
AcDbLine
 10
38436.0910012094
 20
9956.122321051521
 30
0.0
 11
38436.25431149233
 21
9931.217502903296
 31
0.0
  0
LINE
  5
1A1
330
22
100
AcDbEntity
  8
_0-2_
  6
Continuous
 62
     7
100
AcDbLine
 10
38031.97723167815
 20
9829.660776499157
 30
0.0
 11
38028.48338138256
 21
9306.121413772171
 31
0.0
  0
LINE
  5
1A2
330
22
100
AcDbEntity
  8
_0-2_
  6
Continuous
 62
     7
100
AcDbLine
 10
38031.98712927107
 20
9831.217172983532
 30
0.0
 11
38028.48338138256
 21
9306.121413772171
 31
0.0
  0
LINE
  5
1A3
330
22
100
AcDbEntity
  8
_0-2_
  6
Continuous
 62
     7
100
AcDbLine
 10
38436.92734780992
 20
9831.217172983532
 30
0.0
 11
38440.43109569842
 21
9306.121413772171
 31
0.0
  0
LINE
  5
1A4
330
22
100
AcDbEntity
  8
_0-2_
  6
Continuous
 62
     7
100
AcDbLine
 10
38436.92239901345
 20
9831.217172983532
 30
0.0
 11
38440.43109569842
 21
9306.121413772171
 31
0.0
  0
LINE
  5
1A5
330
22
100
AcDbEntity
  8
_0-0_
  6
Continuous
 62
     7
100
AcDbLine
 10
38043.95826789015
 20
19030.33818425359
 30
0.0
 11
38196.9552590219
 21
19030.33818425359
 31
0.0
  0
LINE
  5
1A6
330
22
100
AcDbEntity
  8
_0-0_
  6
Continuous
 62
     7
100
AcDbLine
 10
38043.95826789015
 20
19130.34098857158
 30
0.0
 11
38424.95620919082
 21
19130.34098857158
 31
0.0
  0
LINE
  5
1A7
330
22
100
AcDbEntity
  8
_0-0_
  6
Continuous
 62
     7
100
AcDbLine
 10
38424.95620919082
 20
19030.33818425359
 30
0.0
 11
38271.95426926261
 21
19030.33818425359
 31
0.0
  0
LINE
  5
1A8
330
22
100
AcDbEntity
  8
_0-0_
  6
Continuous
 62
     7
100
AcDbLine
 10
38043.95826789015
 20
19130.34098857158
 30
0.0
 11
38043.95826789015
 21
19030.33818425359
 31
0.0
  0
LINE
  5
1A9
330
22
100
AcDbEntity
  8
_0-0_
  6
Continuous
 62
     7
100
AcDbLine
 10
38424.95620919082
 20
19130.34098857158
 30
0.0
 11
38424.95620919082
 21
19030.33818425359
 31
0.0
  0
LINE
  5
1AA
330
22
100
AcDbEntity
  8
_0-2_
  6
Continuous
 62
     7
100
AcDbLine
 10
38124.45539098982
 20
23681.12430057009
 30
0.0
 11
38123.93081856582
 21
23602.41369298987
 31
0.0
  0
LINE
  5
1AB
330
22
100
AcDbEntity
  8
_0-2_
  6
Continuous
 62
     7
100
AcDbLine
 10
38344.4541372947
 20
23681.12430057009
 30
0.0
 11
38344.98365851515
 21
23602.41369298987
 31
0.0
  0
LINE
  5
1AC
330
22
100
AcDbEntity
  8
_0-2_
  6
Continuous
 62
     7
100
AcDbLine
 10
38063.36249878119
 20
14530.19095755912
 30
0.0
 11
38033.48661459622
 21
10056.12141377217
 31
0.0
  0
LINE
  5
1AD
330
22
100
AcDbEntity
  8
_0-2_
  6
Continuous
 62
     7
100
AcDbLine
 10
38405.55197829976
 20
14530.19095755912
 30
0.0
 11
38436.2592602888
 21
9931.217502903296
 31
0.0
  0
LINE
  5
1AE
330
22
100
AcDbEntity
  8
_0-2_
  6
Continuous
 62
     7
100
AcDbLine
 10
38093.40664204554
 20
19030.33818425359
 30
0.0
 11
38064.03058630232
 21
14630.19128747888
 31
0.0
  0
LINE
  5
1AF
330
22
100
AcDbEntity
  8
_0-2_
  6
Continuous
 62
     7
100
AcDbLine
 10
38123.2627310447
 20
23502.4133630701
 30
0.0
 11
38094.07472956666
 21
19130.34098857158
 31
0.0
  0
LINE
  5
1B0
330
22
100
AcDbEntity
  8
_0-2_
  6
Continuous
 62
     7
100
AcDbLine
 10
38345.65174603627
 20
23502.4133630701
 30
0.0
 11
38374.83974751429
 21
19130.34098857158
 31
0.0
  0
LINE
  5
1B1
330
22
100
AcDbEntity
  8
_0-2_
  6
Continuous
 62
     7
100
AcDbLine
 10
25063.36167398178
 20
14530.19095755912
 30
0.0
 11
25032.65439199276
 21
9931.217502903296
 31
0.0
  0
LINE
  5
1B2
330
22
100
AcDbEntity
  8
_0-2_
  6
Continuous
 62
     7
100
AcDbLine
 10
38196.9552590219
 20
23502.4133630701
 30
0.0
 11
38271.95426926261
 21
23502.4133630701
 31
0.0
  0
LINE
  5
1B3
330
22
100
AcDbEntity
  8
_0-2_
  6
Continuous
 62
     7
100
AcDbLine
 10
38196.9552590219
 20
19030.33818425359
 30
0.0
 11
38271.95426926261
 21
19030.33818425359
 31
0.0
  0
LINE
  5
1B4
330
22
100
AcDbEntity
  8
_0-2_
  6
Continuous
 62
     7
100
AcDbLine
 10
38196.95031022545
 20
14530.19095755912
 30
0.0
 11
38271.94932046616
 21
14530.19095755912
 31
0.0
  0
LINE
  5
1B5
330
22
100
AcDbEntity
  8
_0-2_
  6
Continuous
 62
     7
100
AcDbLine
 10
38197.13836449065
 20
9831.217172983532
 30
0.0
 11
38272.13242593492
 21
9831.217172983532
 31
0.0
  0
LINE
  5
1B6
330
22
100
AcDbEntity
  8
_0-2_
  6
Continuous
 62
     7
100
AcDbLine
 10
38033.48661459622
 20
10056.12141377217
 30
0.0
 11
38033.48661459622
 21
9956.122321051521
 31
0.0
  0
LINE
  5
1B7
330
22
100
AcDbEntity
  8
_0-2_
  6
Continuous
 62
     7
100
AcDbLine
 10
38009.4552590219
 20
9306.121413772171
 30
0.0
 11
38009.4552590219
 21
9256.121867411847
 31
0.0
  0
LINE
  5
1B8
330
22
100
AcDbEntity
  8
_0-2_
  6
Continuous
 62
     7
100
AcDbLine
 10
38470.4306997947
 20
9211.121224068309
 30
0.0
 11
38641.07015028034
 21
9211.121224068309
 31
0.0
  0
LINE
  5
1B9
330
22
100
AcDbEntity
  8
_0-2_
  6
Continuous
 62
     7
100
AcDbLine
 10
38641.26810213845
 20
9181.120382772908
 30
0.0
 11
38440.59440598136
 21
9181.120382772908
 31
0.0
  0
LINE
  5
1BA
330
22
100
AcDbEntity
  8
_0-2_
  6
Continuous
 62
     7
100
AcDbLine
 10
38470.4306997947
 20
9381.120424012882
 30
0.0
 11
38439.93126725671
 21
9381.120424012882
 31
0.0
  0
LINE
  5
1BB
330
22
100
AcDbEntity
  8
_0-2_
  6
Continuous
 62
     7
100
AcDbLine
 10
38028.83474593068
 20
9256.121867411847
 30
0.0
 11
38010.95474434707
 21
6681.122032371729
 31
0.0
  0
LINE
  5
1BC
330
22
100
AcDbEntity
  8
_0-2_
  6
Continuous
 62
     7
100
AcDbLine
 10
38470.4306997947
 20
9211.121224068309
 30
0.0
 11
38470.4306997947
 21
9381.120424012882
 31
0.0
  0
LINE
  5
1BD
330
22
100
AcDbEntity
  8
_0-2_
  6
Continuous
 62
     7
100
AcDbLine
 10
38440.43109569842
 20
9306.121413772171
 30
0.0
 11
38009.4552590219
 21
9306.121413772171
 31
0.0
  0
LINE
  5
1BE
330
22
100
AcDbEntity
  8
_0-2_
  6
Continuous
 62
     7
100
AcDbLine
 10
38009.4552590219
 20
9256.121867411847
 30
0.0
 11
38440.59440598136
 21
9256.121867411847
 31
0.0
  0
LINE
  5
1BF
330
22
100
AcDbEntity
  8
_0-2_
  6
Continuous
 62
     7
100
AcDbLine
 10
38440.43109569842
 20
9306.121413772171
 30
0.0
 11
38440.59440598136
 21
9256.121867411847
 31
0.0
  0
LINE
  5
1C0
330
22
100
AcDbEntity
  8
_0-6_
  6
DASHED1
 62
     5
100
AcDbLine
 10
38014.03289574065
 20
14630.52533123944
 30
0.0
 11
38013.36480821954
 21
14530.52500131968
 31
0.0
  0
LINE
  5
1C1
330
22
100
AcDbEntity
  8
_0-6_
  6
DASHED1
 62
     5
100
AcDbLine
 10
38044.07703900502
 20
19130.67503233213
 30
0.0
 11
38043.4089514839
 21
19030.67222801415
 31
0.0
  0
LINE
  5
1C2
330
22
100
AcDbEntity
  8
_0-3_
  6
Continuous
 62
     6
100
AcDbLine
 10
13688.24001606898
 20
9831.119434253587
 30
0.0
 11
13892.66489993723
 21
9831.119434253587
 31
0.0
  0
LINE
  5
1C3
330
22
100
AcDbEntity
  8
_0-3_
  6
Continuous
 62
     6
100
AcDbLine
 10
13686.5697972662
 20
9731.119104333828
 30
0.0
 11
13887.94374812135
 21
9731.119104333828
 31
0.0
  0
LINE
  5
1C4
330
22
100
AcDbEntity
  8
_0-3_
  6
Continuous
 62
     6
100
AcDbLine
 10
13485.82558075965
 20
10092.22412109375
 30
0.0
 11
13562.21272840535
 21
10277.06166860219
 31
0.0
  0
LINE
  5
1C5
330
22
100
AcDbEntity
  8
_0-3_
  6
Continuous
 62
     6
100
AcDbLine
 10
13578.24435451387
 20
10054.02931007179
 30
0.0
 11
13654.63150215957
 21
10238.86809477935
 31
0.0
  0
LINE
  5
1C6
330
22
100
AcDbEntity
  8
_0-3_
  6
Continuous
 62
     6
100
AcDbLine
 10
18982.36719683862
 20
10092.22412109375
 30
0.0
 11
18905.98004919293
 21
10277.06166860219
 31
0.0
  0
LINE
  5
1C7
330
22
100
AcDbEntity
  8
_0-3_
  6
Continuous
 62
     6
100
AcDbLine
 10
18889.9484230844
 20
10054.02931007179
 30
0.0
 11
18813.56127543871
 21
10238.86809477935
 31
0.0
  0
LINE
  5
1C8
330
22
100
AcDbEntity
  8
_0-3_
  6
Continuous
 62
     6
100
AcDbLine
 10
19485.82434356054
 20
10092.22412109375
 30
0.0
 11
19562.21149120623
 21
10277.06290580131
 31
0.0
  0
LINE
  5
1C9
330
22
100
AcDbEntity
  8
_0-3_
  6
Continuous
 62
     6
100
AcDbLine
 10
19578.24311731476
 20
10054.03178447001
 30
0.0
 11
19654.63026496045
 21
10238.86933197846
 31
0.0
  0
LINE
  5
1CA
330
22
100
AcDbEntity
  8
_0-3_
  6
Continuous
 62
     6
100
AcDbLine
 10
24982.3647224404
 20
10092.22412109375
 30
0.0
 11
24905.98004919293
 21
10277.06290580131
 31
0.0
  0
LINE
  5
1CB
330
22
100
AcDbEntity
  8
_0-3_
  6
Continuous
 62
     6
100
AcDbLine
 10
24889.94594868617
 20
10054.03178447001
 30
0.0
 11
24813.56127543871
 21
10238.86933197846
 31
0.0
  0
LINE
  5
1CC
330
22
100
AcDbEntity
  8
_0-3_
  6
Continuous
 62
     6
100
AcDbLine
 10
25485.82558075966
 20
10092.22659549197
 30
0.0
 11
25562.21025400712
 21
10277.06414300042
 31
0.0
  0
LINE
  5
1CD
330
22
100
AcDbEntity
  8
_0-3_
  6
Continuous
 62
     6
100
AcDbLine
 10
25578.24435451388
 20
10054.03178447001
 30
0.0
 11
25654.62902776134
 21
10238.87056917758
 31
0.0
  0
LINE
  5
1CE
330
22
100
AcDbEntity
  8
_0-3_
  6
Continuous
 62
     6
100
AcDbLine
 10
30982.36224804217
 20
10092.22659549197
 30
0.0
 11
30905.9775747947
 21
10277.06414300042
 31
0.0
  0
LINE
  5
1CF
330
22
100
AcDbEntity
  8
_0-3_
  6
Continuous
 62
     6
100
AcDbLine
 10
30889.94347428795
 20
10054.03178447001
 30
0.0
 11
30813.55880104049
 21
10238.87056917758
 31
0.0
  0
LINE
  5
1D0
330
22
100
AcDbEntity
  8
_0-3_
  6
Continuous
 62
     6
100
AcDbLine
 10
31485.82310636143
 20
10092.22659549197
 30
0.0
 11
31562.2077796089
 21
10277.06538019953
 31
0.0
  0
LINE
  5
1D1
330
22
100
AcDbEntity
  8
_0-3_
  6
Continuous
 62
     6
100
AcDbLine
 10
31578.24188011565
 20
10054.03425886824
 30
0.0
 11
31654.62655336312
 21
10238.87180637669
 31
0.0
  0
LINE
  5
1D2
330
22
100
AcDbEntity
  8
_0-2_
  6
Continuous
 62
     7
100
AcDbLine
 10
38641.07015028034
 20
9211.121224068309
 30
0.0
 11
38641.07015028034
 21
9181.120382772908
 31
0.0
  0
LINE
  5
1D3
330
22
100
AcDbEntity
  8
_0-3_
  6
Continuous
 62
     6
100
AcDbLine
 10
31184.53048072798
 20
10082.20775707348
 30
0.0
 11
31184.53048072798
 21
10285.9546558277
 31
0.0
  0
LINE
  5
1D4
330
22
100
AcDbEntity
  8
_0-3_
  6
Continuous
 62
     6
100
AcDbLine
 10
31284.53081064774
 20
10076.72325340477
 30
0.0
 11
31284.53081064774
 21
10281.23350401182
 31
0.0
  0
LINE
  5
1D5
330
22
100
AcDbEntity
  8
_0-B_
  6
Continuous
 62
     3
100
AcDbLine
 10
36234.45558894166
 20
9681.121413772171
 30
0.0
 11
38030.9874723876
 21
9681.121413772171
 31
0.0
  0
LINE
  5
1D6
330
22
100
AcDbEntity
  8
_0-B_
  6
Continuous
 62
     3
100
AcDbLine
 10
38437.92700469337
 20
9681.121413772171
 30
0.0
 11
40234.45393934284
 21
9681.121413772171
 31
0.0
  0
LINE
  5
1D7
330
22
100
AcDbEntity
  8
_0-F_
  6
Continuous
 62
     7
100
AcDbLine
 10
25072.45756186185
 20
23533.61305030616
 30
0.0
 11
25072.45756186185
 21
23583.61568966428
 31
0.0
  0
LINE
  5
1D8
330
22
100
AcDbEntity
  8
_0-F_
  6
Continuous
 62
     3
100
AcDbLine
 10
11590.94873980737
 20
9681.120176573054
 30
0.0
 11
11990.9475850882
 21
9281.120712692674
 31
0.0
  0
LINE
  5
1D9
330
22
100
AcDbEntity
  8
_0-F_
  6
Continuous
 62
     3
100
AcDbLine
 10
11590.94873980737
 20
9681.120176573054
 30
0.0
 11
11190.94494573009
 21
9281.120712692674
 31
0.0
  0
LINE
  5
1DA
330
22
100
AcDbEntity
  8
_0-F_
  6
Continuous
 62
     3
100
AcDbLine
 10
11190.94494573009
 20
9281.120712692674
 30
0.0
 11
10790.94857484749
 21
9681.120176573054
 31
0.0
  0
LINE
  5
1DB
330
22
100
AcDbEntity
  8
_0-F_
  6
Continuous
 62
     3
100
AcDbLine
 10
10875.55814779935
 20
9588.612324482685
 30
0.0
 11
10568.06962900712
 21
9281.120712692674
 31
0.0
  0
LINE
  5
1DC
330
22
100
AcDbEntity
  8
_0-F_
  6
Continuous
 62
     3
100
AcDbLine
 10
10979.17109912958
 20
9488.703547297298
 30
0.0
 11
10771.58888312452
 21
9281.120712692674
 31
0.0
  0
LINE
  5
1DD
330
22
100
AcDbEntity
  8
_0-F_
  6
Continuous
 62
     3
100
AcDbLine
 10
11082.77662726514
 20
9388.796007311022
 30
0.0
 11
10975.10071404723
 21
9281.120712692674
 31
0.0
  0
LINE
  5
1DE
330
22
100
AcDbEntity
  8
_0-F_
  6
Continuous
 62
     3
100
AcDbLine
 10
11690.95154412536
 20
9581.119846653296
 30
0.0
 11
11390.94807996785
 21
9281.120712692674
 31
0.0
  0
LINE
  5
1DF
330
22
100
AcDbEntity
  8
_0-F_
  6
Continuous
 62
     3
100
AcDbLine
 10
11790.95187404513
 20
9481.118279534415
 30
0.0
 11
11590.94873980737
 21
9281.120712692674
 31
0.0
  0
LINE
  5
1E0
330
22
100
AcDbEntity
  8
_0-F_
  6
Continuous
 62
     3
100
AcDbLine
 10
11890.94478077021
 20
9381.121661211992
 30
0.0
 11
11790.94445085045
 21
9281.120712692674
 31
0.0
  0
LINE
  5
1E1
330
22
100
AcDbEntity
  8
_0-F_
  6
Continuous
 62
     3
100
AcDbLine
 10
11490.94840988761
 20
9581.119846653296
 30
0.0
 11
11390.94807996785
 21
9681.120176573054
 31
0.0
  0
LINE
  5
1E2
330
22
100
AcDbEntity
  8
_0-F_
  6
Continuous
 62
     3
100
AcDbLine
 10
11390.94807996785
 20
9481.118279534415
 30
0.0
 11
11190.94494573009
 21
9681.120176573054
 31
0.0
  0
LINE
  5
1E3
330
22
100
AcDbEntity
  8
_0-F_
  6
Continuous
 62
     3
100
AcDbLine
 10
11290.94775004808
 20
9381.121661211992
 30
0.0
 11
10990.95170908524
 21
9681.120176573054
 31
0.0
  0
LINE
  5
1E4
330
22
100
AcDbEntity
  8
_0-F_
  6
Continuous
 62
     3
100
AcDbLine
 10
10790.94857484749
 20
9681.120176573054
 30
0.0
 11
10490.9475850882
 21
9381.121661211992
 31
0.0
  0
LINE
  5
1E5
330
22
100
AcDbEntity
  8
_0-F_
  6
Continuous
 62
     3
100
AcDbLine
 10
10590.94791500796
 20
9481.118279534415
 30
0.0
 11
10390.94478077021
 21
9681.120176573054
 31
0.0
  0
LINE
  5
1E6
330
22
100
AcDbEntity
  8
_0-F_
  6
Continuous
 62
     3
100
AcDbLine
 10
10690.94824492772
 20
9581.119846653296
 30
0.0
 11
10590.94791500796
 21
9681.120176573054
 31
0.0
  0
LINE
  5
1E7
330
22
100
AcDbEntity
  8
_0-F_
  6
Continuous
 62
     3
100
AcDbLine
 10
11102.17838375796
 20
9873.781771273227
 30
0.0
 11
10879.71761121784
 21
9873.781771273227
 31
0.0
  0
LINE
  5
1E8
330
22
100
AcDbEntity
  8
_0-F_
  6
Continuous
 62
     3
100
AcDbLine
 10
10990.95170908524
 20
9681.120176573054
 30
0.0
 11
11102.17838375796
 21
9873.781771273227
 31
0.0
  0
LINE
  5
1E9
330
22
100
AcDbEntity
  8
_0-F_
  6
Continuous
 62
     3
100
AcDbLine
 10
10990.95170908524
 20
9681.120176573054
 30
0.0
 11
10879.71761121784
 21
9873.781771273227
 31
0.0
  0
LINE
  5
1EA
330
22
100
AcDbEntity
  8
_0-F_
  6
Continuous
 62
     3
100
AcDbLine
 10
33432.27877834201
 20
9681.121413772171
 30
0.0
 11
33832.28009802107
 21
9281.121949891788
 31
0.0
  0
LINE
  5
1EB
330
22
100
AcDbEntity
  8
_0-F_
  6
Continuous
 62
     3
100
AcDbLine
 10
33432.27877834201
 20
9681.121413772171
 30
0.0
 11
33032.2824074594
 21
9281.121949891788
 31
0.0
  0
LINE
  5
1EC
330
22
100
AcDbEntity
  8
_0-F_
  6
Continuous
 62
     3
100
AcDbLine
 10
33032.2824074594
 20
9281.121949891788
 30
0.0
 11
32632.28108778035
 21
9681.121413772171
 31
0.0
  0
LINE
  5
1ED
330
22
100
AcDbEntity
  8
_0-F_
  6
Continuous
 62
     3
100
AcDbLine
 10
32716.8906607322
 20
9588.613561681802
 30
0.0
 11
32409.39719314353
 21
9281.121949891788
 31
0.0
  0
LINE
  5
1EE
330
22
100
AcDbEntity
  8
_0-F_
  6
Continuous
 62
     3
100
AcDbLine
 10
32820.50361206244
 20
9488.703547297298
 30
0.0
 11
32612.91644726092
 21
9281.121949891788
 31
0.0
  0
LINE
  5
1EF
330
22
100
AcDbEntity
  8
_0-F_
  6
Continuous
 62
     3
100
AcDbLine
 10
32924.11161459622
 20
9388.793532912798
 30
0.0
 11
32816.43570137832
 21
9281.121949891788
 31
0.0
  0
LINE
  5
1F0
330
22
100
AcDbEntity
  8
_0-F_
  6
Continuous
 62
     3
100
AcDbLine
 10
33532.27910826176
 20
9581.119846653296
 30
0.0
 11
33232.28306729893
 21
9281.121949891788
 31
0.0
  0
LINE
  5
1F1
330
22
100
AcDbEntity
  8
_0-F_
  6
Continuous
 62
     3
100
AcDbLine
 10
33632.27943818153
 20
9481.119516733532
 30
0.0
 11
33432.27877834201
 21
9281.121949891788
 31
0.0
  0
LINE
  5
1F2
330
22
100
AcDbEntity
  8
_0-F_
  6
Continuous
 62
     3
100
AcDbLine
 10
33732.2797681013
 20
9381.119186813767
 30
0.0
 11
33632.27943818153
 21
9281.121949891788
 31
0.0
  0
LINE
  5
1F3
330
22
100
AcDbEntity
  8
_0-F_
  6
Continuous
 62
     3
100
AcDbLine
 10
33332.27844842225
 20
9581.119846653296
 30
0.0
 11
33232.28306729893
 21
9681.121413772171
 31
0.0
  0
LINE
  5
1F4
330
22
100
AcDbEntity
  8
_0-F_
  6
Continuous
 62
     3
100
AcDbLine
 10
33232.28306729893
 20
9481.119516733532
 30
0.0
 11
33032.2824074594
 21
9681.121413772171
 31
0.0
  0
LINE
  5
1F5
330
22
100
AcDbEntity
  8
_0-F_
  6
Continuous
 62
     3
100
AcDbLine
 10
33132.28273737916
 20
9381.119186813767
 30
0.0
 11
32832.28174761988
 21
9681.121413772171
 31
0.0
  0
LINE
  5
1F6
330
22
100
AcDbEntity
  8
_0-F_
  6
Continuous
 62
     3
100
AcDbLine
 10
32632.28108778035
 20
9681.121413772171
 30
0.0
 11
32332.28009802106
 21
9381.119186813767
 31
0.0
  0
LINE
  5
1F7
330
22
100
AcDbEntity
  8
_0-F_
  6
Continuous
 62
     3
100
AcDbLine
 10
32432.28042794082
 20
9481.119516733532
 30
0.0
 11
32232.27976810129
 21
9681.121413772171
 31
0.0
  0
LINE
  5
1F8
330
22
100
AcDbEntity
  8
_0-F_
  6
Continuous
 62
     3
100
AcDbLine
 10
32532.28075786059
 20
9581.119846653296
 30
0.0
 11
32432.28042794082
 21
9681.121413772171
 31
0.0
  0
LINE
  5
1F9
330
22
100
AcDbEntity
  8
_0-F_
  6
Continuous
 62
     3
100
AcDbLine
 10
37666.33045697377
 20
9677.156190614446
 30
0.0
 11
37266.33408609116
 21
9277.156726734059
 31
0.0
  0
LINE
  5
1FA
330
22
100
AcDbEntity
  8
_0-F_
  6
Continuous
 62
     3
100
AcDbLine
 10
37266.33408609116
 20
9277.156726734059
 30
0.0
 11
36866.33276641212
 21
9677.156190614446
 31
0.0
  0
LINE
  5
1FB
330
22
100
AcDbEntity
  8
_0-F_
  6
Continuous
 62
     3
100
AcDbLine
 10
36950.94233936396
 20
9584.648338524072
 30
0.0
 11
36643.44887177528
 21
9277.156726734059
 31
0.0
  0
LINE
  5
1FC
330
22
100
AcDbEntity
  8
_0-F_
  6
Continuous
 62
     3
100
AcDbLine
 10
37054.55529069419
 20
9484.740798537796
 30
0.0
 11
36846.96812589268
 21
9277.156726734059
 31
0.0
  0
LINE
  5
1FD
330
22
100
AcDbEntity
  8
_0-F_
  6
Continuous
 62
     3
100
AcDbLine
 10
37158.16329322799
 20
9384.830784153296
 30
0.0
 11
37050.48738001008
 21
9277.156726734059
 31
0.0
  0
LINE
  5
1FE
330
22
100
AcDbEntity
  8
_0-F_
  6
Continuous
 62
     3
100
AcDbLine
 10
37766.33078689352
 20
9577.154623495564
 30
0.0
 11
37466.33474593068
 21
9277.156726734059
 31
0.0
  0
LINE
  5
1FF
330
22
100
AcDbEntity
  8
_0-F_
  6
Continuous
 62
     3
100
AcDbLine
 10
37866.33111681329
 20
9477.154293575805
 30
0.0
 11
37666.33045697377
 21
9277.156726734059
 31
0.0
  0
LINE
  5
200
330
22
100
AcDbEntity
  8
_0-F_
  6
Continuous
 62
     3
100
AcDbLine
 10
37966.33144673304
 20
9377.156438054266
 30
0.0
 11
37866.33111681329
 21
9277.156726734059
 31
0.0
  0
LINE
  5
201
330
22
100
AcDbEntity
  8
_0-F_
  6
Continuous
 62
     3
100
AcDbLine
 10
37566.330127054
 20
9577.154623495564
 30
0.0
 11
37466.33474593068
 21
9677.156190614446
 31
0.0
  0
LINE
  5
202
330
22
100
AcDbEntity
  8
_0-F_
  6
Continuous
 62
     3
100
AcDbLine
 10
37466.33474593068
 20
9477.154293575805
 30
0.0
 11
37266.33408609116
 21
9677.156190614446
 31
0.0
  0
LINE
  5
203
330
22
100
AcDbEntity
  8
_0-F_
  6
Continuous
 62
     3
100
AcDbLine
 10
37366.33441601092
 20
9377.156438054266
 30
0.0
 11
37066.33342625163
 21
9677.156190614446
 31
0.0
  0
LINE
  5
204
330
22
100
AcDbEntity
  8
_0-F_
  6
Continuous
 62
     3
100
AcDbLine
 10
36866.33276641212
 20
9677.156190614446
 30
0.0
 11
36566.33177665282
 21
9377.156438054266
 31
0.0
  0
LINE
  5
205
330
22
100
AcDbEntity
  8
_0-F_
  6
Continuous
 62
     3
100
AcDbLine
 10
36666.33210657258
 20
9477.154293575805
 30
0.0
 11
36466.33144673304
 21
9677.156190614446
 31
0.0
  0
LINE
  5
206
330
22
100
AcDbEntity
  8
_0-F_
  6
Continuous
 62
     3
100
AcDbLine
 10
36766.33243649233
 20
9577.154623495564
 30
0.0
 11
36666.33210657258
 21
9677.156190614446
 31
0.0
  0
LINE
  5
207
330
22
100
AcDbEntity
  8
_0-F_
  6
Continuous
 62
     4
100
AcDbLine
 10
31874.65499244674
 20
23313.74297270904
 30
0.0
 11
31874.65499244674
 21
23413.7433026288
 31
0.0
  0
LINE
  5
208
330
22
100
AcDbEntity
  8
_0-F_
  6
Continuous
 62
     4
100
AcDbLine
 10
13857.13749020327
 20
23618.77936285895
 30
0.0
 11
14257.14128428056
 21
24311.5984942462
 31
0.0
  0
LINE
  5
209
330
22
100
AcDbEntity
  8
_0-F_
  6
Continuous
 62
     4
100
AcDbLine
 10
14349.22106547777
 20
21173.48748284417
 30
0.0
 11
14749.2199107586
 21
21866.30413983319
 31
0.0
  0
LINE
  5
20A
330
22
100
AcDbEntity
  8
_0-F_
  6
Continuous
 62
     4
100
AcDbLine
 10
13857.13749020327
 20
23618.77936285895
 30
0.0
 11
13857.13749020327
 21
23718.77969277872
 31
0.0
  0
LINE
  5
20B
330
22
100
AcDbEntity
  8
_0-F_
  6
Continuous
 62
     4
100
AcDbLine
 10
14349.22106547777
 20
21173.48748284417
 30
0.0
 11
14349.22106547777
 21
21273.49028716216
 31
0.0
  0
LINE
  5
20C
330
22
100
AcDbEntity
  8
_0-F_
  6
Continuous
 62
     4
100
AcDbLine
 10
14749.2199107586
 20
21866.30413983319
 30
0.0
 11
17757.17510105631
 21
21866.30413983319
 31
0.0
  0
LINE
  5
20D
330
22
100
AcDbEntity
  8
_0-F_
  6
Continuous
 62
     4
100
AcDbLine
 10
19273.68552322165
 20
20783.91327729097
 30
0.0
 11
19673.6868429007
 21
21476.72993427998
 31
0.0
  0
LINE
  5
20E
330
22
100
AcDbEntity
  8
_0-F_
  6
Continuous
 62
     4
100
AcDbLine
 10
19273.68552322165
 20
20783.91327729097
 30
0.0
 11
19273.68552322165
 21
20883.91360721073
 31
0.0
  0
LINE
  5
20F
330
22
100
AcDbEntity
  8
_0-F_
  6
Continuous
 62
     4
100
AcDbLine
 10
19673.6868429007
 20
21476.72993427998
 30
0.0
 11
19873.68750274023
 21
21476.72993427998
 31
0.0
  0
LINE
  5
210
330
22
100
AcDbEntity
  8
_0-F_
  6
Continuous
 62
     4
100
AcDbLine
 10
14257.14128428056
 20
24311.5984942462
 30
0.0
 11
16196.19850556434
 21
24311.5984942462
 31
0.0
  0
LINE
  5
211
330
22
100
AcDbEntity
  8
_0-F_
  6
Continuous
 62
     4
100
AcDbLine
 10
19273.68552322165
 20
22412.18855574325
 30
0.0
 11
19673.6868429007
 21
23105.00521273227
 31
0.0
  0
LINE
  5
212
330
22
100
AcDbEntity
  8
_0-F_
  6
Continuous
 62
     4
100
AcDbLine
 10
19273.68552322165
 20
22412.18855574325
 30
0.0
 11
19273.68552322165
 21
22512.18888566301
 31
0.0
  0
LINE
  5
213
330
22
100
AcDbEntity
  8
_0-F_
  6
Continuous
 62
     4
100
AcDbLine
 10
19673.6868429007
 20
23105.00521273227
 30
0.0
 11
19873.68750274023
 21
23105.00521273227
 31
0.0
  0
LINE
  5
214
330
22
100
AcDbEntity
  8
_0-F_
  6
Continuous
 62
     4
100
AcDbLine
 10
22234.11494678584
 20
23481.12364073058
 30
0.0
 11
22634.11626646489
 21
24173.9402977196
 31
0.0
  0
LINE
  5
215
330
22
100
AcDbEntity
  8
_0-F_
  6
Continuous
 62
     4
100
AcDbLine
 10
22234.11494678584
 20
23481.12364073058
 30
0.0
 11
22234.11494678584
 21
23581.12397065034
 31
0.0
  0
LINE
  5
216
330
22
100
AcDbEntity
  8
_0-F_
  6
Continuous
 62
     4
100
AcDbLine
 10
22634.11626646489
 20
24173.9402977196
 30
0.0
 11
22834.1144519062
 21
24173.9402977196
 31
0.0
  0
LINE
  5
217
330
22
100
AcDbEntity
  8
_0-F_
  6
Continuous
 62
     4
100
AcDbLine
 10
22234.11247238761
 20
9781.12050649282
 30
0.0
 11
22634.11379206667
 21
10473.93716348184
 31
0.0
  0
LINE
  5
218
330
22
100
AcDbEntity
  8
_0-F_
  6
Continuous
 62
     4
100
AcDbLine
 10
22234.11247238761
 20
9781.12050649282
 30
0.0
 11
22234.11247238761
 21
9881.118362014358
 31
0.0
  0
LINE
  5
219
330
22
100
AcDbEntity
  8
_0-F_
  6
Continuous
 62
     4
100
AcDbLine
 10
22634.11379206667
 20
10473.93716348184
 30
0.0
 11
22834.1144519062
 21
10473.93716348184
 31
0.0
  0
LINE
  5
21A
330
22
100
AcDbEntity
  8
_0-F_
  6
Continuous
 62
     4
100
AcDbLine
 10
22234.11247238761
 20
14481.12364073057
 30
0.0
 11
22634.11379206667
 21
15173.94153491871
 31
0.0
  0
LINE
  5
21B
330
22
100
AcDbEntity
  8
_0-F_
  6
Continuous
 62
     4
100
AcDbLine
 10
22234.11247238761
 20
14481.12364073057
 30
0.0
 11
22234.11247238761
 21
14581.12397065034
 31
0.0
  0
LINE
  5
21C
330
22
100
AcDbEntity
  8
_0-F_
  6
Continuous
 62
     4
100
AcDbLine
 10
22634.11379206667
 20
15173.94153491871
 30
0.0
 11
22834.1144519062
 21
15173.94153491871
 31
0.0
  0
LINE
  5
21D
330
22
100
AcDbEntity
  8
_0-F_
  6
Continuous
 62
     4
100
AcDbLine
 10
22234.11494678584
 20
18981.1261151288
 30
0.0
 11
22634.11626646489
 21
19673.94153491871
 31
0.0
  0
LINE
  5
21E
330
22
100
AcDbEntity
  8
_0-F_
  6
Continuous
 62
     4
100
AcDbLine
 10
22234.11494678584
 20
18981.1261151288
 30
0.0
 11
22234.11494678584
 21
19081.12520784945
 31
0.0
  0
LINE
  5
21F
330
22
100
AcDbEntity
  8
_0-F_
  6
Continuous
 62
     4
100
AcDbLine
 10
22634.11626646489
 20
19673.94153491871
 30
0.0
 11
22834.1144519062
 21
19673.94153491871
 31
0.0
  0
LINE
  5
220
330
22
100
AcDbEntity
  8
_0-F_
  6
Continuous
 62
     4
100
AcDbLine
 10
13940.59770517899
 20
9181.120382772908
 30
0.0
 11
13940.59770517899
 21
9081.122527251373
 31
0.0
  0
LINE
  5
221
330
22
100
AcDbEntity
  8
_0-F_
  6
Continuous
 62
     4
100
AcDbLine
 10
14340.60149925628
 20
8488.300014186551
 30
0.0
 11
15140.60166421615
 21
8488.300014186551
 31
0.0
  0
LINE
  5
222
330
22
100
AcDbEntity
  8
_0-F_
  6
Continuous
 62
     4
100
AcDbLine
 10
13940.59770517899
 20
9181.120382772908
 30
0.0
 11
14340.60149925628
 21
8488.300014186551
 31
0.0
  0
LINE
  5
223
330
22
100
AcDbEntity
  8
_0-F_
  6
Continuous
 62
     4
100
AcDbLine
 10
38396.4560904197
 20
23602.41369298987
 30
0.0
 11
38396.4560904197
 21
23702.41402290963
 31
0.0
  0
LINE
  5
224
330
22
100
AcDbEntity
  8
_0-F_
  6
Continuous
 62
     4
100
AcDbLine
 10
38796.45741009877
 20
24295.23034997889
 30
0.0
 11
39796.45576049994
 21
24295.23034997889
 31
0.0
  0
LINE
  5
225
330
22
100
AcDbEntity
  8
_0-F_
  6
Continuous
 62
     4
100
AcDbLine
 10
38396.4560904197
 20
23602.41369298987
 30
0.0
 11
38796.45741009877
 21
24295.23034997889
 31
0.0
  0
LINE
  5
226
330
22
100
AcDbEntity
  8
_0-F_
  6
Continuous
 62
     3
100
AcDbLine
 10
37666.33045697377
 20
9677.156190614446
 30
0.0
 11
38028.6664868513
 21
9314.826346732479
 31
0.0
  0
LINE
  5
227
330
22
100
AcDbEntity
  8
_0-F_
  6
Continuous
 62
     4
100
AcDbLine
 10
38424.95620919082
 20
19130.34098857158
 30
0.0
 11
38424.95620919082
 21
19230.34131849134
 31
0.0
  0
LINE
  5
228
330
22
100
AcDbEntity
  8
_0-F_
  6
Continuous
 62
     4
100
AcDbLine
 10
38824.95752886988
 20
19823.1576455606
 30
0.0
 11
39824.95587927107
 21
19823.1576455606
 31
0.0
  0
LINE
  5
229
330
22
100
AcDbEntity
  8
_0-F_
  6
Continuous
 62
     4
100
AcDbLine
 10
38424.95620919082
 20
19130.34098857158
 30
0.0
 11
38824.95752886988
 21
19823.1576455606
 31
0.0
  0
LINE
  5
22A
330
22
100
AcDbEntity
  8
_0-F_
  6
Continuous
 62
     4
100
AcDbLine
 10
38452.33789996363
 20
14630.19128747888
 30
0.0
 11
38452.33789996363
 21
14730.19161739865
 31
0.0
  0
LINE
  5
22B
330
22
100
AcDbEntity
  8
_0-F_
  6
Continuous
 62
     4
100
AcDbLine
 10
38852.33921964268
 20
15323.00794446791
 30
0.0
 11
39852.33757004386
 21
15323.00794446791
 31
0.0
  0
LINE
  5
22C
330
22
100
AcDbEntity
  8
_0-F_
  6
Continuous
 62
     4
100
AcDbLine
 10
38452.33789996363
 20
14630.19128747888
 30
0.0
 11
38852.33921964268
 21
15323.00794446791
 31
0.0
  0
LINE
  5
22D
330
22
100
AcDbEntity
  8
_0-F_
  6
Continuous
 62
     4
100
AcDbLine
 10
38483.17879945687
 20
9931.217502903296
 30
0.0
 11
38483.17879945687
 21
10031.21783282305
 31
0.0
  0
LINE
  5
22E
330
22
100
AcDbEntity
  8
_0-F_
  6
Continuous
 62
     4
100
AcDbLine
 10
38883.18011913592
 20
10624.03415989231
 30
0.0
 11
39883.17846953712
 21
10624.03415989231
 31
0.0
  0
LINE
  5
22F
330
22
100
AcDbEntity
  8
_0-F_
  6
Continuous
 62
     4
100
AcDbLine
 10
38483.17879945687
 20
9931.217502903296
 30
0.0
 11
38883.18011913592
 21
10624.03415989231
 31
0.0
  0
LINE
  5
230
330
22
100
AcDbEntity
  8
_0-2_
  6
Continuous
 62
     7
100
AcDbLine
 10
38375.50783503541
 20
19030.33818425359
 30
0.0
 11
38404.88389077865
 21
14630.19128747888
 31
0.0
  0
LINE
  5
231
330
22
100
AcDbEntity
  8
_0-6_
  6
Continuous
 62
     5
100
AcDbLine
 10
16134.45608382131
 20
9781.12050649282
 30
0.0
 11
13234.45641374107
 21
14804.06725084459
 31
0.0
  0
LINE
  5
232
330
22
100
AcDbEntity
  8
_0-6_
  6
Continuous
 62
     5
100
AcDbLine
 10
13234.45641374107
 20
14781.11968169341
 30
0.0
 11
13247.70434184496
 21
14781.11968169341
 31
0.0
  0
LINE
  5
233
330
22
100
AcDbEntity
  8
_0-6_
  6
Continuous
 62
     5
100
AcDbLine
 10
13234.45641374107
 20
14681.12058897276
 30
0.0
 11
13305.43947566041
 21
14681.12058897276
 31
0.0
  0
LINE
  5
234
330
22
100
AcDbEntity
  8
_0-6_
  6
Continuous
 62
     5
100
AcDbLine
 10
13234.45641374107
 20
14581.120259053
 30
0.0
 11
13363.17460947587
 21
14581.120259053
 31
0.0
  0
LINE
  5
235
330
22
100
AcDbEntity
  8
_0-6_
  6
Continuous
 62
     5
100
AcDbLine
 10
13234.45641374107
 20
14481.11992913323
 30
0.0
 11
13420.90974329132
 21
14481.11992913323
 31
0.0
  0
LINE
  5
236
330
22
100
AcDbEntity
  8
_0-6_
  6
Continuous
 62
     5
100
AcDbLine
 10
13234.45641374107
 20
14381.12083641259
 30
0.0
 11
13478.64487710678
 21
14381.12083641259
 31
0.0
  0
LINE
  5
237
330
22
100
AcDbEntity
  8
_0-6_
  6
Continuous
 62
     5
100
AcDbLine
 10
13234.45641374107
 20
14281.12050649282
 30
0.0
 11
13536.38001092223
 21
14281.12050649282
 31
0.0
  0
LINE
  5
238
330
22
100
AcDbEntity
  8
_0-6_
  6
Continuous
 62
     5
100
AcDbLine
 10
13234.45641374107
 20
14181.12017657305
 30
0.0
 11
13594.11514473769
 21
14181.12017657305
 31
0.0
  0
LINE
  5
239
330
22
100
AcDbEntity
  8
_0-6_
  6
Continuous
 62
     5
100
AcDbLine
 10
13234.45641374107
 20
14081.11984665329
 30
0.0
 11
13651.85027855315
 21
14081.11984665329
 31
0.0
  0
LINE
  5
23A
330
22
100
AcDbEntity
  8
_0-6_
  6
Continuous
 62
     5
100
AcDbLine
 10
13234.45641374107
 20
13981.11951673353
 30
0.0
 11
13709.58541236861
 21
13981.11951673353
 31
0.0
  0
LINE
  5
23B
330
22
100
AcDbEntity
  8
_0-6_
  6
Continuous
 62
     5
100
AcDbLine
 10
13234.45641374107
 20
13881.12042401288
 30
0.0
 11
13767.32054618406
 21
13881.12042401288
 31
0.0
  0
LINE
  5
23C
330
22
100
AcDbEntity
  8
_0-6_
  6
Continuous
 62
     5
100
AcDbLine
 10
13234.45641374107
 20
13781.12009409311
 30
0.0
 11
13825.05567999952
 21
13781.12009409311
 31
0.0
  0
LINE
  5
23D
330
22
100
AcDbEntity
  8
_0-6_
  6
Continuous
 62
     5
100
AcDbLine
 10
13234.45641374107
 20
13681.12100137247
 30
0.0
 11
13882.78957661586
 21
13681.12100137247
 31
0.0
  0
LINE
  5
23E
330
22
100
AcDbEntity
  8
_0-6_
  6
Continuous
 62
     5
100
AcDbLine
 10
13234.45641374107
 20
13381.12001161317
 30
0.0
 11
14055.99497806223
 21
13381.12001161317
 31
0.0
  0
LINE
  5
23F
330
22
100
AcDbEntity
  8
_0-6_
  6
Continuous
 62
     5
100
AcDbLine
 10
13234.45641374107
 20
13281.11968169341
 30
0.0
 11
14113.73011187769
 21
13281.11968169341
 31
0.0
  0
LINE
  5
240
330
22
100
AcDbEntity
  8
_0-6_
  6
Continuous
 62
     5
100
AcDbLine
 10
13234.45641374107
 20
13181.12058897276
 30
0.0
 11
14171.46524569314
 21
13181.12058897276
 31
0.0
  0
LINE
  5
241
330
22
100
AcDbEntity
  8
_0-6_
  6
Continuous
 62
     5
100
AcDbLine
 10
13234.45641374107
 20
13081.120259053
 30
0.0
 11
14229.2003795086
 21
13081.120259053
 31
0.0
  0
LINE
  5
242
330
22
100
AcDbEntity
  8
_0-6_
  6
Continuous
 62
     5
100
AcDbLine
 10
13234.45641374107
 20
12981.11992913323
 30
0.0
 11
14286.93551332405
 21
12981.11992913323
 31
0.0
  0
LINE
  5
243
330
22
100
AcDbEntity
  8
_0-6_
  6
Continuous
 62
     5
100
AcDbLine
 10
13234.45641374107
 20
12881.12083641259
 30
0.0
 11
14344.6694099404
 21
12881.12083641259
 31
0.0
  0
LINE
  5
244
330
22
100
AcDbEntity
  8
_0-6_
  6
Continuous
 62
     5
100
AcDbLine
 10
13234.45641374107
 20
12781.12050649282
 30
0.0
 11
14402.40578095497
 21
12781.12050649282
 31
0.0
  0
LINE
  5
245
330
22
100
AcDbEntity
  8
_0-6_
  6
Continuous
 62
     5
100
AcDbLine
 10
13234.45641374107
 20
12681.12017657306
 30
0.0
 11
14460.14091477042
 21
12681.12017657306
 31
0.0
  0
LINE
  5
246
330
22
100
AcDbEntity
  8
_0-6_
  6
Continuous
 62
     5
100
AcDbLine
 10
13234.45641374107
 20
12581.11984665329
 30
0.0
 11
14517.87604858588
 21
12581.11984665329
 31
0.0
  0
LINE
  5
247
330
22
100
AcDbEntity
  8
_0-6_
  6
Continuous
 62
     5
100
AcDbLine
 10
13234.45641374107
 20
12381.12042401288
 30
0.0
 11
14633.34507901768
 21
12381.12042401288
 31
0.0
  0
LINE
  5
248
330
22
100
AcDbEntity
  8
_0-6_
  6
Continuous
 62
     5
100
AcDbLine
 10
13234.45641374107
 20
12281.12009409312
 30
0.0
 11
14691.08021283313
 21
12281.12009409312
 31
0.0
  0
LINE
  5
249
330
22
100
AcDbEntity
  8
_0-6_
  6
Continuous
 62
     5
100
AcDbLine
 10
13234.45641374107
 20
12181.11976417335
 30
0.0
 11
14748.81534664859
 21
12181.11976417335
 31
0.0
  0
LINE
  5
24A
330
22
100
AcDbEntity
  8
_0-6_
  6
Continuous
 62
     5
100
AcDbLine
 10
13234.45641374107
 20
12081.1206714527
 30
0.0
 11
14806.55048046404
 21
12081.1206714527
 31
0.0
  0
LINE
  5
24B
330
22
100
AcDbEntity
  8
_0-6_
  6
Continuous
 62
     5
100
AcDbLine
 10
13234.45641374107
 20
11981.12034153294
 30
0.0
 11
14864.2856142795
 21
11981.12034153294
 31
0.0
  0
LINE
  5
24C
330
22
100
AcDbEntity
  8
_0-6_
  6
Continuous
 62
     5
100
AcDbLine
 10
13234.45641374107
 20
11881.12001161317
 30
0.0
 11
14922.02074809496
 21
11881.12001161317
 31
0.0
  0
LINE
  5
24D
330
22
100
AcDbEntity
  8
_0-6_
  6
Continuous
 62
     5
100
AcDbLine
 10
13234.45641374107
 20
11781.11968169341
 30
0.0
 11
14979.75588191041
 21
11781.11968169341
 31
0.0
  0
LINE
  5
24E
330
22
100
AcDbEntity
  8
_0-6_
  6
Continuous
 62
     5
100
AcDbLine
 10
13234.45641374107
 20
11581.120259053
 30
0.0
 11
15095.22614954132
 21
11581.120259053
 31
0.0
  0
LINE
  5
24F
330
22
100
AcDbEntity
  8
_0-6_
  6
Continuous
 62
     5
100
AcDbLine
 10
13234.45641374107
 20
11481.11992913323
 30
0.0
 11
15152.96128335678
 21
11481.11992913323
 31
0.0
  0
LINE
  5
250
330
22
100
AcDbEntity
  8
_0-6_
  6
Continuous
 62
     5
100
AcDbLine
 10
13234.45641374107
 20
11381.12083641258
 30
0.0
 11
15210.69517997313
 21
11381.12083641258
 31
0.0
  0
LINE
  5
251
330
22
100
AcDbEntity
  8
_0-6_
  6
Continuous
 62
     5
100
AcDbLine
 10
13234.45641374107
 20
11281.12050649282
 30
0.0
 11
15268.43031378858
 21
11281.12050649282
 31
0.0
  0
LINE
  5
252
330
22
100
AcDbEntity
  8
_0-6_
  6
Continuous
 62
     5
100
AcDbLine
 10
13234.45641374107
 20
11181.12017657306
 30
0.0
 11
15326.16544760404
 21
11181.12017657306
 31
0.0
  0
LINE
  5
253
330
22
100
AcDbEntity
  8
_0-6_
  6
Continuous
 62
     5
100
AcDbLine
 10
13234.45641374107
 20
11081.11984665329
 30
0.0
 11
15383.90058141949
 21
11081.11984665329
 31
0.0
  0
LINE
  5
254
330
22
100
AcDbEntity
  8
_0-6_
  6
Continuous
 62
     5
100
AcDbLine
 10
13234.45641374107
 20
10981.12075393264
 30
0.0
 11
15441.63571523495
 21
10981.12075393264
 31
0.0
  0
LINE
  5
255
330
22
100
AcDbEntity
  8
_0-6_
  6
Continuous
 62
     5
100
AcDbLine
 10
13234.45641374107
 20
10881.12042401288
 30
0.0
 11
15499.3708490504
 21
10881.12042401288
 31
0.0
  0
LINE
  5
256
330
22
100
AcDbEntity
  8
_0-6_
  6
Continuous
 62
     5
100
AcDbLine
 10
13234.45641374107
 20
10781.12009409311
 30
0.0
 11
15557.10598286586
 21
10781.12009409311
 31
0.0
  0
LINE
  5
257
330
22
100
AcDbEntity
  8
_0-6_
  6
Continuous
 62
     5
100
AcDbLine
 10
13234.45641374107
 20
10481.12034153294
 30
0.0
 11
15730.31138431223
 21
10481.12034153294
 31
0.0
  0
LINE
  5
258
330
22
100
AcDbEntity
  8
_0-6_
  6
Continuous
 62
     5
100
AcDbLine
 10
13234.45641374107
 20
10581.1206714527
 30
0.0
 11
15672.57501329766
 21
10581.1206714527
 31
0.0
  0
LINE
  5
259
330
22
100
AcDbEntity
  8
_0-6_
  6
Continuous
 62
     5
100
AcDbLine
 10
13234.45641374107
 20
10381.12001161317
 30
0.0
 11
15788.04651812769
 21
10381.12001161317
 31
0.0
  0
LINE
  5
25A
330
22
100
AcDbEntity
  8
_0-6_
  6
Continuous
 62
     5
100
AcDbLine
 10
13234.45641374107
 20
10281.11968169341
 30
0.0
 11
15845.78165194314
 21
10281.11968169341
 31
0.0
  0
LINE
  5
25B
330
22
100
AcDbEntity
  8
_0-6_
  6
Continuous
 62
     5
100
AcDbLine
 10
13234.45641374107
 20
10181.12058897276
 30
0.0
 11
15903.51554855948
 21
10181.12058897276
 31
0.0
  0
LINE
  5
25C
330
22
100
AcDbEntity
  8
_0-6_
  6
Continuous
 62
     5
100
AcDbLine
 10
13234.45641374107
 20
10081.120259053
 30
0.0
 11
15961.25068237494
 21
10081.120259053
 31
0.0
  0
LINE
  5
25D
330
22
100
AcDbEntity
  8
_0-6_
  6
Continuous
 62
     5
100
AcDbLine
 10
13234.45641374107
 20
9981.119929133235
 30
0.0
 11
16018.9858161904
 21
9981.119929133235
 31
0.0
  0
LINE
  5
25E
330
22
100
AcDbEntity
  8
_0-6_
  6
Continuous
 62
     5
100
AcDbLine
 10
13334.45674366084
 20
14630.86308659734
 30
0.0
 11
13334.45674366084
 21
9781.12050649282
 31
0.0
  0
LINE
  5
25F
330
22
100
AcDbEntity
  8
_0-6_
  6
Continuous
 62
     5
100
AcDbLine
 10
13434.4570735806
 20
14457.65644795186
 30
0.0
 11
13434.4570735806
 21
9781.12050649282
 31
0.0
  0
LINE
  5
260
330
22
100
AcDbEntity
  8
_0-6_
  6
Continuous
 62
     5
100
AcDbLine
 10
13534.45616630125
 20
14284.45352090371
 30
0.0
 11
13534.45616630125
 21
9781.12050649282
 31
0.0
  0
LINE
  5
261
330
22
100
AcDbEntity
  8
_0-6_
  6
Continuous
 62
     5
100
AcDbLine
 10
13234.45641374107
 20
9881.119599213471
 30
0.0
 11
16076.72095000585
 21
9881.119599213471
 31
0.0
  0
LINE
  5
262
330
22
100
AcDbEntity
  8
_0-6_
  6
Continuous
 62
     5
100
AcDbLine
 10
16034.45575390154
 20
9954.325907939191
 30
0.0
 11
16034.45575390154
 21
9781.12050649282
 31
0.0
  0
LINE
  5
263
330
22
100
AcDbEntity
  8
_0-6_
  6
Continuous
 62
     5
100
AcDbLine
 10
15934.4566611809
 20
10127.53007218644
 30
0.0
 11
15934.4566611809
 21
9781.12050649282
 31
0.0
  0
LINE
  5
264
330
22
100
AcDbEntity
  8
_0-6_
  6
Continuous
 62
     5
100
AcDbLine
 10
15834.45633126113
 20
10300.73547363281
 30
0.0
 11
15834.45633126113
 21
9781.12050649282
 31
0.0
  0
LINE
  5
265
330
22
100
AcDbEntity
  8
_0-6_
  6
Continuous
 62
     5
100
AcDbLine
 10
15734.45600134137
 20
10473.94087507918
 30
0.0
 11
15734.45600134137
 21
9781.12050649282
 31
0.0
  0
LINE
  5
266
330
22
100
AcDbEntity
  8
_0-6_
  6
Continuous
 62
     5
100
AcDbLine
 10
15634.4556714216
 20
10647.14627652554
 30
0.0
 11
15634.4556714216
 21
9781.12050649282
 31
0.0
  0
LINE
  5
267
330
22
100
AcDbEntity
  8
_0-6_
  6
Continuous
 62
     5
100
AcDbLine
 10
15534.45657870095
 20
10820.3504407728
 30
0.0
 11
15534.45657870095
 21
9781.12050649282
 31
0.0
  0
LINE
  5
268
330
22
100
AcDbEntity
  8
_0-6_
  6
Continuous
 62
     5
100
AcDbLine
 10
13234.45641374107
 20
10681.11976417335
 30
0.0
 11
15614.84111668132
 21
10681.11976417335
 31
0.0
  0
LINE
  5
269
330
22
100
AcDbEntity
  8
_0-6_
  6
Continuous
 62
     5
100
AcDbLine
 10
15434.45624878119
 20
10993.55584221917
 30
0.0
 11
15434.45624878119
 21
9781.12050649282
 31
0.0
  0
LINE
  5
26A
330
22
100
AcDbEntity
  8
_0-6_
  6
Continuous
 62
     5
100
AcDbLine
 10
15334.45591886143
 20
11166.76124366554
 30
0.0
 11
15334.45591886143
 21
9781.12050649282
 31
0.0
  0
LINE
  5
26B
330
22
100
AcDbEntity
  8
_0-6_
  6
Continuous
 62
     5
100
AcDbLine
 10
15234.45558894166
 20
11339.96664511191
 30
0.0
 11
15234.45558894166
 21
9781.12050649282
 31
0.0
  0
LINE
  5
26C
330
22
100
AcDbEntity
  8
_0-6_
  6
Continuous
 62
     5
100
AcDbLine
 10
15134.45649622101
 20
11513.17080935916
 30
0.0
 11
15134.45649622101
 21
9781.12050649282
 31
0.0
  0
LINE
  5
26D
330
22
100
AcDbEntity
  8
_0-6_
  6
Continuous
 62
     5
100
AcDbLine
 10
15034.45616630125
 20
11686.37621080553
 30
0.0
 11
15034.45616630125
 21
9781.12050649282
 31
0.0
  0
LINE
  5
26E
330
22
100
AcDbEntity
  8
_0-6_
  6
Continuous
 62
     5
100
AcDbLine
 10
13234.45641374107
 20
11681.12058897276
 30
0.0
 11
15037.49101572587
 21
11681.12058897276
 31
0.0
  0
LINE
  5
26F
330
22
100
AcDbEntity
  8
_0-6_
  6
Continuous
 62
     5
100
AcDbLine
 10
14834.45674366083
 20
12032.78577649915
 30
0.0
 11
14834.45674366083
 21
9781.12050649282
 31
0.0
  0
LINE
  5
270
330
22
100
AcDbEntity
  8
_0-6_
  6
Continuous
 62
     5
100
AcDbLine
 10
14934.45583638148
 20
11859.5816122519
 30
0.0
 11
14934.45583638148
 21
9781.12050649282
 31
0.0
  0
LINE
  5
271
330
22
100
AcDbEntity
  8
_0-6_
  6
Continuous
 62
     5
100
AcDbLine
 10
14734.45641374107
 20
12205.99117794552
 30
0.0
 11
14734.45641374107
 21
9781.12050649282
 31
0.0
  0
LINE
  5
272
330
22
100
AcDbEntity
  8
_0-6_
  6
Continuous
 62
     5
100
AcDbLine
 10
14634.45608382131
 20
12379.19657939189
 30
0.0
 11
14634.45608382131
 21
9781.12050649282
 31
0.0
  0
LINE
  5
273
330
22
100
AcDbEntity
  8
_0-6_
  6
Continuous
 62
     5
100
AcDbLine
 10
14534.45575390154
 20
12552.40198083826
 30
0.0
 11
14534.45575390154
 21
9781.12050649282
 31
0.0
  0
LINE
  5
274
330
22
100
AcDbEntity
  8
_0-6_
  6
Continuous
 62
     5
100
AcDbLine
 10
13234.45641374107
 20
12481.11951673353
 30
0.0
 11
14575.61118240133
 21
12481.11951673353
 31
0.0
  0
LINE
  5
275
330
22
100
AcDbEntity
  8
_0-6_
  6
Continuous
 62
     5
100
AcDbLine
 10
14434.45666118089
 20
12725.60614508551
 30
0.0
 11
14434.45666118089
 21
9781.12050649282
 31
0.0
  0
LINE
  5
276
330
22
100
AcDbEntity
  8
_0-6_
  6
Continuous
 62
     5
100
AcDbLine
 10
14334.45633126113
 20
12898.81154653188
 30
0.0
 11
14334.45633126113
 21
9781.12050649282
 31
0.0
  0
LINE
  5
277
330
22
100
AcDbEntity
  8
_0-6_
  6
Continuous
 62
     5
100
AcDbLine
 10
14234.45600134136
 20
13072.01694797825
 30
0.0
 11
14234.45600134136
 21
9781.12050649282
 31
0.0
  0
LINE
  5
278
330
22
100
AcDbEntity
  8
_0-6_
  6
Continuous
 62
     5
100
AcDbLine
 10
14134.4556714216
 20
13245.22234942462
 30
0.0
 11
14134.4556714216
 21
9781.12050649282
 31
0.0
  0
LINE
  5
279
330
22
100
AcDbEntity
  8
_0-6_
  6
Continuous
 62
     5
100
AcDbLine
 10
14034.45657870095
 20
13418.42651367187
 30
0.0
 11
14034.45657870095
 21
9781.12050649282
 31
0.0
  0
LINE
  5
27A
330
22
100
AcDbEntity
  8
_0-6_
  6
Continuous
 62
     5
100
AcDbLine
 10
13934.45624878119
 20
13591.63191511824
 30
0.0
 11
13934.45624878119
 21
9781.12050649282
 31
0.0
  0
LINE
  5
27B
330
22
100
AcDbEntity
  8
_0-6_
  6
Continuous
 62
     5
100
AcDbLine
 10
13834.45591886143
 20
13764.83731656461
 30
0.0
 11
13834.45591886143
 21
9781.12050649282
 31
0.0
  0
LINE
  5
27C
330
22
100
AcDbEntity
  8
_0-6_
  6
Continuous
 62
     5
100
AcDbLine
 10
13734.45558894166
 20
13938.04271801098
 30
0.0
 11
13734.45558894166
 21
9781.12050649282
 31
0.0
  0
LINE
  5
27D
330
22
100
AcDbEntity
  8
_0-6_
  6
Continuous
 62
     5
100
AcDbLine
 10
13234.45641374107
 20
13581.1206714527
 30
0.0
 11
13940.52471043132
 21
13581.1206714527
 31
0.0
  0
LINE
  5
27E
330
22
100
AcDbEntity
  8
_0-6_
  6
Continuous
 62
     5
100
AcDbLine
 10
13234.45641374107
 20
13481.12034153294
 30
0.0
 11
13998.25984424677
 21
13481.12034153294
 31
0.0
  0
LINE
  5
27F
330
22
100
AcDbEntity
  8
_0-6_
  6
Continuous
 62
     5
100
AcDbLine
 10
13634.45649622101
 20
14111.24688225823
 30
0.0
 11
13634.45649622101
 21
9781.12050649282
 31
0.0
  0
LINE
  5
280
330
22
100
AcDbEntity
  8
_0-2_
  6
Continuous
 62
     7
100
AcDbLine
 10
13405.55239069948
 20
14530.19095755912
 30
0.0
 11
13436.25719829027
 21
9931.21502850507
 31
0.0
  0
LINE
  5
281
330
22
100
AcDbEntity
  8
_0-6_
  6
Continuous
 62
     5
100
AcDbLine
 10
33234.45558894166
 20
9781.12050649282
 30
0.0
 11
30240.28279676472
 21
14967.17958192568
 31
0.0
  0
LINE
  5
282
330
22
100
AcDbEntity
  8
_0-6_
  6
Continuous
 62
     5
100
AcDbLine
 10
30240.28279676472
 20
14967.17958192568
 30
0.0
 11
25324.75462821532
 21
23481.12364073058
 31
0.0
  0
LINE
  5
283
330
22
100
AcDbEntity
  8
_0-6_
  6
Continuous
 62
     5
100
AcDbLine
 10
33134.4552590219
 20
23481.12364073058
 30
0.0
 11
33134.4552590219
 21
9954.325907939191
 31
0.0
  0
LINE
  5
284
330
22
100
AcDbEntity
  8
_0-6_
  6
Continuous
 62
     5
100
AcDbLine
 10
33034.45492910213
 20
23481.12364073058
 30
0.0
 11
33034.45492910213
 21
10127.53254658467
 31
0.0
  0
LINE
  5
285
330
22
100
AcDbEntity
  8
_0-6_
  6
Continuous
 62
     5
100
AcDbLine
 10
32934.45459918238
 20
23481.12364073058
 30
0.0
 11
32934.45459918238
 21
10300.73671083192
 31
0.0
  0
LINE
  5
286
330
22
100
AcDbEntity
  8
_0-6_
  6
Continuous
 62
     5
100
AcDbLine
 10
32834.4542692626
 20
23481.12364073058
 30
0.0
 11
32834.4542692626
 21
10473.94334947741
 31
0.0
  0
LINE
  5
287
330
22
100
AcDbEntity
  8
_0-6_
  6
Continuous
 62
     5
100
AcDbLine
 10
32734.45641374108
 20
23481.12364073058
 30
0.0
 11
32734.45641374108
 21
10647.14380212732
 31
0.0
  0
LINE
  5
288
330
22
100
AcDbEntity
  8
_0-6_
  6
Continuous
 62
     5
100
AcDbLine
 10
32634.45608382131
 20
23481.12364073058
 30
0.0
 11
32634.45608382131
 21
10820.3504407728
 31
0.0
  0
LINE
  5
289
330
22
100
AcDbEntity
  8
_0-6_
  6
Continuous
 62
     5
100
AcDbLine
 10
32534.45575390155
 20
23481.12364073058
 30
0.0
 11
32534.45575390155
 21
10993.55584221917
 31
0.0
  0
LINE
  5
28A
330
22
100
AcDbEntity
  8
_0-6_
  6
Continuous
 62
     5
100
AcDbLine
 10
32434.45542398178
 20
23481.12364073058
 30
0.0
 11
32434.45542398178
 21
11166.76248086465
 31
0.0
  0
LINE
  5
28B
330
22
100
AcDbEntity
  8
_0-6_
  6
Continuous
 62
     5
100
AcDbLine
 10
32334.45509406203
 20
23481.12364073058
 30
0.0
 11
32334.45509406203
 21
11339.96664511191
 31
0.0
  0
LINE
  5
28C
330
22
100
AcDbEntity
  8
_0-6_
  6
Continuous
 62
     5
100
AcDbLine
 10
32234.45476414225
 20
23481.12364073058
 30
0.0
 11
32234.45476414225
 21
11513.17328375739
 31
0.0
  0
LINE
  5
28D
330
22
100
AcDbEntity
  8
_0-6_
  6
Continuous
 62
     5
100
AcDbLine
 10
32134.45443422249
 20
23481.12364073058
 30
0.0
 11
32134.45443422249
 21
11686.37744800464
 31
0.0
  0
LINE
  5
28E
330
22
100
AcDbEntity
  8
_0-6_
  6
Continuous
 62
     5
100
AcDbLine
 10
32034.45410430274
 20
23481.12364073058
 30
0.0
 11
32034.45410430274
 21
11859.58408665013
 31
0.0
  0
LINE
  5
28F
330
22
100
AcDbEntity
  8
_0-6_
  6
Continuous
 62
     5
100
AcDbLine
 10
31934.4562487812
 20
23481.12364073058
 30
0.0
 11
31934.4562487812
 21
12032.78453930004
 31
0.0
  0
LINE
  5
290
330
22
100
AcDbEntity
  8
_0-6_
  6
Continuous
 62
     5
100
AcDbLine
 10
31834.45591886143
 20
23481.12364073058
 30
0.0
 11
31834.45591886143
 21
12205.99117794552
 31
0.0
  0
LINE
  5
291
330
22
100
AcDbEntity
  8
_0-6_
  6
Continuous
 62
     5
100
AcDbLine
 10
31634.4552590219
 20
23481.12364073058
 30
0.0
 11
31634.4552590219
 21
12552.40198083826
 31
0.0
  0
LINE
  5
292
330
22
100
AcDbEntity
  8
_0-6_
  6
Continuous
 62
     5
100
AcDbLine
 10
31534.45492910214
 20
23481.12364073058
 30
0.0
 11
31534.45492910214
 21
12725.60738228463
 31
0.0
  0
LINE
  5
293
330
22
100
AcDbEntity
  8
_0-6_
  6
Continuous
 62
     5
100
AcDbLine
 10
31434.45459918238
 20
23481.12364073058
 30
0.0
 11
31434.45459918238
 21
12898.81278373099
 31
0.0
  0
LINE
  5
294
330
22
100
AcDbEntity
  8
_0-6_
  6
Continuous
 62
     5
100
AcDbLine
 10
31334.45426926261
 20
23481.12364073058
 30
0.0
 11
31334.45426926261
 21
13072.01818517736
 31
0.0
  0
LINE
  5
295
330
22
100
AcDbEntity
  8
_0-6_
  6
Continuous
 62
     5
100
AcDbLine
 10
31134.45608382131
 20
23481.12364073058
 30
0.0
 11
31134.45608382131
 21
13418.42651367187
 31
0.0
  0
LINE
  5
296
330
22
100
AcDbEntity
  8
_0-6_
  6
Continuous
 62
     5
100
AcDbLine
 10
31034.45575390154
 20
23481.12364073058
 30
0.0
 11
31034.45575390154
 21
13591.63191511824
 31
0.0
  0
LINE
  5
297
330
22
100
AcDbEntity
  8
_0-6_
  6
Continuous
 62
     5
100
AcDbLine
 10
30934.45542398178
 20
23481.12364073058
 30
0.0
 11
30934.45542398178
 21
13764.83731656461
 31
0.0
  0
LINE
  5
298
330
22
100
AcDbEntity
  8
_0-6_
  6
Continuous
 62
     5
100
AcDbLine
 10
25334.45426926261
 20
23481.12364073058
 30
0.0
 11
25334.45426926261
 21
23464.32247677365
 31
0.0
  0
LINE
  5
299
330
22
100
AcDbEntity
  8
_0-6_
  6
Continuous
 62
     5
100
AcDbLine
 10
25434.45459918237
 20
23481.12364073058
 30
0.0
 11
25434.45459918237
 21
23291.11707532728
 31
0.0
  0
LINE
  5
29A
330
22
100
AcDbEntity
  8
_0-6_
  6
Continuous
 62
     5
100
AcDbLine
 10
25534.45492910213
 20
23481.12364073058
 30
0.0
 11
25534.45492910213
 21
23117.91167388092
 31
0.0
  0
LINE
  5
29B
330
22
100
AcDbEntity
  8
_0-6_
  6
Continuous
 62
     5
100
AcDbLine
 10
25634.4552590219
 20
23481.12364073058
 30
0.0
 11
25634.4552590219
 21
22944.70627243454
 31
0.0
  0
LINE
  5
29C
330
22
100
AcDbEntity
  8
_0-6_
  6
Continuous
 62
     5
100
AcDbLine
 10
25734.45558894167
 20
23481.12364073058
 30
0.0
 11
25734.45558894167
 21
22771.50087098817
 31
0.0
  0
LINE
  5
29D
330
22
100
AcDbEntity
  8
_0-6_
  6
Continuous
 62
     5
100
AcDbLine
 10
25934.45377438297
 20
23481.12364073058
 30
0.0
 11
25934.45377438297
 21
22425.09501689189
 31
0.0
  0
LINE
  5
29E
330
22
100
AcDbEntity
  8
_0-6_
  6
Continuous
 62
     5
100
AcDbLine
 10
26034.45410430273
 20
23481.12364073058
 30
0.0
 11
26034.45410430273
 21
22251.88961544552
 31
0.0
  0
LINE
  5
29F
330
22
100
AcDbEntity
  8
_0-6_
  6
Continuous
 62
     5
100
AcDbLine
 10
26234.45476414226
 20
23481.12364073058
 30
0.0
 11
26234.45476414226
 21
21905.47633815457
 31
0.0
  0
LINE
  5
2A0
330
22
100
AcDbEntity
  8
_0-6_
  6
Continuous
 62
     5
100
AcDbLine
 10
26334.45509406202
 20
23481.12364073058
 30
0.0
 11
26334.45509406202
 21
21732.27093670819
 31
0.0
  0
LINE
  5
2A1
330
22
100
AcDbEntity
  8
_0-6_
  6
Continuous
 62
     5
100
AcDbLine
 10
26734.45641374108
 20
23481.12364073058
 30
0.0
 11
26734.45641374108
 21
21039.44933092272
 31
0.0
  0
LINE
  5
2A2
330
22
100
AcDbEntity
  8
_0-6_
  6
Continuous
 62
     5
100
AcDbLine
 10
26834.45426926261
 20
23481.12364073058
 30
0.0
 11
26834.45426926261
 21
20866.24887827281
 31
0.0
  0
LINE
  5
2A3
330
22
100
AcDbEntity
  8
_0-6_
  6
Continuous
 62
     5
100
AcDbLine
 10
26934.45459918237
 20
23481.12364073058
 30
0.0
 11
26934.45459918237
 21
20693.0397652291
 31
0.0
  0
LINE
  5
2A4
330
22
100
AcDbEntity
  8
_0-6_
  6
Continuous
 62
     5
100
AcDbLine
 10
27134.4552590219
 20
23481.12364073058
 30
0.0
 11
27134.4552590219
 21
20346.63019953548
 31
0.0
  0
LINE
  5
2A5
330
22
100
AcDbEntity
  8
_0-6_
  6
Continuous
 62
     5
100
AcDbLine
 10
27034.45492910213
 20
23481.12364073058
 30
0.0
 11
27034.45492910213
 21
20519.83560098184
 31
0.0
  0
LINE
  5
2A6
330
22
100
AcDbEntity
  8
_0-6_
  6
Continuous
 62
     5
100
AcDbLine
 10
27534.45410430273
 20
23481.12364073058
 30
0.0
 11
27534.45410430273
 21
19653.81230534734
 31
0.0
  0
LINE
  5
2A7
330
22
100
AcDbEntity
  8
_0-6_
  6
Continuous
 62
     5
100
AcDbLine
 10
27434.45377438296
 20
23481.12364073058
 30
0.0
 11
27434.45377438296
 21
19827.01770679371
 31
0.0
  0
LINE
  5
2A8
330
22
100
AcDbEntity
  8
_0-6_
  6
Continuous
 62
     5
100
AcDbLine
 10
27834.45509406201
 20
23481.12364073058
 30
0.0
 11
27834.45509406201
 21
19134.19486380912
 31
0.0
  0
LINE
  5
2A9
330
22
100
AcDbEntity
  8
_0-6_
  6
Continuous
 62
     5
100
AcDbLine
 10
27934.45542398178
 20
23481.12364073058
 30
0.0
 11
27934.45542398178
 21
18960.98946236275
 31
0.0
  0
LINE
  5
2AA
330
22
100
AcDbEntity
  8
_0-6_
  6
Continuous
 62
     5
100
AcDbLine
 10
28034.45575390155
 20
23481.12364073058
 30
0.0
 11
28034.45575390155
 21
18787.78406091639
 31
0.0
  0
LINE
  5
2AB
330
22
100
AcDbEntity
  8
_0-6_
  6
Continuous
 62
     5
100
AcDbLine
 10
28134.45608382131
 20
23481.12364073058
 30
0.0
 11
28134.45608382131
 21
18614.57865947002
 31
0.0
  0
LINE
  5
2AC
330
22
100
AcDbEntity
  8
_0-6_
  6
Continuous
 62
     5
100
AcDbLine
 10
28434.45459918239
 20
23481.12364073058
 30
0.0
 11
28434.45459918239
 21
18094.96492952914
 31
0.0
  0
LINE
  5
2AD
330
22
100
AcDbEntity
  8
_0-6_
  6
Continuous
 62
     5
100
AcDbLine
 10
28534.45492910213
 20
23481.12364073058
 30
0.0
 11
28534.45492910213
 21
17921.75952808277
 31
0.0
  0
LINE
  5
2AE
330
22
100
AcDbEntity
  8
_0-6_
  6
Continuous
 62
     5
100
AcDbLine
 10
28934.45377438296
 20
23481.12364073058
 30
0.0
 11
28934.45377438296
 21
17228.94163389464
 31
0.0
  0
LINE
  5
2AF
330
22
100
AcDbEntity
  8
_0-6_
  6
Continuous
 62
     5
100
AcDbLine
 10
29134.45443422249
 20
23481.12364073058
 30
0.0
 11
29134.45443422249
 21
16882.52959380279
 31
0.0
  0
LINE
  5
2B0
330
22
100
AcDbEntity
  8
_0-6_
  6
Continuous
 62
     5
100
AcDbLine
 10
29234.45476414225
 20
23481.12364073058
 30
0.0
 11
29234.45476414225
 21
16709.32419235642
 31
0.0
  0
LINE
  5
2B1
330
22
100
AcDbEntity
  8
_0-6_
  6
Continuous
 62
     5
100
AcDbLine
 10
29334.45509406202
 20
23481.12364073058
 30
0.0
 11
29334.45509406202
 21
16536.11879091005
 31
0.0
  0
LINE
  5
2B2
330
22
100
AcDbEntity
  8
_0-6_
  6
Continuous
 62
     5
100
AcDbLine
 10
29434.45542398178
 20
23481.12364073058
 30
0.0
 11
29434.45542398178
 21
16362.91338946368
 31
0.0
  0
LINE
  5
2B3
330
22
100
AcDbEntity
  8
_0-6_
  6
Continuous
 62
     5
100
AcDbLine
 10
29534.45575390155
 20
23481.12364073058
 30
0.0
 11
29534.45575390155
 21
16189.70798801731
 31
0.0
  0
LINE
  5
2B4
330
22
100
AcDbEntity
  8
_0-6_
  6
Continuous
 62
     5
100
AcDbLine
 10
29834.45426926261
 20
23481.12364073058
 30
0.0
 11
29834.45426926261
 21
15670.09549527555
 31
0.0
  0
LINE
  5
2B5
330
22
100
AcDbEntity
  8
_0-6_
  6
Continuous
 62
     5
100
AcDbLine
 10
30234.45558894166
 20
23481.12364073058
 30
0.0
 11
30234.45558894166
 21
14977.27265229096
 31
0.0
  0
LINE
  5
2B6
330
22
100
AcDbEntity
  8
_0-6_
  6
Continuous
 62
     5
100
AcDbLine
 10
30034.45492910213
 20
23481.12364073058
 30
0.0
 11
30034.45492910213
 21
15323.6834551837
 31
0.0
  0
LINE
  5
2B7
330
22
100
AcDbEntity
  8
_0-6_
  6
Continuous
 62
     5
100
AcDbLine
 10
30134.4552590219
 20
23481.12364073058
 30
0.0
 11
30134.4552590219
 21
15150.47805373733
 31
0.0
  0
LINE
  5
2B8
330
22
100
AcDbEntity
  8
_0-6_
  6
Continuous
 62
     5
100
AcDbLine
 10
30534.45410430274
 20
23481.12364073058
 30
0.0
 11
30534.45410430274
 21
14457.65892235009
 31
0.0
  0
LINE
  5
2B9
330
22
100
AcDbEntity
  8
_0-6_
  6
Continuous
 62
     5
100
AcDbLine
 10
30634.45443422249
 20
23481.12364073058
 30
0.0
 11
30634.45443422249
 21
14284.45352090371
 31
0.0
  0
LINE
  5
2BA
330
22
100
AcDbEntity
  8
_0-6_
  6
Continuous
 62
     5
100
AcDbLine
 10
25382.48976203077
 20
23381.12331081081
 30
0.0
 11
33234.45558894166
 21
23381.12331081081
 31
0.0
  0
LINE
  5
2BB
330
22
100
AcDbEntity
  8
_0-6_
  6
Continuous
 62
     5
100
AcDbLine
 10
25440.22489584623
 20
23281.12298089105
 30
0.0
 11
33234.45558894166
 21
23281.12298089105
 31
0.0
  0
LINE
  5
2BC
330
22
100
AcDbEntity
  8
_0-6_
  6
Continuous
 62
     5
100
AcDbLine
 10
25497.96002966168
 20
23181.12265097128
 30
0.0
 11
33234.45558894166
 21
23181.12265097128
 31
0.0
  0
LINE
  5
2BD
330
22
100
AcDbEntity
  8
_0-6_
  6
Continuous
 62
     5
100
AcDbLine
 10
25834.45591886142
 20
23481.12364073058
 30
0.0
 11
25834.45591886142
 21
22598.29546954181
 31
0.0
  0
LINE
  5
2BE
330
22
100
AcDbEntity
  8
_0-6_
  6
Continuous
 62
     5
100
AcDbLine
 10
25613.43029729259
 20
22981.12446552999
 30
0.0
 11
33234.45558894166
 21
22981.12446552999
 31
0.0
  0
LINE
  5
2BF
330
22
100
AcDbEntity
  8
_0-6_
  6
Continuous
 62
     5
100
AcDbLine
 10
25555.69516347713
 20
23081.12232105152
 30
0.0
 11
33234.45558894166
 21
23081.12232105152
 31
0.0
  0
LINE
  5
2C0
330
22
100
AcDbEntity
  8
_0-6_
  6
Continuous
 62
     5
100
AcDbLine
 10
25671.16543110805
 20
22881.12413561023
 30
0.0
 11
33234.45558894166
 21
22881.12413561023
 31
0.0
  0
LINE
  5
2C1
330
22
100
AcDbEntity
  8
_0-6_
  6
Continuous
 62
     5
100
AcDbLine
 10
25728.9005649235
 20
22781.12380569046
 30
0.0
 11
33234.45558894166
 21
22781.12380569046
 31
0.0
  0
LINE
  5
2C2
330
22
100
AcDbEntity
  8
_0-6_
  6
Continuous
 62
     5
100
AcDbLine
 10
25786.63569873897
 20
22681.12347577069
 30
0.0
 11
33234.45558894166
 21
22681.12347577069
 31
0.0
  0
LINE
  5
2C3
330
22
100
AcDbEntity
  8
_0-6_
  6
Continuous
 62
     5
100
AcDbLine
 10
25844.37083255442
 20
22581.12314585093
 30
0.0
 11
33234.45558894166
 21
22581.12314585093
 31
0.0
  0
LINE
  5
2C4
330
22
100
AcDbEntity
  8
_0-6_
  6
Continuous
 62
     5
100
AcDbLine
 10
25902.10596636987
 20
22481.12281593116
 30
0.0
 11
33234.45558894166
 21
22481.12281593116
 31
0.0
  0
LINE
  5
2C5
330
22
100
AcDbEntity
  8
_0-6_
  6
Continuous
 62
     5
100
AcDbLine
 10
26134.45443422249
 20
23481.12364073058
 30
0.0
 11
26134.45443422249
 21
22078.68173960093
 31
0.0
  0
LINE
  5
2C6
330
22
100
AcDbEntity
  8
_0-6_
  6
Continuous
 62
     5
100
AcDbLine
 10
25959.84110018533
 20
22381.12248601141
 30
0.0
 11
33234.45558894166
 21
22381.12248601141
 31
0.0
  0
LINE
  5
2C7
330
22
100
AcDbEntity
  8
_0-6_
  6
Continuous
 62
     5
100
AcDbLine
 10
26017.57623400079
 20
22281.12215609164
 30
0.0
 11
33234.45558894166
 21
22281.12215609164
 31
0.0
  0
LINE
  5
2C8
330
22
100
AcDbEntity
  8
_0-6_
  6
Continuous
 62
     5
100
AcDbLine
 10
26075.31136781624
 20
22181.12182617188
 30
0.0
 11
33234.45558894166
 21
22181.12182617188
 31
0.0
  0
LINE
  5
2C9
330
22
100
AcDbEntity
  8
_0-6_
  6
Continuous
 62
     5
100
AcDbLine
 10
26133.0465016317
 20
22081.12149625212
 30
0.0
 11
33234.45558894166
 21
22081.12149625212
 31
0.0
  0
LINE
  5
2CA
330
22
100
AcDbEntity
  8
_0-6_
  6
Continuous
 62
     5
100
AcDbLine
 10
26190.77916104893
 20
21981.12364073058
 30
0.0
 11
33234.45558894166
 21
21981.12364073058
 31
0.0
  0
LINE
  5
2CB
330
22
100
AcDbEntity
  8
_0-6_
  6
Continuous
 62
     5
100
AcDbLine
 10
26434.45542398178
 20
23481.12364073058
 30
0.0
 11
26434.45542398178
 21
21559.06553526183
 31
0.0
  0
LINE
  5
2CC
330
22
100
AcDbEntity
  8
_0-6_
  6
Continuous
 62
     5
100
AcDbLine
 10
26534.45575390155
 20
23481.12364073058
 30
0.0
 11
26534.45575390155
 21
21385.86013381546
 31
0.0
  0
LINE
  5
2CD
330
22
100
AcDbEntity
  8
_0-6_
  6
Continuous
 62
     5
100
AcDbLine
 10
26248.51429486438
 20
21881.12331081081
 30
0.0
 11
33234.45558894166
 21
21881.12331081081
 31
0.0
  0
LINE
  5
2CE
330
22
100
AcDbEntity
  8
_0-6_
  6
Continuous
 62
     5
100
AcDbLine
 10
26306.24942867984
 20
21781.12298089105
 30
0.0
 11
33234.45558894166
 21
21781.12298089105
 31
0.0
  0
LINE
  5
2CF
330
22
100
AcDbEntity
  8
_0-6_
  6
Continuous
 62
     5
100
AcDbLine
 10
26363.98456249529
 20
21681.12265097128
 30
0.0
 11
33234.45558894166
 21
21681.12265097128
 31
0.0
  0
LINE
  5
2D0
330
22
100
AcDbEntity
  8
_0-6_
  6
Continuous
 62
     5
100
AcDbLine
 10
26634.45608382132
 20
23481.12364073058
 30
0.0
 11
26634.45608382132
 21
21212.65473236909
 31
0.0
  0
LINE
  5
2D1
330
22
100
AcDbEntity
  8
_0-6_
  6
Continuous
 62
     5
100
AcDbLine
 10
26479.45730452444
 20
21481.12199113176
 30
0.0
 11
33234.45558894166
 21
21481.12199113176
 31
0.0
  0
LINE
  5
2D2
330
22
100
AcDbEntity
  8
_0-6_
  6
Continuous
 62
     5
100
AcDbLine
 10
26421.72217070898
 20
21581.12232105152
 30
0.0
 11
33234.45558894166
 21
21581.12232105152
 31
0.0
  0
LINE
  5
2D3
330
22
100
AcDbEntity
  8
_0-6_
  6
Continuous
 62
     5
100
AcDbLine
 10
26537.18996394167
 20
21381.121661212
 30
0.0
 11
33234.45558894166
 21
21381.121661212
 31
0.0
  0
LINE
  5
2D4
330
22
100
AcDbEntity
  8
_0-6_
  6
Continuous
 62
     5
100
AcDbLine
 10
26594.92757215535
 20
21281.12133129224
 30
0.0
 11
33234.45558894166
 21
21281.12133129224
 31
0.0
  0
LINE
  5
2D5
330
22
100
AcDbEntity
  8
_0-6_
  6
Continuous
 62
     5
100
AcDbLine
 10
26652.66023157258
 20
21181.12347577069
 30
0.0
 11
33234.45558894166
 21
21181.12347577069
 31
0.0
  0
LINE
  5
2D6
330
22
100
AcDbEntity
  8
_0-6_
  6
Continuous
 62
     5
100
AcDbLine
 10
26710.39536538804
 20
21081.12314585093
 30
0.0
 11
33234.45558894166
 21
21081.12314585093
 31
0.0
  0
LINE
  5
2D7
330
22
100
AcDbEntity
  8
_0-6_
  6
Continuous
 62
     5
100
AcDbLine
 10
26768.13049920349
 20
20981.12281593117
 30
0.0
 11
33234.45558894166
 21
20981.12281593117
 31
0.0
  0
LINE
  5
2D8
330
22
100
AcDbEntity
  8
_0-6_
  6
Continuous
 62
     5
100
AcDbLine
 10
26825.86563301895
 20
20881.12248601141
 30
0.0
 11
33234.45558894166
 21
20881.12248601141
 31
0.0
  0
LINE
  5
2D9
330
22
100
AcDbEntity
  8
_0-6_
  6
Continuous
 62
     5
100
AcDbLine
 10
26883.60076683441
 20
20781.12215609164
 30
0.0
 11
33234.45558894166
 21
20781.12215609164
 31
0.0
  0
LINE
  5
2DA
330
22
100
AcDbEntity
  8
_0-6_
  6
Continuous
 62
     5
100
AcDbLine
 10
26941.33590064986
 20
20681.12058897277
 30
0.0
 11
33234.45558894166
 21
20681.12058897277
 31
0.0
  0
LINE
  5
2DB
330
22
100
AcDbEntity
  8
_0-6_
  6
Continuous
 62
     5
100
AcDbLine
 10
27234.45558894167
 20
23481.12364073058
 30
0.0
 11
27234.45558894167
 21
20173.42479808911
 31
0.0
  0
LINE
  5
2DC
330
22
100
AcDbEntity
  8
_0-6_
  6
Continuous
 62
     5
100
AcDbLine
 10
27334.45591886143
 20
23481.12364073058
 30
0.0
 11
27334.45591886143
 21
20000.21939664274
 31
0.0
  0
LINE
  5
2DD
330
22
100
AcDbEntity
  8
_0-6_
  6
Continuous
 62
     5
100
AcDbLine
 10
26999.07103446532
 20
20581.120259053
 30
0.0
 11
33234.45558894166
 21
20581.120259053
 31
0.0
  0
LINE
  5
2DE
330
22
100
AcDbEntity
  8
_0-6_
  6
Continuous
 62
     5
100
AcDbLine
 10
27056.80616828077
 20
20481.12240353147
 30
0.0
 11
33234.45558894166
 21
20481.12240353147
 31
0.0
  0
LINE
  5
2DF
330
22
100
AcDbEntity
  8
_0-6_
  6
Continuous
 62
     5
100
AcDbLine
 10
27114.54130209623
 20
20381.12207361169
 30
0.0
 11
33234.45558894166
 21
20381.12207361169
 31
0.0
  0
LINE
  5
2E0
330
22
100
AcDbEntity
  8
_0-6_
  6
Continuous
 62
     5
100
AcDbLine
 10
27172.27643591168
 20
20281.12298089105
 30
0.0
 11
33234.45558894166
 21
20281.12298089105
 31
0.0
  0
LINE
  5
2E1
330
22
100
AcDbEntity
  8
_0-6_
  6
Continuous
 62
     5
100
AcDbLine
 10
27230.01156972713
 20
20181.12265097129
 30
0.0
 11
33234.45558894166
 21
20181.12265097129
 31
0.0
  0
LINE
  5
2E2
330
22
100
AcDbEntity
  8
_0-6_
  6
Continuous
 62
     5
100
AcDbLine
 10
27287.7467035426
 20
20081.12232105152
 30
0.0
 11
33234.45558894166
 21
20081.12232105152
 31
0.0
  0
LINE
  5
2E3
330
22
100
AcDbEntity
  8
_0-6_
  6
Continuous
 62
     5
100
AcDbLine
 10
27345.48183735804
 20
19981.12199113176
 30
0.0
 11
33234.45558894166
 21
19981.12199113176
 31
0.0
  0
LINE
  5
2E4
330
22
100
AcDbEntity
  8
_0-6_
  6
Continuous
 62
     5
100
AcDbLine
 10
27403.21697117351
 20
19881.12289841111
 30
0.0
 11
33234.45558894166
 21
19881.12289841111
 31
0.0
  0
LINE
  5
2E5
330
22
100
AcDbEntity
  8
_0-6_
  6
Continuous
 62
     5
100
AcDbLine
 10
27460.95210498897
 20
19781.12256849134
 30
0.0
 11
33234.45558894166
 21
19781.12256849134
 31
0.0
  0
LINE
  5
2E6
330
22
100
AcDbEntity
  8
_0-6_
  6
Continuous
 62
     5
100
AcDbLine
 10
27734.45476414225
 20
23481.12364073058
 30
0.0
 11
27734.45476414225
 21
19307.40026525549
 31
0.0
  0
LINE
  5
2E7
330
22
100
AcDbEntity
  8
_0-6_
  6
Continuous
 62
     5
100
AcDbLine
 10
27576.41989822165
 20
19581.12314585093
 30
0.0
 11
33234.45558894166
 21
19581.12314585093
 31
0.0
  0
LINE
  5
2E8
330
22
100
AcDbEntity
  8
_0-6_
  6
Continuous
 62
     5
100
AcDbLine
 10
27634.45443422249
 20
23481.12364073058
 30
0.0
 11
27634.45443422249
 21
19480.60566670186
 31
0.0
  0
LINE
  5
2E9
330
22
100
AcDbEntity
  8
_0-6_
  6
Continuous
 62
     5
100
AcDbLine
 10
27518.68723880442
 20
19681.12223857158
 30
0.0
 11
33234.45558894166
 21
19681.12223857158
 31
0.0
  0
LINE
  5
2EA
330
22
100
AcDbEntity
  8
_0-6_
  6
Continuous
 62
     5
100
AcDbLine
 10
27634.15750643533
 20
19481.12281593116
 30
0.0
 11
33234.45558894166
 21
19481.12281593116
 31
0.0
  0
LINE
  5
2EB
330
22
100
AcDbEntity
  8
_0-6_
  6
Continuous
 62
     5
100
AcDbLine
 10
27691.89264025079
 20
19381.1224860114
 30
0.0
 11
33234.45558894166
 21
19381.1224860114
 31
0.0
  0
LINE
  5
2EC
330
22
100
AcDbEntity
  8
_0-6_
  6
Continuous
 62
     5
100
AcDbLine
 10
27749.62777406625
 20
19281.12215609164
 30
0.0
 11
33234.45558894166
 21
19281.12215609164
 31
0.0
  0
LINE
  5
2ED
330
22
100
AcDbEntity
  8
_0-6_
  6
Continuous
 62
     5
100
AcDbLine
 10
27807.3629078817
 20
19181.12182617187
 30
0.0
 11
33234.45558894166
 21
19181.12182617187
 31
0.0
  0
LINE
  5
2EE
330
22
100
AcDbEntity
  8
_0-6_
  6
Continuous
 62
     5
100
AcDbLine
 10
27865.09556729892
 20
19081.12273345122
 30
0.0
 11
33234.45558894166
 21
19081.12273345122
 31
0.0
  0
LINE
  5
2EF
330
22
100
AcDbEntity
  8
_0-6_
  6
Continuous
 62
     5
100
AcDbLine
 10
33176.72045512621
 20
9881.122073611697
 30
0.0
 11
33234.45558894166
 21
9881.122073611697
 31
0.0
  0
LINE
  5
2F0
330
22
100
AcDbEntity
  8
_0-6_
  6
Continuous
 62
     5
100
AcDbLine
 10
33118.98284691253
 20
9981.122403531463
 30
0.0
 11
33234.45558894166
 21
9981.122403531463
 31
0.0
  0
LINE
  5
2F1
330
22
100
AcDbEntity
  8
_0-6_
  6
Continuous
 62
     5
100
AcDbLine
 10
33061.2501874953
 20
10081.12149625211
 30
0.0
 11
33234.45558894166
 21
10081.12149625211
 31
0.0
  0
LINE
  5
2F2
330
22
100
AcDbEntity
  8
_0-6_
  6
Continuous
 62
     5
100
AcDbLine
 10
33003.51505367984
 20
10181.12182617187
 30
0.0
 11
33234.45558894166
 21
10181.12182617187
 31
0.0
  0
LINE
  5
2F3
330
22
100
AcDbEntity
  8
_0-6_
  6
Continuous
 62
     5
100
AcDbLine
 10
32945.77991986439
 20
10281.12215609164
 30
0.0
 11
33234.45558894166
 21
10281.12215609164
 31
0.0
  0
LINE
  5
2F4
330
22
100
AcDbEntity
  8
_0-6_
  6
Continuous
 62
     5
100
AcDbLine
 10
32888.04478604893
 20
10381.1224860114
 30
0.0
 11
33234.45558894166
 21
10381.1224860114
 31
0.0
  0
LINE
  5
2F5
330
22
100
AcDbEntity
  8
_0-6_
  6
Continuous
 62
     5
100
AcDbLine
 10
32830.30965223348
 20
10481.12281593117
 30
0.0
 11
33234.45558894166
 21
10481.12281593117
 31
0.0
  0
LINE
  5
2F6
330
22
100
AcDbEntity
  8
_0-6_
  6
Continuous
 62
     5
100
AcDbLine
 10
32772.574518418
 20
10581.12314585093
 30
0.0
 11
33234.45558894166
 21
10581.12314585093
 31
0.0
  0
LINE
  5
2F7
330
22
100
AcDbEntity
  8
_0-6_
  6
Continuous
 62
     5
100
AcDbLine
 10
32714.83938460256
 20
10681.12223857158
 30
0.0
 11
33234.45558894166
 21
10681.12223857158
 31
0.0
  0
LINE
  5
2F8
330
22
100
AcDbEntity
  8
_0-6_
  6
Continuous
 62
     5
100
AcDbLine
 10
32657.10425078712
 20
10781.12256849134
 30
0.0
 11
33234.45558894166
 21
10781.12256849134
 31
0.0
  0
LINE
  5
2F9
330
22
100
AcDbEntity
  8
_0-6_
  6
Continuous
 62
     5
100
AcDbLine
 10
32599.36911697165
 20
10881.12166121199
 30
0.0
 11
33234.45558894166
 21
10881.12166121199
 31
0.0
  0
LINE
  5
2FA
330
22
100
AcDbEntity
  8
_0-6_
  6
Continuous
 62
     5
100
AcDbLine
 10
32541.6339831562
 20
10981.12199113176
 30
0.0
 11
33234.45558894166
 21
10981.12199113176
 31
0.0
  0
LINE
  5
2FB
330
22
100
AcDbEntity
  8
_0-6_
  6
Continuous
 62
     5
100
AcDbLine
 10
32426.16371552528
 20
11181.12265097128
 30
0.0
 11
33234.45558894166
 21
11181.12265097128
 31
0.0
  0
LINE
  5
2FC
330
22
100
AcDbEntity
  8
_0-6_
  6
Continuous
 62
     5
100
AcDbLine
 10
32368.42858170983
 20
11281.12298089104
 30
0.0
 11
33234.45558894166
 21
11281.12298089104
 31
0.0
  0
LINE
  5
2FD
330
22
100
AcDbEntity
  8
_0-6_
  6
Continuous
 62
     5
100
AcDbLine
 10
32310.69344789437
 20
11381.1220736117
 30
0.0
 11
33234.45558894166
 21
11381.1220736117
 31
0.0
  0
LINE
  5
2FE
330
22
100
AcDbEntity
  8
_0-6_
  6
Continuous
 62
     5
100
AcDbLine
 10
32252.95831407891
 20
11481.12240353146
 30
0.0
 11
33234.45558894166
 21
11481.12240353146
 31
0.0
  0
LINE
  5
2FF
330
22
100
AcDbEntity
  8
_0-6_
  6
Continuous
 62
     5
100
AcDbLine
 10
32195.22565466168
 20
11581.12149625211
 30
0.0
 11
33234.45558894166
 21
11581.12149625211
 31
0.0
  0
LINE
  5
300
330
22
100
AcDbEntity
  8
_0-6_
  6
Continuous
 62
     5
100
AcDbLine
 10
32137.488046448
 20
11681.12182617187
 30
0.0
 11
33234.45558894166
 21
11681.12182617187
 31
0.0
  0
LINE
  5
301
330
22
100
AcDbEntity
  8
_0-6_
  6
Continuous
 62
     5
100
AcDbLine
 10
32079.75538703077
 20
11781.12215609164
 30
0.0
 11
33234.45558894166
 21
11781.12215609164
 31
0.0
  0
LINE
  5
302
330
22
100
AcDbEntity
  8
_0-6_
  6
Continuous
 62
     5
100
AcDbLine
 10
32022.01777881709
 20
11881.1224860114
 30
0.0
 11
33234.45558894166
 21
11881.1224860114
 31
0.0
  0
LINE
  5
303
330
22
100
AcDbEntity
  8
_0-6_
  6
Continuous
 62
     5
100
AcDbLine
 10
31964.28264500163
 20
11981.12281593116
 30
0.0
 11
33234.45558894166
 21
11981.12281593116
 31
0.0
  0
LINE
  5
304
330
22
100
AcDbEntity
  8
_0-6_
  6
Continuous
 62
     5
100
AcDbLine
 10
31906.54751118617
 20
12081.12314585093
 30
0.0
 11
33234.45558894166
 21
12081.12314585093
 31
0.0
  0
LINE
  5
305
330
22
100
AcDbEntity
  8
_0-6_
  6
Continuous
 62
     5
100
AcDbLine
 10
31848.81485176894
 20
12181.12223857158
 30
0.0
 11
33234.45558894166
 21
12181.12223857158
 31
0.0
  0
LINE
  5
306
330
22
100
AcDbEntity
  8
_0-6_
  6
Continuous
 62
     5
100
AcDbLine
 10
31791.0797179535
 20
12281.12256849134
 30
0.0
 11
33234.45558894166
 21
12281.12256849134
 31
0.0
  0
LINE
  5
307
330
22
100
AcDbEntity
  8
_0-6_
  6
Continuous
 62
     5
100
AcDbLine
 10
31733.34458413804
 20
12381.12166121199
 30
0.0
 11
33234.45558894166
 21
12381.12166121199
 31
0.0
  0
LINE
  5
308
330
22
100
AcDbEntity
  8
_0-6_
  6
Continuous
 62
     5
100
AcDbLine
 10
31675.60945032258
 20
12481.12199113176
 30
0.0
 11
33234.45558894166
 21
12481.12199113176
 31
0.0
  0
LINE
  5
309
330
22
100
AcDbEntity
  8
_0-6_
  6
Continuous
 62
     5
100
AcDbLine
 10
31617.87431650712
 20
12581.12232105152
 30
0.0
 11
33234.45558894166
 21
12581.12232105152
 31
0.0
  0
LINE
  5
30A
330
22
100
AcDbEntity
  8
_0-6_
  6
Continuous
 62
     5
100
AcDbLine
 10
31560.13918269166
 20
12681.12265097128
 30
0.0
 11
33234.45558894166
 21
12681.12265097128
 31
0.0
  0
LINE
  5
30B
330
22
100
AcDbEntity
  8
_0-6_
  6
Continuous
 62
     5
100
AcDbLine
 10
31502.40404887621
 20
12781.12298089104
 30
0.0
 11
33234.45558894166
 21
12781.12298089104
 31
0.0
  0
LINE
  5
30C
330
22
100
AcDbEntity
  8
_0-6_
  6
Continuous
 62
     5
100
AcDbLine
 10
31444.66891506076
 20
12881.12207361169
 30
0.0
 11
33234.45558894166
 21
12881.12207361169
 31
0.0
  0
LINE
  5
30D
330
22
100
AcDbEntity
  8
_0-6_
  6
Continuous
 62
     5
100
AcDbLine
 10
31386.93378124529
 20
12981.12240353146
 30
0.0
 11
33234.45558894166
 21
12981.12240353146
 31
0.0
  0
LINE
  5
30E
330
22
100
AcDbEntity
  8
_0-6_
  6
Continuous
 62
     5
100
AcDbLine
 10
31734.45558894166
 20
23481.12364073058
 30
0.0
 11
31734.45558894166
 21
12379.19657939189
 31
0.0
  0
LINE
  5
30F
330
22
100
AcDbEntity
  8
_0-6_
  6
Continuous
 62
     5
100
AcDbLine
 10
31271.46351361439
 20
13181.12182617187
 30
0.0
 11
33234.45558894166
 21
13181.12182617187
 31
0.0
  0
LINE
  5
310
330
22
100
AcDbEntity
  8
_0-6_
  6
Continuous
 62
     5
100
AcDbLine
 10
31329.19864742984
 20
13081.12149625211
 30
0.0
 11
33234.45558894166
 21
13081.12149625211
 31
0.0
  0
LINE
  5
311
330
22
100
AcDbEntity
  8
_0-6_
  6
Continuous
 62
     5
100
AcDbLine
 10
31213.72837979893
 20
13281.12215609164
 30
0.0
 11
33234.45558894166
 21
13281.12215609164
 31
0.0
  0
LINE
  5
312
330
22
100
AcDbEntity
  8
_0-6_
  6
Continuous
 62
     5
100
AcDbLine
 10
31155.99324598348
 20
13381.1224860114
 30
0.0
 11
33234.45558894166
 21
13381.1224860114
 31
0.0
  0
LINE
  5
313
330
22
100
AcDbEntity
  8
_0-6_
  6
Continuous
 62
     5
100
AcDbLine
 10
31098.25811216801
 20
13481.12281593117
 30
0.0
 11
33234.45558894166
 21
13481.12281593117
 31
0.0
  0
LINE
  5
314
330
22
100
AcDbEntity
  8
_0-6_
  6
Continuous
 62
     5
100
AcDbLine
 10
31040.52297835256
 20
13581.12314585093
 30
0.0
 11
33234.45558894166
 21
13581.12314585093
 31
0.0
  0
LINE
  5
315
330
22
100
AcDbEntity
  8
_0-6_
  6
Continuous
 62
     5
100
AcDbLine
 10
30982.78784453711
 20
13681.12223857158
 30
0.0
 11
33234.45558894166
 21
13681.12223857158
 31
0.0
  0
LINE
  5
316
330
22
100
AcDbEntity
  8
_0-6_
  6
Continuous
 62
     5
100
AcDbLine
 10
30925.05271072165
 20
13781.12256849134
 30
0.0
 11
33234.45558894166
 21
13781.12256849134
 31
0.0
  0
LINE
  5
317
330
22
100
AcDbEntity
  8
_0-6_
  6
Continuous
 62
     5
100
AcDbLine
 10
30867.3175769062
 20
13881.12166121199
 30
0.0
 11
33234.45558894166
 21
13881.12166121199
 31
0.0
  0
LINE
  5
318
330
22
100
AcDbEntity
  8
_0-6_
  6
Continuous
 62
     5
100
AcDbLine
 10
30809.58244309074
 20
13981.12199113176
 30
0.0
 11
33234.45558894166
 21
13981.12199113176
 31
0.0
  0
LINE
  5
319
330
22
100
AcDbEntity
  8
_0-6_
  6
Continuous
 62
     5
100
AcDbLine
 10
30751.84730927528
 20
14081.12232105152
 30
0.0
 11
33234.45558894166
 21
14081.12232105152
 31
0.0
  0
LINE
  5
31A
330
22
100
AcDbEntity
  8
_0-6_
  6
Continuous
 62
     5
100
AcDbLine
 10
30694.11217545983
 20
14181.12265097128
 30
0.0
 11
33234.45558894166
 21
14181.12265097128
 31
0.0
  0
LINE
  5
31B
330
22
100
AcDbEntity
  8
_0-6_
  6
Continuous
 62
     5
100
AcDbLine
 10
30834.45509406203
 20
23481.12364073058
 30
0.0
 11
30834.45509406203
 21
13938.04271801098
 31
0.0
  0
LINE
  5
31C
330
22
100
AcDbEntity
  8
_0-6_
  6
Continuous
 62
     5
100
AcDbLine
 10
30578.64438222713
 20
14381.1220736117
 30
0.0
 11
33234.45558894166
 21
14381.1220736117
 31
0.0
  0
LINE
  5
31D
330
22
100
AcDbEntity
  8
_0-6_
  6
Continuous
 62
     5
100
AcDbLine
 10
30636.37704164437
 20
14281.12298089105
 30
0.0
 11
33234.45558894166
 21
14281.12298089105
 31
0.0
  0
LINE
  5
31E
330
22
100
AcDbEntity
  8
_0-6_
  6
Continuous
 62
     5
100
AcDbLine
 10
30734.45476414225
 20
23481.12364073058
 30
0.0
 11
30734.45476414225
 21
14111.24935665646
 31
0.0
  0
LINE
  5
31F
330
22
100
AcDbEntity
  8
_0-6_
  6
Continuous
 62
     5
100
AcDbLine
 10
30463.171640198
 20
14581.12273345122
 30
0.0
 11
33234.45558894166
 21
14581.12273345122
 31
0.0
  0
LINE
  5
320
330
22
100
AcDbEntity
  8
_0-6_
  6
Continuous
 62
     5
100
AcDbLine
 10
30405.43898078077
 20
14681.12182617187
 30
0.0
 11
33234.45558894166
 21
14681.12182617187
 31
0.0
  0
LINE
  5
321
330
22
100
AcDbEntity
  8
_0-6_
  6
Continuous
 62
     5
100
AcDbLine
 10
30347.70384696532
 20
14781.12215609164
 30
0.0
 11
33234.45558894166
 21
14781.12215609164
 31
0.0
  0
LINE
  5
322
330
22
100
AcDbEntity
  8
_0-6_
  6
Continuous
 62
     5
100
AcDbLine
 10
30434.4562487812
 20
23481.12364073058
 30
0.0
 11
30434.4562487812
 21
14630.86061219911
 31
0.0
  0
LINE
  5
323
330
22
100
AcDbEntity
  8
_0-6_
  6
Continuous
 62
     5
100
AcDbLine
 10
30232.2335793344
 20
14981.12281593116
 30
0.0
 11
33234.45558894166
 21
14981.12281593116
 31
0.0
  0
LINE
  5
324
330
22
100
AcDbEntity
  8
_0-6_
  6
Continuous
 62
     5
100
AcDbLine
 10
30289.96871314986
 20
14881.1224860114
 30
0.0
 11
33234.45558894166
 21
14881.1224860114
 31
0.0
  0
LINE
  5
325
330
22
100
AcDbEntity
  8
_0-6_
  6
Continuous
 62
     5
100
AcDbLine
 10
29712.6173749953
 20
15881.12207361169
 30
0.0
 11
33234.45558894166
 21
15881.12207361169
 31
0.0
  0
LINE
  5
326
330
22
100
AcDbEntity
  8
_0-6_
  6
Continuous
 62
     5
100
AcDbLine
 10
29770.35250881076
 20
15781.12298089104
 30
0.0
 11
33234.45558894166
 21
15781.12298089104
 31
0.0
  0
LINE
  5
327
330
22
100
AcDbEntity
  8
_0-6_
  6
Continuous
 62
     5
100
AcDbLine
 10
29654.88224117984
 20
15981.12240353146
 30
0.0
 11
33234.45558894166
 21
15981.12240353146
 31
0.0
  0
LINE
  5
328
330
22
100
AcDbEntity
  8
_0-6_
  6
Continuous
 62
     5
100
AcDbLine
 10
29734.45393934285
 20
23481.12364073058
 30
0.0
 11
29734.45393934285
 21
15843.30089672192
 31
0.0
  0
LINE
  5
329
330
22
100
AcDbEntity
  8
_0-6_
  6
Continuous
 62
     5
100
AcDbLine
 10
29634.45608382131
 20
23481.12364073058
 30
0.0
 11
29634.45608382131
 21
16016.50258657094
 31
0.0
  0
LINE
  5
32A
330
22
100
AcDbEntity
  8
_0-6_
  6
Continuous
 62
     5
100
AcDbLine
 10
29481.67683973348
 20
16281.12215609164
 30
0.0
 11
33234.45558894166
 21
16281.12215609164
 31
0.0
  0
LINE
  5
32B
330
22
100
AcDbEntity
  8
_0-6_
  6
Continuous
 62
     5
100
AcDbLine
 10
29539.41197354893
 20
16181.12182617187
 30
0.0
 11
33234.45558894166
 21
16181.12182617187
 31
0.0
  0
LINE
  5
32C
330
22
100
AcDbEntity
  8
_0-6_
  6
Continuous
 62
     5
100
AcDbLine
 10
29597.14710736439
 20
16081.12273345122
 30
0.0
 11
33234.45558894166
 21
16081.12273345122
 31
0.0
  0
LINE
  5
32D
330
22
100
AcDbEntity
  8
_0-6_
  6
Continuous
 62
     5
100
AcDbLine
 10
29934.45459918238
 20
23481.12364073058
 30
0.0
 11
29934.45459918238
 21
15496.88885663007
 31
0.0
  0
LINE
  5
32E
330
22
100
AcDbEntity
  8
_0-6_
  6
Continuous
 62
     5
100
AcDbLine
 10
29828.08764262621
 20
15681.12265097128
 30
0.0
 11
33234.45558894166
 21
15681.12265097128
 31
0.0
  0
LINE
  5
32F
330
22
100
AcDbEntity
  8
_0-6_
  6
Continuous
 62
     5
100
AcDbLine
 10
29885.82277644166
 20
15581.12232105152
 30
0.0
 11
33234.45558894166
 21
15581.12232105152
 31
0.0
  0
LINE
  5
330
330
22
100
AcDbEntity
  8
_0-6_
  6
Continuous
 62
     5
100
AcDbLine
 10
29943.55791025712
 20
15481.12199113176
 30
0.0
 11
33234.45558894166
 21
15481.12199113176
 31
0.0
  0
LINE
  5
331
330
22
100
AcDbEntity
  8
_0-6_
  6
Continuous
 62
     5
100
AcDbLine
 10
30001.29304407258
 20
15381.121661212
 30
0.0
 11
33234.45558894166
 21
15381.121661212
 31
0.0
  0
LINE
  5
332
330
22
100
AcDbEntity
  8
_0-6_
  6
Continuous
 62
     5
100
AcDbLine
 10
29423.94170591801
 20
16381.1224860114
 30
0.0
 11
33234.45558894166
 21
16381.1224860114
 31
0.0
  0
LINE
  5
333
330
22
100
AcDbEntity
  8
_0-6_
  6
Continuous
 62
     5
100
AcDbLine
 10
29366.20657210256
 20
16481.12281593116
 30
0.0
 11
33234.45558894166
 21
16481.12281593116
 31
0.0
  0
LINE
  5
334
330
22
100
AcDbEntity
  8
_0-6_
  6
Continuous
 62
     5
100
AcDbLine
 10
29308.47143828712
 20
16581.12190865182
 30
0.0
 11
33234.45558894166
 21
16581.12190865182
 31
0.0
  0
LINE
  5
335
330
22
100
AcDbEntity
  8
_0-6_
  6
Continuous
 62
     5
100
AcDbLine
 10
29250.73630447165
 20
16681.12223857158
 30
0.0
 11
33234.45558894166
 21
16681.12223857158
 31
0.0
  0
LINE
  5
336
330
22
100
AcDbEntity
  8
_0-6_
  6
Continuous
 62
     5
100
AcDbLine
 10
29193.0011706562
 20
16781.12256849134
 30
0.0
 11
33234.45558894166
 21
16781.12256849134
 31
0.0
  0
LINE
  5
337
330
22
100
AcDbEntity
  8
_0-6_
  6
Continuous
 62
     5
100
AcDbLine
 10
29135.26603684073
 20
16881.12289841111
 30
0.0
 11
33234.45558894166
 21
16881.12289841111
 31
0.0
  0
LINE
  5
338
330
22
100
AcDbEntity
  8
_0-6_
  6
Continuous
 62
     5
100
AcDbLine
 10
29077.53337742351
 20
16981.12199113175
 30
0.0
 11
33234.45558894166
 21
16981.12199113175
 31
0.0
  0
LINE
  5
339
330
22
100
AcDbEntity
  8
_0-6_
  6
Continuous
 62
     5
100
AcDbLine
 10
29019.79824360805
 20
17081.12232105152
 30
0.0
 11
33234.45558894166
 21
17081.12232105152
 31
0.0
  0
LINE
  5
33A
330
22
100
AcDbEntity
  8
_0-6_
  6
Continuous
 62
     5
100
AcDbLine
 10
28962.0631097926
 20
17181.12265097128
 30
0.0
 11
33234.45558894166
 21
17181.12265097128
 31
0.0
  0
LINE
  5
33B
330
22
100
AcDbEntity
  8
_0-6_
  6
Continuous
 62
     5
100
AcDbLine
 10
29034.45410430274
 20
23481.12364073058
 30
0.0
 11
29034.45410430274
 21
17055.73623244827
 31
0.0
  0
LINE
  5
33C
330
22
100
AcDbEntity
  8
_0-6_
  6
Continuous
 62
     5
100
AcDbLine
 10
28846.59284216168
 20
17381.1220736117
 30
0.0
 11
33234.45558894166
 21
17381.1220736117
 31
0.0
  0
LINE
  5
33D
330
22
100
AcDbEntity
  8
_0-6_
  6
Continuous
 62
     5
100
AcDbLine
 10
28904.32797597713
 20
17281.12298089105
 30
0.0
 11
33234.45558894166
 21
17281.12298089105
 31
0.0
  0
LINE
  5
33E
330
22
100
AcDbEntity
  8
_0-6_
  6
Continuous
 62
     5
100
AcDbLine
 10
28834.45591886143
 20
23481.12364073058
 30
0.0
 11
28834.45591886143
 21
17402.14332374366
 31
0.0
  0
LINE
  5
33F
330
22
100
AcDbEntity
  8
_0-6_
  6
Continuous
 62
     5
100
AcDbLine
 10
28731.12257453077
 20
17581.12273345122
 30
0.0
 11
33234.45558894166
 21
17581.12273345122
 31
0.0
  0
LINE
  5
340
330
22
100
AcDbEntity
  8
_0-6_
  6
Continuous
 62
     5
100
AcDbLine
 10
28788.85770834623
 20
17481.12240353146
 30
0.0
 11
33234.45558894166
 21
17481.12240353146
 31
0.0
  0
LINE
  5
341
330
22
100
AcDbEntity
  8
_0-6_
  6
Continuous
 62
     5
100
AcDbLine
 10
28734.45558894166
 20
23481.12364073058
 30
0.0
 11
28734.45558894166
 21
17575.34872519003
 31
0.0
  0
LINE
  5
342
330
22
100
AcDbEntity
  8
_0-6_
  6
Continuous
 62
     5
100
AcDbLine
 10
28615.65230689986
 20
17781.12215609164
 30
0.0
 11
33234.45558894166
 21
17781.12215609164
 31
0.0
  0
LINE
  5
343
330
22
100
AcDbEntity
  8
_0-6_
  6
Continuous
 62
     5
100
AcDbLine
 10
28673.38744071533
 20
17681.12182617187
 30
0.0
 11
33234.45558894166
 21
17681.12182617187
 31
0.0
  0
LINE
  5
344
330
22
100
AcDbEntity
  8
_0-6_
  6
Continuous
 62
     5
100
AcDbLine
 10
28557.9171730844
 20
17881.1224860114
 30
0.0
 11
33234.45558894166
 21
17881.1224860114
 31
0.0
  0
LINE
  5
345
330
22
100
AcDbEntity
  8
_0-6_
  6
Continuous
 62
     5
100
AcDbLine
 10
28634.4552590219
 20
23481.12364073058
 30
0.0
 11
28634.4552590219
 21
17748.5541266364
 31
0.0
  0
LINE
  5
346
330
22
100
AcDbEntity
  8
_0-6_
  6
Continuous
 62
     5
100
AcDbLine
 10
28442.4469054535
 20
18081.12190865182
 30
0.0
 11
33234.45558894166
 21
18081.12190865182
 31
0.0
  0
LINE
  5
347
330
22
100
AcDbEntity
  8
_0-6_
  6
Continuous
 62
     5
100
AcDbLine
 10
28326.97663782258
 20
18281.12256849134
 30
0.0
 11
33234.45558894166
 21
18281.12256849134
 31
0.0
  0
LINE
  5
348
330
22
100
AcDbEntity
  8
_0-6_
  6
Continuous
 62
     5
100
AcDbLine
 10
28211.50637019166
 20
18481.12199113176
 30
0.0
 11
33234.45558894166
 21
18481.12199113176
 31
0.0
  0
LINE
  5
349
330
22
100
AcDbEntity
  8
_0-6_
  6
Continuous
 62
     5
100
AcDbLine
 10
27980.56583492984
 20
18881.12207361169
 30
0.0
 11
33234.45558894166
 21
18881.12207361169
 31
0.0
  0
LINE
  5
34A
330
22
100
AcDbEntity
  8
_0-6_
  6
Continuous
 62
     5
100
AcDbLine
 10
28334.45426926261
 20
23481.12364073058
 30
0.0
 11
28334.45426926261
 21
18268.17033097551
 31
0.0
  0
LINE
  5
34B
330
22
100
AcDbEntity
  8
_0-6_
  6
Continuous
 62
     5
100
AcDbLine
 10
28234.45641374108
 20
23481.12364073058
 30
0.0
 11
28234.45641374108
 21
18441.37325802365
 31
0.0
  0
LINE
  5
34C
330
22
100
AcDbEntity
  8
_0-6_
  6
Continuous
 62
     5
100
AcDbLine
 10
28096.03610256076
 20
18681.12265097128
 30
0.0
 11
33234.45558894166
 21
18681.12265097128
 31
0.0
  0
LINE
  5
34D
330
22
100
AcDbEntity
  8
_0-6_
  6
Continuous
 62
     5
100
AcDbLine
 10
28038.30096874529
 20
18781.12298089105
 30
0.0
 11
33234.45558894166
 21
18781.12298089105
 31
0.0
  0
LINE
  5
34E
330
22
100
AcDbEntity
  8
_0-6_
  6
Continuous
 62
     5
100
AcDbLine
 10
28153.77123637621
 20
18581.12232105152
 30
0.0
 11
33234.45558894166
 21
18581.12232105152
 31
0.0
  0
LINE
  5
34F
330
22
100
AcDbEntity
  8
_0-6_
  6
Continuous
 62
     5
100
AcDbLine
 10
28269.24150400712
 20
18381.12289841111
 30
0.0
 11
33234.45558894166
 21
18381.12289841111
 31
0.0
  0
LINE
  5
350
330
22
100
AcDbEntity
  8
_0-6_
  6
Continuous
 62
     5
100
AcDbLine
 10
28384.71177163804
 20
18181.12223857158
 30
0.0
 11
33234.45558894166
 21
18181.12223857158
 31
0.0
  0
LINE
  5
351
330
22
100
AcDbEntity
  8
_0-6_
  6
Continuous
 62
     5
100
AcDbLine
 10
28500.18203926894
 20
17981.12281593116
 30
0.0
 11
33234.45558894166
 21
17981.12281593116
 31
0.0
  0
LINE
  5
352
330
22
100
AcDbEntity
  8
_0-6_
  6
Continuous
 62
     5
100
AcDbLine
 10
30059.02817788804
 20
15281.12256849134
 30
0.0
 11
33234.45558894166
 21
15281.12256849134
 31
0.0
  0
LINE
  5
353
330
22
100
AcDbEntity
  8
_0-6_
  6
Continuous
 62
     5
100
AcDbLine
 10
30334.45591886143
 20
23481.12364073058
 30
0.0
 11
30334.45591886143
 21
14804.06725084459
 31
0.0
  0
LINE
  5
354
330
22
100
AcDbEntity
  8
_0-6_
  6
Continuous
 62
     5
100
AcDbLine
 10
30116.76331170349
 20
15181.12223857158
 30
0.0
 11
33234.45558894166
 21
15181.12223857158
 31
0.0
  0
LINE
  5
355
330
22
100
AcDbEntity
  8
_0-6_
  6
Continuous
 62
     5
100
AcDbLine
 10
30174.49844551894
 20
15081.12190865182
 30
0.0
 11
33234.45558894166
 21
15081.12190865182
 31
0.0
  0
LINE
  5
356
330
22
100
AcDbEntity
  8
_0-6_
  6
Continuous
 62
     7
100
AcDbLine
 10
13259.45649622101
 20
23466.05950432855
 30
0.0
 11
13209.45633126113
 21
23466.05950432855
 31
0.0
  0
LINE
  5
357
330
22
100
AcDbEntity
  8
_0-3_
  6
Continuous
 62
     6
100
AcDbLine
 10
13234.45641374107
 20
19105.92238967484
 30
0.0
 11
13234.45641374107
 21
23416.05933936866
 31
0.0
  0
LINE
  5
358
330
22
100
AcDbEntity
  8
_0-6_
  6
Continuous
 62
     7
100
AcDbLine
 10
19259.45649622101
 20
23466.05950432855
 30
0.0
 11
19209.45633126113
 21
23466.05950432855
 31
0.0
  0
LINE
  5
359
330
22
100
AcDbEntity
  8
_0-0_
  6
CENTER1
 62
     4
100
AcDbLine
 10
19234.45641374108
 20
24681.12265097128
 30
0.0
 11
19234.45641374108
 21
5681.12120757232
 31
0.0
  0
LINE
  5
35A
330
22
100
AcDbEntity
  8
_0-2_
  6
Continuous
 62
     7
100
AcDbLine
 10
25209.45756846025
 20
23606.50387325802
 30
0.0
 11
25209.45756846025
 21
23456.50090398016
 31
0.0
  0
LINE
  5
35B
330
22
100
AcDbEntity
  8
_0-0_
  6
Continuous
 62
     7
100
AcDbLine
 10
25209.45756846025
 20
23456.50090398016
 30
0.0
 11
25259.4552590219
 21
23456.50090398016
 31
0.0
  0
LINE
  5
35C
330
22
100
AcDbEntity
  8
_0-2_
  6
Continuous
 62
     7
100
AcDbLine
 10
25259.4552590219
 20
23606.50387325802
 30
0.0
 11
25259.4552590219
 21
23456.50090398016
 31
0.0
  0
LINE
  5
35D
330
22
100
AcDbEntity
  8
_0-0_
  6
Continuous
 62
     7
100
AcDbLine
 10
25209.45756846025
 20
23606.50387325802
 30
0.0
 11
25259.4552590219
 21
23606.50387325802
 31
0.0
  0
LINE
  5
35E
330
22
100
AcDbEntity
  8
_0-0_
  6
Continuous
 62
     7
100
AcDbLine
 10
25072.45756186185
 20
23531.50486301732
 30
0.0
 11
25209.45756846025
 21
23531.50486301732
 31
0.0
  0
LINE
  5
35F
330
22
100
AcDbEntity
  8
_0-0_
  6
Continuous
 62
     7
100
AcDbLine
 10
25396.4552656203
 20
23531.50486301732
 30
0.0
 11
25259.4552590219
 21
23531.50486301732
 31
0.0
  0
LINE
  5
360
330
22
100
AcDbEntity
  8
_0-2_
  6
Continuous
 62
     7
100
AcDbLine
 10
31124.45704058863
 20
23681.12430057009
 30
0.0
 11
31124.11557363339
 21
23630.52780563767
 31
0.0
  0
LINE
  5
361
330
22
100
AcDbEntity
  8
_0-2_
  6
Continuous
 62
     7
100
AcDbLine
 10
31344.45578689353
 20
23681.12430057009
 30
0.0
 11
31344.79230505231
 21
23630.52780563767
 31
0.0
  0
LINE
  5
362
330
22
100
AcDbEntity
  8
_0-2_
  6
Continuous
 62
     7
100
AcDbLine
 10
31345.46039257342
 20
23530.52747571791
 30
0.0
 11
31374.83149952021
 21
19130.34098857158
 31
0.0
  0
LINE
  5
363
330
22
100
AcDbEntity
  8
_0-2_
  6
Continuous
 62
     7
100
AcDbLine
 10
31094.08132796193
 20
19130.34098857158
 30
0.0
 11
31123.45243490872
 21
23530.52747571791
 31
0.0
  0
LINE
  5
364
330
22
100
AcDbEntity
  8
_0-2_
  6
Continuous
 62
     7
100
AcDbLine
 10
25345.4579181752
 20
23531.50486301732
 30
0.0
 11
25374.83892271489
 21
19130.34098857158
 31
0.0
  0
LINE
  5
365
330
22
100
AcDbEntity
  8
_0-2_
  6
Continuous
 62
     7
100
AcDbLine
 10
25123.45490930695
 20
23531.50486301732
 30
0.0
 11
25094.07390476726
 21
19130.34098857158
 31
0.0
  0
LINE
  5
366
330
22
100
AcDbEntity
  8
_0-2_
  6
Continuous
 62
     7
100
AcDbLine
 10
25124.4545661904
 20
23681.12430057009
 30
0.0
 11
25124.12299682807
 21
23631.50519293708
 31
0.0
  0
LINE
  5
367
330
22
100
AcDbEntity
  8
_0-2_
  6
Continuous
 62
     7
100
AcDbLine
 10
25344.45331249529
 20
23681.12430057009
 30
0.0
 11
25344.78735625585
 21
23631.50519293708
 31
0.0
  0
LINE
  5
368
330
22
100
AcDbEntity
  8
_0-2_
  6
Continuous
 62
     7
100
AcDbLine
 10
31209.45509406202
 20
23605.52648595862
 30
0.0
 11
31209.45509406202
 21
23455.52351668074
 31
0.0
  0
LINE
  5
369
330
22
100
AcDbEntity
  8
_0-0_
  6
Continuous
 62
     7
100
AcDbLine
 10
31209.45509406202
 20
23455.52351668074
 30
0.0
 11
31259.45278462367
 21
23455.52351668074
 31
0.0
  0
LINE
  5
36A
330
22
100
AcDbEntity
  8
_0-2_
  6
Continuous
 62
     7
100
AcDbLine
 10
31259.45278462367
 20
23605.52648595862
 30
0.0
 11
31259.45278462367
 21
23455.52351668074
 31
0.0
  0
LINE
  5
36B
330
22
100
AcDbEntity
  8
_0-0_
  6
Continuous
 62
     7
100
AcDbLine
 10
31209.45509406202
 20
23605.52648595862
 30
0.0
 11
31259.45278462367
 21
23605.52648595862
 31
0.0
  0
LINE
  5
36C
330
22
100
AcDbEntity
  8
_0-0_
  6
Continuous
 62
     7
100
AcDbLine
 10
31072.45508746363
 20
23530.52747571791
 30
0.0
 11
31209.45509406202
 21
23530.52747571791
 31
0.0
  0
LINE
  5
36D
330
22
100
AcDbEntity
  8
_0-0_
  6
Continuous
 62
     7
100
AcDbLine
 10
31396.45279122207
 20
23530.52747571791
 30
0.0
 11
31259.45278462367
 21
23530.52747571791
 31
0.0
  0
LINE
  5
36E
330
22
100
AcDbEntity
  8
_0-2_
  6
Continuous
 62
     7
100
AcDbLine
 10
25259.45773342013
 20
23456.50090398016
 30
0.0
 11
25209.45509406202
 21
23456.50090398016
 31
0.0
  0
LINE
  5
36F
330
22
100
AcDbEntity
  8
_0-6_
  6
Continuous
 62
     7
100
AcDbLine
 10
25259.45773342013
 20
23456.50090398016
 30
0.0
 11
25209.45509406202
 21
23456.50090398016
 31
0.0
  0
LINE
  5
370
330
22
100
AcDbEntity
  8
_0-3_
  6
Continuous
 62
     6
100
AcDbLine
 10
25234.45641374108
 20
19105.34090609164
 30
0.0
 11
25234.45641374108
 21
23406.50073902027
 31
0.0
  0
LINE
  5
371
330
22
100
AcDbEntity
  8
_0-2_
  6
Continuous
 62
     7
100
AcDbLine
 10
31259.45525902189
 20
23455.52351668074
 30
0.0
 11
31209.4526196638
 21
23455.52351668074
 31
0.0
  0
LINE
  5
372
330
22
100
AcDbEntity
  8
_0-6_
  6
Continuous
 62
     7
100
AcDbLine
 10
31259.45525902189
 20
23455.52351668074
 30
0.0
 11
31209.4526196638
 21
23455.52351668074
 31
0.0
  0
LINE
  5
373
330
22
100
AcDbEntity
  8
_0-0_
  6
CENTER1
 62
     4
100
AcDbLine
 10
31234.45393934284
 20
24682.9833984375
 30
0.0
 11
31234.45393934284
 21
14455.53341427365
 31
0.0
  0
LINE
  5
374
330
22
100
AcDbEntity
  8
_0-6_
  6
Continuous
 62
     5
100
AcDbLine
 10
32483.89884934073
 20
11081.12232105152
 30
0.0
 11
33234.45558894166
 21
11081.12232105152
 31
0.0
  0
LINE
  5
375
330
22
100
AcDbEntity
  8
_0-3_
  6
Continuous
 62
     6
100
AcDbLine
 10
31386.09248584833
 20
23530.52747571791
 30
0.0
 11
33234.45558894166
 21
19010.34752098289
 31
0.0
  0
LINE
  5
376
330
22
100
AcDbEntity
  8
_0-6_
  6
DASHED1
 62
     5
100
AcDbLine
 10
38072.45838666128
 20
23502.4133630701
 30
0.0
 11
37985.35462029724
 21
9931.217502903296
 31
0.0
  0
LINE
  5
377
330
22
100
AcDbEntity
  8
_0-3_
  6
Continuous
 62
     6
100
AcDbLine
 10
13473.38678087578
 20
9931.21502850507
 30
0.0
 11
19091.65023170454
 21
23526.05871252112
 31
0.0
  0
LINE
  5
378
330
22
100
AcDbEntity
  8
_0-0_
  6
CENTER1
 62
     4
100
AcDbLine
 10
13234.45641374107
 20
9931.889302021748
 30
0.0
 11
13234.45641374107
 21
5681.12120757232
 31
0.0
  0
LINE
  5
379
330
22
100
AcDbEntity
  8
_0-3_
  6
Continuous
 62
     6
100
AcDbLine
 10
13234.45641374107
 20
9881.850783889358
 30
0.0
 11
13234.45641374107
 21
9881.654069230364
 31
0.0
  0
LINE
  5
37A
330
22
100
AcDbEntity
  8
_0-2_
  6
Continuous
 62
     7
100
AcDbLine
 10
13151.06053311924
 20
9831.214698585304
 30
0.0
 11
13196.64884604154
 21
9831.214698585304
 31
0.0
  0
LINE
  5
37B
330
22
100
AcDbEntity
  8
_0-2_
  6
Continuous
 62
     7
100
AcDbLine
 10
13271.64290748579
 20
9906.216183224239
 30
0.0
 11
13271.64290748579
 21
9756.215688344596
 31
0.0
  0
LINE
  5
37C
330
22
100
AcDbEntity
  8
_0-2_
  6
Continuous
 62
     7
100
AcDbLine
 10
13271.64290748579
 20
9831.214698585304
 30
0.0
 11
13482.68928100775
 21
9831.214698585304
 31
0.0
  0
LINE
  5
37D
330
22
100
AcDbEntity
  8
_0-3_
  6
Continuous
 62
     6
100
AcDbLine
 10
13271.64290748579
 20
9781.12050649282
 30
0.0
 11
19197.13753969124
 21
9781.12050649282
 31
0.0
  0
LINE
  5
37E
330
22
100
AcDbEntity
  8
_0-3_
  6
Continuous
 62
     6
100
AcDbLine
 10
13376.81844129597
 20
23526.05871252112
 30
0.0
 11
18994.54123611227
 21
9931.21502850507
 31
0.0
  0
LINE
  5
37F
330
22
100
AcDbEntity
  8
_0-3_
  6
Continuous
 62
     6
100
AcDbLine
 10
19473.69731785319
 20
9931.21502850507
 30
0.0
 11
25080.78143749529
 21
23531.50486301732
 31
0.0
  0
LINE
  5
380
330
22
100
AcDbEntity
  8
_0-3_
  6
Continuous
 62
     6
100
AcDbLine
 10
19272.13160113549
 20
9781.12050649282
 30
0.0
 11
25197.13753969125
 21
9781.12050649282
 31
0.0
  0
LINE
  5
381
330
22
100
AcDbEntity
  8
_0-3_
  6
Continuous
 62
     6
100
AcDbLine
 10
19376.49800672566
 20
23526.05871252112
 30
0.0
 11
24994.84558709412
 21
9931.217502903296
 31
0.0
  0
LINE
  5
382
330
22
100
AcDbEntity
  8
_0-3_
  6
Continuous
 62
     6
100
AcDbLine
 10
25474.11672835256
 20
9931.217502903296
 30
0.0
 11
31080.65276878753
 21
23530.52747571791
 31
0.0
  0
LINE
  5
383
330
22
100
AcDbEntity
  8
_0-0_
  6
CENTER1
 62
     4
100
AcDbLine
 10
25234.45641374108
 20
14538.443075644
 30
0.0
 11
25234.45641374108
 21
5681.12120757232
 31
0.0
  0
LINE
  5
384
330
22
100
AcDbEntity
  8
_0-3_
  6
Continuous
 62
     6
100
AcDbLine
 10
25272.1316011355
 20
9781.12050649282
 30
0.0
 11
31197.13506529301
 21
9781.12050649282
 31
0.0
  0
LINE
  5
385
330
22
100
AcDbEntity
  8
_0-3_
  6
Continuous
 62
     6
100
AcDbLine
 10
25386.65169984749
 20
23531.50486301732
 30
0.0
 11
30994.72929037747
 21
9931.217502903296
 31
0.0
  0
LINE
  5
386
330
22
100
AcDbEntity
  8
_0-0_
  6
Continuous
 62
     7
100
AcDbLine
 10
31483.17550025924
 20
9931.217502903296
 30
0.0
 11
31483.17550025924
 21
9831.217172983532
 31
0.0
  0
LINE
  5
387
330
22
100
AcDbEntity
  8
_0-3_
  6
Continuous
 62
     6
100
AcDbLine
 10
31472.69394937241
 20
9931.217502903296
 30
0.0
 11
33234.45558894166
 21
14240.90411211993
 31
0.0
  0
LINE
  5
388
330
22
100
AcDbEntity
  8
_0-3_
  6
Continuous
 62
     6
100
AcDbLine
 10
27922.83070111439
 20
9781.121743691935
 30
0.0
 11
31196.94701102782
 21
9781.121743691935
 31
0.0
  0
LINE
  5
389
330
22
100
AcDbEntity
  8
_0-3_
  6
Continuous
 62
     6
100
AcDbLine
 10
31272.11180594969
 20
9781.121743691935
 30
0.0
 11
33234.45558894166
 21
9781.121743691935
 31
0.0
  0
LINE
  5
38A
330
22
100
AcDbEntity
  8
_0-6_
  6
Continuous
 62
     5
100
AcDbLine
 10
31272.6388527719
 20
9781.121743691935
 30
0.0
 11
33234.45558894166
 21
9781.121743691935
 31
0.0
  0
LINE
  5
38B
330
22
100
AcDbEntity
  8
_0-3_
  6
Continuous
 62
     6
100
AcDbLine
 10
13234.45641374107
 20
14455.60517182221
 30
0.0
 11
13234.45641374107
 21
9891.048122096707
 31
0.0
  0
LINE
  5
38C
330
22
100
AcDbEntity
  8
_0-3_
  6
Continuous
 62
     6
100
AcDbLine
 10
31259.45278462367
 20
23481.12364073058
 30
0.0
 11
33234.45558894166
 21
23481.12364073058
 31
0.0
  0
LINE
  5
38D
330
22
100
AcDbEntity
  8
_0-3_
  6
Continuous
 62
     6
100
AcDbLine
 10
25259.4552590219
 20
23481.12364073058
 30
0.0
 11
31209.45509406202
 21
23481.12364073058
 31
0.0
  0
LINE
  5
38E
330
22
100
AcDbEntity
  8
_0-3_
  6
Continuous
 62
     6
100
AcDbLine
 10
19259.45649622101
 20
23481.12364073058
 30
0.0
 11
25209.45756846025
 21
23481.12364073058
 31
0.0
  0
LINE
  5
38F
330
22
100
AcDbEntity
  8
_0-3_
  6
Continuous
 62
     6
100
AcDbLine
 10
13259.45649622101
 20
23481.12364073058
 30
0.0
 11
19209.45633126113
 21
23481.12364073058
 31
0.0
  0
LINE
  5
390
330
22
100
AcDbEntity
  8
ADD_LINE
  6
DOT
 62
     7
100
AcDbLine
 10
31234.45393934284
 20
19185.82194560283
 30
0.0
 11
31234.45393934284
 21
18923.3303585568
 31
0.0
  0
LINE
  5
391
330
22
100
AcDbEntity
  8
_0-6_
  6
Continuous
 62
     5
100
AcDbLine
 10
31234.45641374108
 20
23481.12364073058
 30
0.0
 11
31234.45641374108
 21
19105.34090609164
 31
0.0
  0
LINE
  5
392
330
22
100
AcDbEntity
  8
_0-3_
  6
Continuous
 62
     6
100
AcDbLine
 10
27922.83070111439
 20
18981.12364073057
 30
0.0
 11
31196.30119309074
 21
18981.12364073057
 31
0.0
  0
LINE
  5
393
330
22
100
AcDbEntity
  8
_0-3_
  6
Continuous
 62
     6
100
AcDbLine
 10
31271.43382083568
 20
18981.12364073057
 30
0.0
 11
33234.45558894166
 21
18981.12364073057
 31
0.0
  0
LINE
  5
394
330
22
100
AcDbEntity
  8
_0-3_
  6
Continuous
 62
     6
100
AcDbLine
 10
31271.95097006497
 20
18980.78588537268
 30
0.0
 11
33234.45558894166
 21
18980.78588537268
 31
0.0
  0
LINE
  5
395
330
22
100
AcDbEntity
  8
_0-6_
  6
Continuous
 62
     5
100
AcDbLine
 10
30520.90924841168
 20
14481.12240353146
 30
0.0
 11
31196.95690862072
 21
14481.12240353146
 31
0.0
  0
LINE
  5
396
330
22
100
AcDbEntity
  8
_0-3_
  6
Continuous
 62
     6
100
AcDbLine
 10
31271.95591886143
 20
14481.12364073057
 30
0.0
 11
33234.45558894166
 21
14481.12364073057
 31
0.0
  0
LINE
  5
397
330
22
100
AcDbEntity
  8
_0-6_
  6
Continuous
 62
     5
100
AcDbLine
 10
27922.83070111439
 20
18981.12240353146
 30
0.0
 11
31196.81586792182
 21
18981.12240353146
 31
0.0
  0
LINE
  5
398
330
22
100
AcDbEntity
  8
_0-6_
  6
Continuous
 62
     5
100
AcDbLine
 10
31271.92622608272
 20
18981.12240353146
 30
0.0
 11
33234.45558894166
 21
18981.12240353146
 31
0.0
  0
LINE
  5
399
330
22
100
AcDbEntity
  8
_0-0_
  6
CENTER1
 62
     4
100
AcDbLine
 10
31234.45393934284
 20
9906.453725453971
 30
0.0
 11
31234.45393934284
 21
5681.12120757232
 31
0.0
  0
LINE
  5
39A
330
22
100
AcDbEntity
  8
_0-3_
  6
Continuous
 62
     6
100
AcDbLine
 10
25271.94849566675
 20
14481.12364073057
 30
0.0
 11
31196.95690862072
 21
14481.12364073057
 31
0.0
  0
LINE
  5
39B
330
22
100
AcDbEntity
  8
_0-3_
  6
Continuous
 62
     6
100
AcDbLine
 10
25234.44651614817
 20
14455.1907101193
 30
0.0
 11
25234.44651614817
 21
9906.218657622467
 31
0.0
  0
LINE
  5
39C
330
22
100
AcDbEntity
  8
ADD_LINE
  6
DOT
 62
     7
100
AcDbLine
 10
31234.45393934284
 20
14685.67224451013
 30
0.0
 11
31234.45393934284
 21
14605.19120499894
 31
0.0
  0
LINE
  5
39D
330
22
100
AcDbEntity
  8
_0-3_
  6
Continuous
 62
     6
100
AcDbLine
 10
31234.45393934284
 20
14455.53341427365
 30
0.0
 11
31234.45393934284
 21
9906.218657622467
 31
0.0
  0
LINE
  5
39E
330
22
100
AcDbEntity
  8
ADD_LINE
  6
DOT
 62
     7
100
AcDbLine
 10
25234.45641374108
 20
19185.82194560283
 30
0.0
 11
25234.45641374108
 21
18923.3303585568
 31
0.0
  0
LINE
  5
39F
330
22
100
AcDbEntity
  8
_0-0_
  6
CENTER1
 62
     4
100
AcDbLine
 10
25234.45641374108
 20
23307.93061127534
 30
0.0
 11
25234.45641374108
 21
18955.33917401288
 31
0.0
  0
LINE
  5
3A0
330
22
100
AcDbEntity
  8
_0-3_
  6
Continuous
 62
     6
100
AcDbLine
 10
25234.45641374108
 20
18955.33917401288
 30
0.0
 11
25234.45641374108
 21
14605.19120499894
 31
0.0
  0
LINE
  5
3A1
330
22
100
AcDbEntity
  8
_0-0_
  6
CENTER1
 62
     4
100
AcDbLine
 10
25234.44651614817
 20
14605.19120499894
 30
0.0
 11
25234.44651614817
 21
14538.443075644
 31
0.0
  0
LINE
  5
3A2
330
22
100
AcDbEntity
  8
_0-3_
  6
Continuous
 62
     6
100
AcDbLine
 10
25271.9534444632
 20
18980.78588537268
 30
0.0
 11
31196.95195982426
 21
18980.78588537268
 31
0.0
  0
LINE
  5
3A3
330
22
100
AcDbEntity
  8
_0-3_
  6
Continuous
 62
     6
100
AcDbLine
 10
19234.45641374108
 20
18957.23580025338
 30
0.0
 11
19234.45641374108
 21
9906.216183224239
 31
0.0
  0
LINE
  5
3A4
330
22
100
AcDbEntity
  8
_0-3_
  6
Continuous
 62
     6
100
AcDbLine
 10
19271.94849566675
 20
14481.12364073057
 30
0.0
 11
25196.94948542604
 21
14481.12364073057
 31
0.0
  0
LINE
  5
3A5
330
22
100
AcDbEntity
  8
ADD_LINE
  6
DOT
 62
     7
100
AcDbLine
 10
19234.44651614817
 20
14685.67224451013
 30
0.0
 11
19234.44651614817
 21
14605.19120499894
 31
0.0
  0
LINE
  5
3A6
330
22
100
AcDbEntity
  8
_0-3_
  6
Continuous
 62
     6
100
AcDbLine
 10
19234.45641374108
 20
23481.34386217272
 30
0.0
 11
19234.45641374108
 21
19106.14879711254
 31
0.0
  0
LINE
  5
3A7
330
22
100
AcDbEntity
  8
_0-3_
  6
Continuous
 62
     6
100
AcDbLine
 10
13271.95839325965
 20
18980.78588537268
 30
0.0
 11
19196.56347930273
 21
18980.78588537268
 31
0.0
  0
LINE
  5
3A8
330
22
100
AcDbEntity
  8
_0-3_
  6
Continuous
 62
     6
100
AcDbLine
 10
19271.84209654301
 20
18980.78588537268
 30
0.0
 11
25196.95443422249
 21
18980.78588537268
 31
0.0
  0
LINE
  5
3A9
330
22
100
AcDbEntity
  8
ADD_LINE
  6
DOT
 62
     7
100
AcDbLine
 10
19234.45641374108
 20
19186.40342918602
 30
0.0
 11
19234.45641374108
 21
19106.14879711254
 31
0.0
  0
LINE
  5
3AA
330
22
100
AcDbEntity
  8
ADD_LINE
  6
DOT
 62
     7
100
AcDbLine
 10
19234.45641374108
 20
18955.99736394109
 30
0.0
 11
19234.45641374108
 21
18923.91184213999
 31
0.0
  0
LINE
  5
3AB
330
22
100
AcDbEntity
  8
_0-0_
  6
CENTER1
 62
     4
100
AcDbLine
 10
13234.45641374107
 20
23333.49609375
 30
0.0
 11
13234.45641374107
 21
18955.9800431535
 31
0.0
  0
LINE
  5
3AC
330
22
100
AcDbEntity
  8
_0-3_
  6
Continuous
 62
     6
100
AcDbLine
 10
13271.95839325965
 20
14481.12364073057
 30
0.0
 11
19196.94948542604
 21
14481.12364073057
 31
0.0
  0
LINE
  5
3AD
330
22
100
AcDbEntity
  8
_0-3_
  6
Continuous
 62
     6
100
AcDbLine
 10
13234.45641374107
 20
18955.9800431535
 30
0.0
 11
13234.45641374107
 21
14605.19120499894
 31
0.0
  0
LINE
  5
3AE
330
22
100
AcDbEntity
  8
_0-0_
  6
CENTER1
 62
     4
100
AcDbLine
 10
13234.45641374107
 20
14605.19120499894
 30
0.0
 11
13234.45641374107
 21
14455.60517182221
 31
0.0
  0
CIRCLE
  5
3AF
330
22
100
AcDbEntity
  8
_0-2_
  6
Continuous
 62
     7
100
AcDbCircle
 10
13102.31612525923
 20
23601.05772276183
 30
0.0
 40
10.00000073297603
  0
CIRCLE
  5
3B0
330
22
100
AcDbEntity
  8
_0-2_
  6
Continuous
 62
     7
100
AcDbCircle
 10
13102.15034057806
 20
23551.05508340372
 30
0.0
 40
10.00000073297603
  0
CIRCLE
  5
3B1
330
22
100
AcDbEntity
  8
_0-2_
  6
Continuous
 62
     7
100
AcDbCircle
 10
13234.45641374107
 20
23551.05508340372
 30
0.0
 40
10.00000073297603
  0
CIRCLE
  5
3B2
330
22
100
AcDbEntity
  8
_0-2_
  6
Continuous
 62
     7
100
AcDbCircle
 10
13234.45641374107
 20
23601.05772276183
 30
0.0
 40
10.00000073297603
  0
CIRCLE
  5
3B3
330
22
100
AcDbEntity
  8
_0-2_
  6
Continuous
 62
     7
100
AcDbCircle
 10
13234.45641374107
 20
23481.05930637669
 30
0.0
 40
10.00000073297603
  0
CIRCLE
  5
3B4
330
22
100
AcDbEntity
  8
_0-2_
  6
Continuous
 62
     7
100
AcDbCircle
 10
13546.45576049994
 20
23601.05772276183
 30
0.0
 40
15.00000019331236
  0
CIRCLE
  5
3B5
330
22
100
AcDbEntity
  8
_0-2_
  6
Continuous
 62
     7
100
AcDbCircle
 10
13366.59670222291
 20
23601.05772276183
 30
0.0
 40
10.00000073297603
  0
CIRCLE
  5
3B6
330
22
100
AcDbEntity
  8
_0-2_
  6
Continuous
 62
     7
100
AcDbCircle
 10
13366.76248690408
 20
23551.05508340372
 30
0.0
 40
10.00000073297603
  0
CIRCLE
  5
3B7
330
22
100
AcDbEntity
  8
_0-2_
  6
Continuous
 62
     7
100
AcDbCircle
 10
19366.59670222292
 20
23601.05772276183
 30
0.0
 40
10.00000073297603
  0
CIRCLE
  5
3B8
330
22
100
AcDbEntity
  8
_0-2_
  6
Continuous
 62
     7
100
AcDbCircle
 10
19366.76248690408
 20
23551.05508340372
 30
0.0
 40
10.00000073297603
  0
CIRCLE
  5
3B9
330
22
100
AcDbEntity
  8
_0-2_
  6
Continuous
 62
     7
100
AcDbCircle
 10
19234.45641374108
 20
23551.05508340372
 30
0.0
 40
10.00000073297603
  0
CIRCLE
  5
3BA
330
22
100
AcDbEntity
  8
_0-2_
  6
Continuous
 62
     7
100
AcDbCircle
 10
19234.45641374108
 20
23601.05772276183
 30
0.0
 40
10.00000073297603
  0
CIRCLE
  5
3BB
330
22
100
AcDbEntity
  8
_0-2_
  6
Continuous
 62
     7
100
AcDbCircle
 10
18922.4570669822
 20
23601.05772276183
 30
0.0
 40
15.00000019331236
  0
CIRCLE
  5
3BC
330
22
100
AcDbEntity
  8
_0-2_
  6
Continuous
 62
     7
100
AcDbCircle
 10
19102.31612525923
 20
23601.05772276183
 30
0.0
 40
10.00000073297603
  0
CIRCLE
  5
3BD
330
22
100
AcDbEntity
  8
_0-2_
  6
Continuous
 62
     7
100
AcDbCircle
 10
19102.15034057807
 20
23551.05508340372
 30
0.0
 40
10.00000073297603
  0
ARC
  5
3BE
330
22
100
AcDbEntity
  8
_0-3_
  6
Continuous
 62
     6
100
AcDbCircle
 10
13687.92700469335
 20
9781.119269293711
 30
0.0
 40
50.00114118730699
100
AcDbArc
 50
89.64202880859373
 51
270.3579711914062
  0
ARC
  5
3BF
330
22
100
AcDbEntity
  8
_0-3_
  6
Continuous
 62
     6
100
AcDbCircle
 10
13888.16149516527
 20
9781.119269293711
 30
0.0
 40
50.00022295359018
100
AcDbArc
 50
270.0879058837891
 51
89.91209411621095
  0
CIRCLE
  5
3C0
330
22
100
AcDbEntity
  8
_0-3_
  6
Continuous
 62
     6
100
AcDbCircle
 10
14038.16199004491
 20
9781.119269293711
 30
0.0
 40
50.00000064437454
  0
ARC
  5
3C1
330
22
100
AcDbEntity
  8
_0-3_
  6
Continuous
 62
     6
100
AcDbCircle
 10
13234.53064568786
 20
10081.21552338471
 30
0.0
 40
50.00114118730699
100
AcDbArc
 50
179.6420288085938
 51
0.3579711914061931
  0
ARC
  5
3C2
330
22
100
AcDbEntity
  8
_0-3_
  6
Continuous
 62
     6
100
AcDbCircle
 10
13234.53064568786
 20
10281.45125105574
 30
0.0
 40
50.00022295359018
100
AcDbArc
 50
0.0879058837891062
 51
179.9120941162109
  0
CIRCLE
  5
3C3
330
22
100
AcDbEntity
  8
_0-3_
  6
Continuous
 62
     6
100
AcDbCircle
 10
13234.53064568786
 20
10431.45174593539
 30
0.0
 40
50.00000064437454
  0
CIRCLE
  5
3C4
330
22
100
AcDbEntity
  8
_0-0_
  6
Continuous
 62
     7
100
AcDbCircle
 10
13234.69890476725
 20
18981.08776195629
 30
0.0
 40
10.00000012887491
  0
CIRCLE
  5
3C5
330
22
100
AcDbEntity
  8
_0-0_
  6
Continuous
 62
     7
100
AcDbCircle
 10
13073.75909532891
 20
19081.43327042863
 30
0.0
 40
10.00000012887491
  0
CIRCLE
  5
3C6
330
22
100
AcDbEntity
  8
_0-0_
  6
Continuous
 62
     7
100
AcDbCircle
 10
13394.68359649023
 20
19081.48275839316
 30
0.0
 40
10.00000012887491
  0
CIRCLE
  5
3C7
330
22
100
AcDbEntity
  8
_0-0_
  6
Continuous
 62
     7
100
AcDbCircle
 10
13234.69890476725
 20
19080.7552853146
 30
0.0
 40
10.00000012887491
  0
CIRCLE
  5
3C8
330
22
100
AcDbEntity
  8
_0-0_
  6
Continuous
 62
     7
100
AcDbCircle
 10
19234.53559448432
 20
9781.345676731421
 30
0.0
 40
10.00000012887491
  0
CIRCLE
  5
3C9
330
22
100
AcDbEntity
  8
_0-0_
  6
Continuous
 62
     7
100
AcDbCircle
 10
19015.46722191252
 20
9881.061450855154
 30
0.0
 40
10.00000012887491
  0
CIRCLE
  5
3CA
330
22
100
AcDbEntity
  8
_0-0_
  6
Continuous
 62
     7
100
AcDbCircle
 10
19234.87706143955
 20
9881.049078864021
 30
0.0
 40
10.00000012887491
  0
CIRCLE
  5
3CB
330
22
100
AcDbEntity
  8
_0-0_
  6
Continuous
 62
     7
100
AcDbCircle
 10
19453.0595994463
 20
9881.058976456927
 30
0.0
 40
10.00000012887491
  0
CIRCLE
  5
3CC
330
22
100
AcDbEntity
  8
_0-0_
  6
Continuous
 62
     7
100
AcDbCircle
 10
31234.01349645856
 20
18981.08528755807
 30
0.0
 40
10.00000012887491
  0
CIRCLE
  5
3CD
330
22
100
AcDbEntity
  8
_0-0_
  6
Continuous
 62
     7
100
AcDbCircle
 10
31073.75662093068
 20
19080.85178684544
 30
0.0
 40
10.00000012887491
  0
CIRCLE
  5
3CE
330
22
100
AcDbEntity
  8
_0-0_
  6
Continuous
 62
     7
100
AcDbCircle
 10
31394.67617329554
 20
19080.90251200908
 30
0.0
 40
10.00000012887491
  0
CIRCLE
  5
3CF
330
22
100
AcDbEntity
  8
_0-0_
  6
Continuous
 62
     7
100
AcDbCircle
 10
31234.01349645856
 20
19080.7540481155
 30
0.0
 40
10.00000012887491
  0
CIRCLE
  5
3D0
330
22
100
AcDbEntity
  8
_0-0_
  6
Continuous
 62
     7
100
AcDbCircle
 10
19234.69890476725
 20
18981.08776195629
 30
0.0
 40
10.00000012887491
  0
CIRCLE
  5
3D1
330
22
100
AcDbEntity
  8
_0-0_
  6
Continuous
 62
     7
100
AcDbCircle
 10
19073.75909532891
 20
19081.43327042863
 30
0.0
 40
10.00000012887491
  0
CIRCLE
  5
3D2
330
22
100
AcDbEntity
  8
_0-0_
  6
Continuous
 62
     7
100
AcDbCircle
 10
19394.68359649023
 20
19081.48399559227
 30
0.0
 40
10.00000012887491
  0
CIRCLE
  5
3D3
330
22
100
AcDbEntity
  8
_0-0_
  6
Continuous
 62
     7
100
AcDbCircle
 10
19234.69890476725
 20
19080.7552853146
 30
0.0
 40
10.00000012887491
  0
CIRCLE
  5
3D4
330
22
100
AcDbEntity
  8
_0-0_
  6
Continuous
 62
     7
100
AcDbCircle
 10
31234.69148157258
 20
14480.35657728041
 30
0.0
 40
10.00000012887491
  0
CIRCLE
  5
3D5
330
22
100
AcDbEntity
  8
_0-0_
  6
Continuous
 62
     7
100
AcDbCircle
 10
31046.46400849402
 20
14580.70208575274
 30
0.0
 40
10.00000012887491
  0
CIRCLE
  5
3D6
330
22
100
AcDbEntity
  8
_0-0_
  6
Continuous
 62
     7
100
AcDbCircle
 10
31234.69148157258
 20
14580.02533783783
 30
0.0
 40
10.00000012887491
  0
CIRCLE
  5
3D7
330
22
100
AcDbEntity
  8
_0-0_
  6
Continuous
 62
     7
100
AcDbCircle
 10
31422.44881898812
 20
14580.70208575274
 30
0.0
 40
10.00000012887491
  0
CIRCLE
  5
3D8
330
22
100
AcDbEntity
  8
_0-0_
  6
Continuous
 62
     7
100
AcDbCircle
 10
31422.43892139521
 20
14580.70208575274
 30
0.0
 40
10.00000012887491
  0
CIRCLE
  5
3D9
330
22
100
AcDbEntity
  8
_0-0_
  6
Continuous
 62
     7
100
AcDbCircle
 10
31102.2567397018
 20
23580.78745249156
 30
0.0
 40
10.00000012887491
  0
CIRCLE
  5
3DA
330
22
100
AcDbEntity
  8
_0-0_
  6
Continuous
 62
     7
100
AcDbCircle
 10
31366.31956962157
 20
23579.49581661741
 30
0.0
 40
10.00000012887491
  0
CIRCLE
  5
3DB
330
22
100
AcDbEntity
  8
_0-0_
  6
Continuous
 62
     7
100
AcDbCircle
 10
31234.69148157258
 20
23580.35690720017
 30
0.0
 40
10.00000012887491
  0
CIRCLE
  5
3DC
330
22
100
AcDbEntity
  8
_0-0_
  6
Continuous
 62
     7
100
AcDbCircle
 10
31234.69148157258
 20
23480.68814664273
 30
0.0
 40
10.00000012887491
  0
CIRCLE
  5
3DD
330
22
100
AcDbEntity
  8
_0-0_
  6
Continuous
 62
     7
100
AcDbCircle
 10
25234.68900717435
 20
14480.35657728041
 30
0.0
 40
10.00000012887491
  0
CIRCLE
  5
3DE
330
22
100
AcDbEntity
  8
_0-0_
  6
Continuous
 62
     7
100
AcDbCircle
 10
25046.45658529935
 20
14580.70208575274
 30
0.0
 40
10.00000012887491
  0
CIRCLE
  5
3DF
330
22
100
AcDbEntity
  8
_0-0_
  6
Continuous
 62
     7
100
AcDbCircle
 10
25234.68900717435
 20
14580.02533783783
 30
0.0
 40
10.00000012887491
  0
CIRCLE
  5
3E0
330
22
100
AcDbEntity
  8
_0-0_
  6
Continuous
 62
     7
100
AcDbCircle
 10
25422.44139579344
 20
14580.70208575274
 30
0.0
 40
10.00000012887491
  0
CIRCLE
  5
3E1
330
22
100
AcDbEntity
  8
_0-0_
  6
Continuous
 62
     7
100
AcDbCircle
 10
25422.43149820053
 20
14580.70208575274
 30
0.0
 40
10.00000012887491
  0
CIRCLE
  5
3E2
330
22
100
AcDbEntity
  8
_0-0_
  6
Continuous
 62
     7
100
AcDbCircle
 10
19234.68900717435
 20
14480.35657728041
 30
0.0
 40
10.00000012887491
  0
CIRCLE
  5
3E3
330
22
100
AcDbEntity
  8
_0-0_
  6
Continuous
 62
     7
100
AcDbCircle
 10
19046.45658529935
 20
14580.70208575274
 30
0.0
 40
10.00000012887491
  0
CIRCLE
  5
3E4
330
22
100
AcDbEntity
  8
_0-0_
  6
Continuous
 62
     7
100
AcDbCircle
 10
19234.68900717435
 20
14580.02533783783
 30
0.0
 40
10.00000012887491
  0
CIRCLE
  5
3E5
330
22
100
AcDbEntity
  8
_0-0_
  6
Continuous
 62
     7
100
AcDbCircle
 10
19422.44139579344
 20
14580.70208575274
 30
0.0
 40
10.00000012887491
  0
CIRCLE
  5
3E6
330
22
100
AcDbEntity
  8
_0-0_
  6
Continuous
 62
     7
100
AcDbCircle
 10
19422.43149820052
 20
14580.70208575274
 30
0.0
 40
10.00000012887491
  0
CIRCLE
  5
3E7
330
22
100
AcDbEntity
  8
_0-0_
  6
Continuous
 62
     7
100
AcDbCircle
 10
13234.69890476725
 20
14480.35657728041
 30
0.0
 40
10.00000012887491
  0
CIRCLE
  5
3E8
330
22
100
AcDbEntity
  8
_0-0_
  6
Continuous
 62
     7
100
AcDbCircle
 10
13046.46648289225
 20
14580.70208575274
 30
0.0
 40
10.00000012887491
  0
CIRCLE
  5
3E9
330
22
100
AcDbEntity
  8
_0-0_
  6
Continuous
 62
     7
100
AcDbCircle
 10
13234.69890476725
 20
14580.02533783783
 30
0.0
 40
10.00000012887491
  0
CIRCLE
  5
3EA
330
22
100
AcDbEntity
  8
_0-0_
  6
Continuous
 62
     7
100
AcDbCircle
 10
13422.45129338634
 20
14580.70208575274
 30
0.0
 40
10.00000012887491
  0
CIRCLE
  5
3EB
330
22
100
AcDbEntity
  8
_0-0_
  6
Continuous
 62
     7
100
AcDbCircle
 10
13422.44139579344
 20
14580.70208575274
 30
0.0
 40
10.00000012887491
  0
CIRCLE
  5
3EC
330
22
100
AcDbEntity
  8
_0-2_
  6
Continuous
 62
     7
100
AcDbCircle
 10
19234.45641374108
 20
23481.05930637669
 30
0.0
 40
10.00000073297603
  0
CIRCLE
  5
3ED
330
22
100
AcDbEntity
  8
_0-0_
  6
Continuous
 62
     7
100
AcDbCircle
 10
25366.32204401979
 20
23580.47320391681
 30
0.0
 40
10.00000012887491
  0
CIRCLE
  5
3EE
330
22
100
AcDbEntity
  8
_0-0_
  6
Continuous
 62
     7
100
AcDbCircle
 10
25102.25921410003
 20
23581.76483979096
 30
0.0
 40
10.00000012887491
  0
CIRCLE
  5
3EF
330
22
100
AcDbEntity
  8
_0-0_
  6
Continuous
 62
     7
100
AcDbCircle
 10
25234.6939559708
 20
23581.33429449957
 30
0.0
 40
10.00000012887491
  0
CIRCLE
  5
3F0
330
22
100
AcDbEntity
  8
_0-0_
  6
Continuous
 62
     7
100
AcDbCircle
 10
25234.6939559708
 20
23481.66553394214
 30
0.0
 40
10.00000012887491
  0
CIRCLE
  5
3F1
330
22
100
AcDbEntity
  8
_0-0_
  6
Continuous
 62
     7
100
AcDbCircle
 10
13234.04195203816
 20
9781.345676731421
 30
0.0
 40
10.00000012887491
  0
CIRCLE
  5
3F2
330
22
100
AcDbEntity
  8
_0-0_
  6
Continuous
 62
     7
100
AcDbCircle
 10
13014.97852826282
 20
9881.061450855154
 30
0.0
 40
10.00000012887491
  0
CIRCLE
  5
3F3
330
22
100
AcDbEntity
  8
_0-0_
  6
Continuous
 62
     7
100
AcDbCircle
 10
13234.38836778985
 20
9881.049078864021
 30
0.0
 40
10.00000012887491
  0
CIRCLE
  5
3F4
330
22
100
AcDbEntity
  8
_0-0_
  6
Continuous
 62
     7
100
AcDbCircle
 10
13452.5709057966
 20
9881.058976456927
 30
0.0
 40
10.00000012887491
  0
CIRCLE
  5
3F5
330
22
100
AcDbEntity
  8
_0-0_
  6
Continuous
 62
     7
100
AcDbCircle
 10
25234.53559448432
 20
9781.348151129643
 30
0.0
 40
10.00000012887491
  0
CIRCLE
  5
3F6
330
22
100
AcDbEntity
  8
_0-0_
  6
Continuous
 62
     7
100
AcDbCircle
 10
25015.46722191253
 20
9881.061450855154
 30
0.0
 40
10.00000012887491
  0
CIRCLE
  5
3F7
330
22
100
AcDbEntity
  8
_0-0_
  6
Continuous
 62
     7
100
AcDbCircle
 10
25234.87706143956
 20
9881.051553262247
 30
0.0
 40
10.00000012887491
  0
CIRCLE
  5
3F8
330
22
100
AcDbEntity
  8
_0-0_
  6
Continuous
 62
     7
100
AcDbCircle
 10
25453.05959944632
 20
9881.061450855154
 30
0.0
 40
10.00000012887491
  0
CIRCLE
  5
3F9
330
22
100
AcDbEntity
  8
_0-0_
  6
Continuous
 62
     7
100
AcDbCircle
 10
31234.53312008609
 20
9781.348151129643
 30
0.0
 40
10.00000012887491
  0
CIRCLE
  5
3FA
330
22
100
AcDbEntity
  8
_0-0_
  6
Continuous
 62
     7
100
AcDbCircle
 10
31015.4647475143
 20
9881.062688054266
 30
0.0
 40
10.00000012887491
  0
CIRCLE
  5
3FB
330
22
100
AcDbEntity
  8
_0-0_
  6
Continuous
 62
     7
100
AcDbCircle
 10
31234.87458704133
 20
9881.051553262247
 30
0.0
 40
10.00000012887491
  0
CIRCLE
  5
3FC
330
22
100
AcDbEntity
  8
_0-0_
  6
Continuous
 62
     7
100
AcDbCircle
 10
31453.05712504809
 20
9881.061450855154
 30
0.0
 40
10.00000012887491
  0
ARC
  5
3FD
330
22
100
AcDbEntity
  8
_0-3_
  6
Continuous
 62
     6
100
AcDbCircle
 10
19234.53064568786
 20
10081.21799778294
 30
0.0
 40
50.00114118730699
100
AcDbArc
 50
179.6420288085938
 51
0.3579711914061931
  0
ARC
  5
3FE
330
22
100
AcDbEntity
  8
_0-3_
  6
Continuous
 62
     6
100
AcDbCircle
 10
19234.53064568786
 20
10281.45248825486
 30
0.0
 40
50.00022295359018
100
AcDbArc
 50
0.0879058837891062
 51
179.9120941162109
  0
CIRCLE
  5
3FF
330
22
100
AcDbEntity
  8
_0-3_
  6
Continuous
 62
     6
100
AcDbCircle
 10
19234.53064568786
 20
10431.4529831345
 30
0.0
 40
50.00000064437454
  0
ARC
  5
400
330
22
100
AcDbEntity
  8
_0-3_
  6
Continuous
 62
     6
100
AcDbCircle
 10
25234.53064568787
 20
10081.21552338471
 30
0.0
 40
50.00114118730699
100
AcDbArc
 50
179.6420288085938
 51
0.3579711914061931
  0
ARC
  5
401
330
22
100
AcDbEntity
  8
_0-3_
  6
Continuous
 62
     6
100
AcDbCircle
 10
25234.53064568787
 20
10281.45125105574
 30
0.0
 40
50.00022295359018
100
AcDbArc
 50
0.0879058837891062
 51
179.9120941162109
  0
CIRCLE
  5
402
330
22
100
AcDbEntity
  8
_0-3_
  6
Continuous
 62
     6
100
AcDbCircle
 10
25234.53064568787
 20
10431.45174593539
 30
0.0
 40
50.00000064437454
  0
CIRCLE
  5
403
330
22
100
AcDbEntity
  8
_0-0_
  6
Continuous
 62
     7
100
AcDbCircle
 10
25234.01597085678
 20
18981.08528755807
 30
0.0
 40
10.00000012887491
  0
CIRCLE
  5
404
330
22
100
AcDbEntity
  8
_0-0_
  6
Continuous
 62
     7
100
AcDbCircle
 10
25073.75909532891
 20
19080.85178684544
 30
0.0
 40
10.00000012887491
  0
CIRCLE
  5
405
330
22
100
AcDbEntity
  8
_0-0_
  6
Continuous
 62
     7
100
AcDbCircle
 10
25394.67864769378
 20
19080.90251200908
 30
0.0
 40
10.00000012887491
  0
CIRCLE
  5
406
330
22
100
AcDbEntity
  8
_0-0_
  6
Continuous
 62
     7
100
AcDbCircle
 10
25234.01597085678
 20
19080.7540481155
 30
0.0
 40
10.00000012887491
  0
ARC
  5
407
330
22
100
AcDbEntity
  8
_0-3_
  6
Continuous
 62
     6
100
AcDbCircle
 10
13608.42211528246
 20
10257.96550029033
 30
0.0
 40
49.99994748347514
100
AcDbArc
 50
337.5456848144531
 51
157.5469970703125
  0
ARC
  5
408
330
22
100
AcDbEntity
  8
_0-3_
  6
Continuous
 62
     6
100
AcDbCircle
 10
13532.03496763677
 20
10073.12671558277
 30
0.0
 40
49.99994748347514
100
AcDbArc
 50
157.5463409423828
 51
337.5463409423828
  0
CIRCLE
  5
409
330
22
100
AcDbEntity
  8
_0-3_
  6
Continuous
 62
     6
100
AcDbCircle
 10
13667.29918387937
 20
10395.73751913534
 30
0.0
 40
50.00000064437454
  0
ARC
  5
40A
330
22
100
AcDbEntity
  8
_0-3_
  6
Continuous
 62
     6
100
AcDbCircle
 10
18859.77066231581
 20
10257.96550029033
 30
0.0
 40
49.99994748347514
100
AcDbArc
 50
22.4530029296875
 51
202.4543151855469
  0
ARC
  5
40B
330
22
100
AcDbEntity
  8
_0-3_
  6
Continuous
 62
     6
100
AcDbCircle
 10
18936.15780996151
 20
10073.12671558277
 30
0.0
 40
49.99994748347514
100
AcDbArc
 50
202.4536590576171
 51
22.45365905761719
  0
CIRCLE
  5
40C
330
22
100
AcDbEntity
  8
_0-3_
  6
Continuous
 62
     6
100
AcDbCircle
 10
18800.8935937189
 20
10395.73751913534
 30
0.0
 40
50.00000064437454
  0
ARC
  5
40D
330
22
100
AcDbEntity
  8
_0-3_
  6
Continuous
 62
     6
100
AcDbCircle
 10
19608.42087808334
 20
10257.96673748944
 30
0.0
 40
49.99994748347514
100
AcDbArc
 50
337.5456848144531
 51
157.5469970703125
  0
ARC
  5
40E
330
22
100
AcDbEntity
  8
_0-3_
  6
Continuous
 62
     6
100
AcDbCircle
 10
19532.03373043765
 20
10073.12795278188
 30
0.0
 40
49.99994748347514
100
AcDbArc
 50
157.5463409423828
 51
337.5463409423828
  0
CIRCLE
  5
40F
330
22
100
AcDbEntity
  8
_0-3_
  6
Continuous
 62
     6
100
AcDbCircle
 10
19667.29794668026
 20
10395.73875633446
 30
0.0
 40
50.00000064437454
  0
ARC
  5
410
330
22
100
AcDbEntity
  8
_0-3_
  6
Continuous
 62
     6
100
AcDbCircle
 10
24859.7681879176
 20
10257.96673748944
 30
0.0
 40
49.99994748347514
100
AcDbArc
 50
22.4530029296875
 51
202.4543151855469
  0
ARC
  5
411
330
22
100
AcDbEntity
  8
_0-3_
  6
Continuous
 62
     6
100
AcDbCircle
 10
24936.15780996151
 20
10073.12795278188
 30
0.0
 40
49.99994748347514
100
AcDbArc
 50
202.4536590576171
 51
22.45365905761719
  0
CIRCLE
  5
412
330
22
100
AcDbEntity
  8
_0-3_
  6
Continuous
 62
     6
100
AcDbCircle
 10
24800.89235651979
 20
10395.73875633446
 30
0.0
 40
50.00000064437454
  0
ARC
  5
413
330
22
100
AcDbEntity
  8
_0-3_
  6
Continuous
 62
     6
100
AcDbCircle
 10
25608.42211528246
 20
10257.96797468855
 30
0.0
 40
49.99994748347514
100
AcDbArc
 50
337.5456848144531
 51
157.5469970703125
  0
ARC
  5
414
330
22
100
AcDbEntity
  8
_0-3_
  6
Continuous
 62
     6
100
AcDbCircle
 10
25532.03249323854
 20
10073.12918998099
 30
0.0
 40
49.99994748347514
100
AcDbArc
 50
157.5463409423828
 51
337.5463409423828
  0
CIRCLE
  5
415
330
22
100
AcDbEntity
  8
_0-3_
  6
Continuous
 62
     6
100
AcDbCircle
 10
25667.29794668026
 20
10395.73999353357
 30
0.0
 40
50.00000064437454
  0
ARC
  5
416
330
22
100
AcDbEntity
  8
_0-3_
  6
Continuous
 62
     6
100
AcDbCircle
 10
30859.76571351937
 20
10257.96797468855
 30
0.0
 40
49.99994748347514
100
AcDbArc
 50
22.4530029296875
 51
202.4543151855469
  0
ARC
  5
417
330
22
100
AcDbEntity
  8
_0-3_
  6
Continuous
 62
     6
100
AcDbCircle
 10
30936.15533556329
 20
10073.12918998099
 30
0.0
 40
49.99994748347514
100
AcDbArc
 50
202.4536590576171
 51
22.45365905761719
  0
CIRCLE
  5
418
330
22
100
AcDbEntity
  8
_0-3_
  6
Continuous
 62
     6
100
AcDbCircle
 10
30800.88988212157
 20
10395.73999353357
 30
0.0
 40
50.00000064437454
  0
ARC
  5
419
330
22
100
AcDbEntity
  8
_0-3_
  6
Continuous
 62
     6
100
AcDbCircle
 10
31608.41964088424
 20
10257.96921188767
 30
0.0
 40
49.99994748347514
100
AcDbArc
 50
337.5456848144531
 51
157.5469970703125
  0
ARC
  5
41A
330
22
100
AcDbEntity
  8
_0-3_
  6
Continuous
 62
     6
100
AcDbCircle
 10
31532.03001884032
 20
10073.13042718011
 30
0.0
 40
49.99994748347514
100
AcDbArc
 50
157.5463409423828
 51
337.5463409423828
  0
CIRCLE
  5
41B
330
22
100
AcDbEntity
  8
_0-3_
  6
Continuous
 62
     6
100
AcDbCircle
 10
31667.29547228204
 20
10395.74123073269
 30
0.0
 40
50.00000064437454
  0
ARC
  5
41C
330
22
100
AcDbEntity
  8
_0-3_
  6
Continuous
 62
     6
100
AcDbCircle
 10
31234.52817128964
 20
10081.21676058383
 30
0.0
 40
50.00114118730699
100
AcDbArc
 50
179.6420288085938
 51
0.3579711914061931
  0
ARC
  5
41D
330
22
100
AcDbEntity
  8
_0-3_
  6
Continuous
 62
     6
100
AcDbCircle
 10
31234.52817128964
 20
10281.45125105574
 30
0.0
 40
50.00022295359018
100
AcDbArc
 50
0.0879058837891062
 51
179.9120941162109
  0
CIRCLE
  5
41E
330
22
100
AcDbEntity
  8
_0-3_
  6
Continuous
 62
     6
100
AcDbCircle
 10
31234.52817128964
 20
10431.45174593539
 30
0.0
 40
50.00000064437454
  0
ARC
  5
41F
330
22
100
AcDbEntity
  8
_0-6_
  6
Continuous
 62
     6
100
AcDbCircle
 10
13277.71136913592
 20
23468.9372294658
 30
0.0
 40
68.31586360931396
100
AcDbArc
 50
182.4142456054687
 51
230.7162933349609
  0
ARC
  5
420
330
22
100
AcDbEntity
  8
_0-6_
  6
Continuous
 62
     6
100
AcDbCircle
 10
13191.20145834622
 20
23468.9372294658
 30
0.0
 40
68.31586360931396
100
AcDbArc
 50
309.2837066650391
 51
357.5857543945312
  0
ARC
  5
421
330
22
100
AcDbEntity
  8
_0-6_
  6
Continuous
 62
     6
100
AcDbCircle
 10
19277.71136913592
 20
23468.9372294658
 30
0.0
 40
68.31586360931396
100
AcDbArc
 50
182.4142456054687
 51
230.7162933349609
  0
ARC
  5
422
330
22
100
AcDbEntity
  8
_0-6_
  6
Continuous
 62
     6
100
AcDbCircle
 10
19191.20145834622
 20
23468.9372294658
 30
0.0
 40
68.31586360931396
100
AcDbArc
 50
309.2837066650391
 51
357.5857543945312
  0
ARC
  5
423
330
22
100
AcDbEntity
  8
_0-6_
  6
Continuous
 62
     6
100
AcDbCircle
 10
25277.71136913592
 20
23459.3786291174
 30
0.0
 40
68.31586360931396
100
AcDbArc
 50
182.4142456054687
 51
230.7162933349609
  0
ARC
  5
424
330
22
100
AcDbEntity
  8
_0-6_
  6
Continuous
 62
     6
100
AcDbCircle
 10
25191.20145834623
 20
23459.3786291174
 30
0.0
 40
68.31586360931396
100
AcDbArc
 50
309.2837066650391
 51
357.5857543945312
  0
ARC
  5
425
330
22
100
AcDbEntity
  8
_0-6_
  6
Continuous
 62
     6
100
AcDbCircle
 10
31277.70889473769
 20
23458.40124181799
 30
0.0
 40
68.31586360931396
100
AcDbArc
 50
182.4142456054687
 51
230.7162933349609
  0
ARC
  5
426
330
22
100
AcDbEntity
  8
_0-6_
  6
Continuous
 62
     6
100
AcDbCircle
 10
31191.198983948
 20
23458.40124181799
 30
0.0
 40
68.31586360931396
100
AcDbArc
 50
309.2837066650391
 51
357.5857543945312
  0
CIRCLE
  5
427
330
22
100
AcDbEntity
  8
_0-F_
  6
Continuous
 62
     4
100
AcDbCircle
 10
12729.95012217118
 20
23981.12529032939
 30
0.0
 40
300.0000038662473
  0
CIRCLE
  5
428
330
22
100
AcDbEntity
  8
_0-F_
  6
Continuous
 62
     4
100
AcDbCircle
 10
12695.62032117878
 20
19285.1752203864
 30
0.0
 40
300.0000038662473
  0
CIRCLE
  5
429
330
22
100
AcDbEntity
  8
_0-F_
  6
Continuous
 62
     4
100
AcDbCircle
 10
12686.21265912219
 20
10153.34423168285
 30
0.0
 40
300.0000038662473
  0
CIRCLE
  5
42A
330
22
100
AcDbEntity
  8
_0-F_
  6
Continuous
 62
     4
100
AcDbCircle
 10
12704.17555304639
 20
14781.64672851562
 30
0.0
 40
300.0000038662473
  0
TEXT
  5
42B
330
22
100
AcDbEntity
  8
_0-9_
 62
     4
100
AcDbText
 10
8684.456248781192
 20
14806.12223857158
 30
0.0
 40
250.0
  1
17,000
 50
90.0
100
AcDbText
  0
TEXT
  5
42C
330
22
100
AcDbEntity
  8
_0-9_
 62
     4
100
AcDbText
 10
9184.455423981782
 20
7868.624197470175
 30
0.0
 40
250.0
  1
3,000
 50
90.0
100
AcDbText
  0
TEXT
  5
42D
330
22
100
AcDbEntity
  8
_0-9_
 62
     4
100
AcDbText
 10
9184.455423981782
 20
16306.12347577069
 30
0.0
 40
250.0
  1
14,000
 50
90.0
100
AcDbText
  0
TEXT
  5
42E
330
22
100
AcDbEntity
  8
_0-7_
 62
     7
100
AcDbText
 10
12109.59250564352
 20
20674.19454213736
 30
0.0
 40
300.0
  1
PC　POLE
 50
90.0
100
AcDbText
  0
TEXT
  5
42F
330
22
100
AcDbEntity
  8
_0-9_
 62
     4
100
AcDbText
 10
9670.459402814133
 20
23271.31199192356
 30
0.0
 40
250.0
  1
200
 50
90.0
100
AcDbText
  0
TEXT
  5
430
330
22
100
AcDbEntity
  8
_0-9_
 62
     4
100
AcDbText
 10
9684.454599182375
 20
20918.62487792969
 30
0.0
 40
250.0
  1
4,500
 50
90.0
100
AcDbText
  0
TEXT
  5
431
330
22
100
AcDbEntity
  8
_0-9_
 62
     4
100
AcDbText
 10
9684.454599182375
 20
16418.62302213102
 30
0.0
 40
250.0
  1
4,500
 50
90.0
100
AcDbText
  0
TEXT
  5
432
330
22
100
AcDbEntity
  8
_0-9_
 62
     4
100
AcDbText
 10
9681.618938814978
 20
9242.194716994827
 30
0.0
 40
250.0
  1
400
 50
90.0
100
AcDbText
  0
TEXT
  5
433
330
22
100
AcDbEntity
  8
_0-9_
 62
     4
100
AcDbText
 10
9681.618938814978
 20
9716.173842146591
 30
0.0
 40
250.0
  1
50
 50
90.0
100
AcDbText
  0
TEXT
  5
434
330
22
100
AcDbEntity
  8
_0-9_
 62
     4
100
AcDbText
 10
9684.454599182375
 20
7656.122877791123
 30
0.0
 40
250.0
  1
2,600
 50
90.0
100
AcDbText
  0
TEXT
  5
435
330
22
100
AcDbEntity
  8
_0-9_
 62
     4
100
AcDbText
 10
9684.454599182375
 20
11818.62145501214
 30
0.0
 40
250.0
  1
4,750
 50
90.0
100
AcDbText
  0
TEXT
  5
436
330
22
100
AcDbEntity
  8
_0-F_
 62
     4
100
AcDbText
 10
10775.68638348743
 20
9937.252560177364
 30
0.0
 40
250.0
  1
ＧＬ
100
AcDbText
  0
TEXT
  5
437
330
22
100
AcDbEntity
  8
_0-F_
 62
     7
100
AcDbText
 10
14399.42883244884
 20
24375.14846389358
 30
0.0
 40
300.0
  1
ｼﾞｮｲﾝﾄﾋﾞｰﾑ
100
AcDbText
  0
TEXT
  5
438
330
22
100
AcDbEntity
  8
_0-F_
 62
     7
100
AcDbText
 10
14439.64691766052
 20
8536.245191419446
 30
0.0
 40
300.0
  1
ﾈｶｾ
100
AcDbText
  0
TEXT
  5
439
330
22
100
AcDbEntity
  8
_0-F_
 62
     7
100
AcDbText
 10
38879.95366880864
 20
24367.36400707349
 30
0.0
 40
300.0
  1
ﾊﾞﾝﾄﾞ
100
AcDbText
  0
TEXT
  5
43A
330
22
100
AcDbEntity
  8
_0-F_
 62
     7
100
AcDbText
 10
38908.45378757976
 20
19895.29130265519
 30
0.0
 40
300.0
  1
ﾊﾞﾝﾄﾞ
100
AcDbText
  0
TEXT
  5
43B
330
22
100
AcDbEntity
  8
_0-F_
 62
     7
100
AcDbText
 10
38935.83547835257
 20
15395.1416015625
 30
0.0
 40
300.0
  1
ﾊﾞﾝﾄﾞ
100
AcDbText
  0
TEXT
  5
43C
330
22
100
AcDbEntity
  8
_0-F_
 62
     7
100
AcDbText
 10
38966.67637784581
 20
10696.16781698691
 30
0.0
 40
300.0
  1
ﾊﾞﾝﾄﾞ
100
AcDbText
  0
TEXT
  5
43D
330
22
100
AcDbEntity
  8
_0-F_
 62
     7
100
AcDbText
 10
12579.95074077074
 20
23831.12479544974
 30
0.0
 40
300.0
  1
Ａ
100
AcDbText
  0
TEXT
  5
43E
330
22
100
AcDbEntity
  8
_0-F_
 62
     7
100
AcDbText
 10
12545.62093977834
 20
19135.17472550676
 30
0.0
 40
300.0
  1
Ｂ
100
AcDbText
  0
TEXT
  5
43F
330
22
100
AcDbEntity
  8
_0-F_
 62
     7
100
AcDbText
 10
12536.21327772175
 20
10003.34373680321
 30
0.0
 40
300.0
  1
Ｃ
100
AcDbText
  0
TEXT
  5
440
330
22
100
AcDbEntity
  8
_0-F_
 62
     7
100
AcDbText
 10
12554.17617164595
 20
14631.64623363598
 30
0.0
 40
300.0
  1
Ｂ
100
AcDbText
  0
POINT
  5
441
330
22
100
AcDbEntity
  8
_0-9_
 62
     4
100
AcDbPoint
 10
13235.08985968702
 20
4108.107592608478
 30
0.0
  0
POINT
  5
442
330
22
100
AcDbEntity
  8
_0-9_
 62
     4
100
AcDbPoint
 10
19235.08985968702
 20
4108.107592608478
 30
0.0
  0
POINT
  5
443
330
22
100
AcDbEntity
  8
_0-9_
 62
     4
100
AcDbPoint
 10
25235.08985968702
 20
4108.107592608478
 30
0.0
  0
POINT
  5
444
330
22
100
AcDbEntity
  8
_0-9_
 62
     4
100
AcDbPoint
 10
31235.0873852888
 20
4108.107592608478
 30
0.0
  0
POINT
  5
445
330
22
100
AcDbEntity
  8
_0-9_
 62
     4
100
AcDbPoint
 10
8734.456413741074
 20
23681.12430057009
 30
0.0
  0
POINT
  5
446
330
22
100
AcDbEntity
  8
_0-9_
 62
     4
100
AcDbPoint
 10
8734.456413741074
 20
6681.123269570841
 30
0.0
  0
POINT
  5
447
330
22
100
AcDbEntity
  8
_0-9_
 62
     4
100
AcDbPoint
 10
9234.455588941662
 20
6681.123269570841
 30
0.0
  0
POINT
  5
448
330
22
100
AcDbEntity
  8
_0-9_
 62
     4
100
AcDbPoint
 10
9234.455588941662
 20
9681.123888170397
 30
0.0
  0
POINT
  5
449
330
22
100
AcDbEntity
  8
_0-9_
 62
     4
100
AcDbPoint
 10
9234.455588941662
 20
23681.12430057009
 30
0.0
  0
POINT
  5
44A
330
22
100
AcDbEntity
  8
_0-9_
 62
     4
100
AcDbPoint
 10
9734.457238540478
 20
23681.12430057009
 30
0.0
  0
POINT
  5
44B
330
22
100
AcDbEntity
  8
_0-9_
 62
     4
100
AcDbPoint
 10
9734.457238540478
 20
23481.12364073058
 30
0.0
  0
POINT
  5
44C
330
22
100
AcDbEntity
  8
_0-9_
 62
     4
100
AcDbPoint
 10
9734.457238540478
 20
18981.12364073057
 30
0.0
  0
POINT
  5
44D
330
22
100
AcDbEntity
  8
_0-9_
 62
     4
100
AcDbPoint
 10
9734.457238540478
 20
14481.12364073057
 30
0.0
  0
POINT
  5
44E
330
22
100
AcDbEntity
  8
_0-9_
 62
     4
100
AcDbPoint
 10
9734.457238540478
 20
9781.12050649282
 30
0.0
  0
POINT
  5
44F
330
22
100
AcDbEntity
  8
_0-9_
 62
     4
100
AcDbPoint
 10
9734.457238540478
 20
9681.121413772171
 30
0.0
  0
POINT
  5
450
330
22
100
AcDbEntity
  8
_0-9_
 62
     4
100
AcDbPoint
 10
9734.457238540478
 20
9681.122650971284
 30
0.0
  0
POINT
  5
451
330
22
100
AcDbEntity
  8
_0-9_
 62
     4
100
AcDbPoint
 10
9734.457238540478
 20
9281.120712692674
 30
0.0
  0
POINT
  5
452
330
22
100
AcDbEntity
  8
_0-9_
 62
     4
100
AcDbPoint
 10
9734.457238540478
 20
6681.123269570841
 30
0.0
  0
TEXT
  5
453
330
22
100
AcDbEntity
  8
_0-9_
 62
     4
100
AcDbText
 10
15922.58924108746
 20
4158.10775756836
 30
0.0
 40
250.0
  1
8,000
100
AcDbText
  0
TEXT
  5
454
330
22
100
AcDbEntity
  8
_0-9_
 62
     4
100
AcDbText
 10
15577.30616157323
 20
3738.618473784919
 30
0.0
 40
250.0
  1
（11,000）
100
AcDbText
  0
TEXT
  5
455
330
22
100
AcDbEntity
  8
_0-9_
 62
     4
100
AcDbText
 10
21972.23214032316
 20
4158.10775756836
 30
0.0
 40
250.0
  1
8,000
100
AcDbText
  0
TEXT
  5
456
330
22
100
AcDbEntity
  8
_0-9_
 62
     4
100
AcDbText
 10
21626.94906080893
 20
3738.618473784919
 30
0.0
 40
250.0
  1
（11,000）
100
AcDbText
  0
TEXT
  5
457
330
22
100
AcDbEntity
  8
_0-9_
 62
     4
100
AcDbText
 10
27911.56922902692
 20
4158.10775756836
 30
0.0
 40
250.0
  1
8,000
100
AcDbText
  0
TEXT
  5
458
330
22
100
AcDbEntity
  8
_0-9_
 62
     4
100
AcDbText
 10
27566.28614951269
 20
3738.618473784919
 30
0.0
 40
250.0
  1
（11,000）
100
AcDbText
  0
LINE
  5
459
330
22
100
AcDbEntity
  8
_0-F_
  6
Continuous
 62
     4
100
AcDbLine
 10
31874.65499244674
 20
23313.74297270904
 30
0.0
 11
33479.79499789626
 21
26093.92665067121
 31
0.0
  0
LINE
  5
45A
330
22
100
AcDbEntity
  8
_0-F_
  6
Continuous
 62
     4
100
AcDbLine
 10
34167.0170404955
 20
26500.83154140178
 30
0.0
 11
34349.42225454743
 21
26500.83154140178
 31
0.0
  0
LINE
  5
45B
330
22
100
AcDbEntity
  8
_0-F_
  6
Continuous
 62
     4
100
AcDbLine
 10
34167.0170404955
 20
26093.92665067121
 30
0.0
 11
33479.79499789626
 21
26093.92665067121
 31
0.0
  0
TEXT
  5
45C
330
22
100
AcDbEntity
  8
_0-F_
 62
     7
100
AcDbText
 10
34422.65165765661
 20
26611.17980470415
 30
0.0
 40
300.0
  1
NET
100
AcDbText
  0
LINE
  5
45D
330
22
100
AcDbEntity
  8
_0-F_
  6
Continuous
 62
     4
100
AcDbLine
 10
34167.0170404955
 20
26500.83154140178
 30
0.0
 11
34167.0170404955
 21
25285.22023929118
 31
0.0
  0
LINE
  5
45E
330
22
100
AcDbEntity
  8
_0-F_
  6
Continuous
 62
     4
100
AcDbLine
 10
34167.0170404955
 20
25285.22023929118
 30
0.0
 11
34349.42225454743
 21
25285.22023929118
 31
0.0
  0
TEXT
  5
45F
330
22
100
AcDbEntity
  8
_0-F_
 62
     7
100
AcDbText
 10
34084.06275083421
 20
25319.62843945648
 30
0.0
 40
300.0
  1
（KSP-24 37.5㎜目 ｽｰﾊﾟｰﾎﾟﾘｴﾁﾚﾝ）
100
AcDbText
  0
TEXT
  5
460
330
22
100
AcDbEntity
  8
_0-F_
 62
     7
100
AcDbText
 10
34256.59184851861
 20
26164.08078918472
 30
0.0
 40
300.0
  1
ｸﾚﾓﾅ250D/80本×37.5㎜目
100
AcDbText
  0
TEXT
  5
461
330
22
100
AcDbEntity
  8
_0-F_
 62
     7
100
AcDbText
 10
34084.06275083421
 20
25741.12889148134
 30
0.0
 40
300.0
  1
（KRP-40 1800D/18本×40㎜目 ｴｺﾛﾈｯﾄ）
100
AcDbText
  0
TEXT
  5
462
330
22
100
AcDbEntity
  8
_0-7_
 62
     7
100
AcDbText
 10
12505.56954444005
 20
20499.18273140486
 30
0.0
 40
300.0
  1
17-22-1500
 50
90.0
100
AcDbText
  0
TEXT
  5
463
330
22
100
AcDbEntity
  8
_0-F_
 62
     7
100
AcDbText
 10
14905.94050006128
 20
21900.20834433066
 30
0.0
 40
300.0
  1
ﾌﾞﾚｰｽﾜｲﾔｰ　55m㎡
100
AcDbText
  0
TEXT
  5
464
330
22
100
AcDbEntity
  8
_0-F_
 62
     7
100
AcDbText
 10
19904.77567709622
 20
21364.29080447635
 30
0.0
 40
300.0
  1
縦ﾜｲﾔｰ 38m㎡
100
AcDbText
  0
TEXT
  5
465
330
22
100
AcDbEntity
  8
_0-F_
 62
     7
100
AcDbText
 10
22865.21252385509
 20
24061.50116791596
 30
0.0
 40
300.0
  1
横ﾜｲﾔｰ 38m㎡
100
AcDbText
  0
TEXT
  5
466
330
22
100
AcDbEntity
  8
_0-F_
 62
     7
100
AcDbText
 10
22865.21252385509
 20
19561.50240511508
 30
0.0
 40
300.0
  1
横ﾜｲﾔｰ 38m㎡
100
AcDbText
  0
TEXT
  5
467
330
22
100
AcDbEntity
  8
_0-F_
 62
     7
100
AcDbText
 10
22865.21252385509
 20
15061.50240511507
 30
0.0
 40
300.0
  1
横ﾜｲﾔｰ 38m㎡
100
AcDbText
  0
TEXT
  5
468
330
22
100
AcDbEntity
  8
_0-F_
 62
     7
100
AcDbText
 10
22865.21252385509
 20
10361.49803367821
 30
0.0
 40
300.0
  1
横ﾜｲﾔｰ 38m㎡
100
AcDbText
  0
LINE
  5
469
330
22
100
AcDbEntity
  8
_0-F_
  6
Continuous
 62
     4
100
AcDbLine
 10
25876.07844523381
 20
23479.62168100718
 30
0.0
 11
26780.45539360531
 21
25046.04064262493
 31
0.0
  0
LINE
  5
46A
330
22
100
AcDbEntity
  8
_0-F_
  6
Continuous
 62
     4
100
AcDbLine
 10
25876.07844523381
 20
23479.62168100718
 30
0.0
 11
25876.07844523381
 21
23579.62201092694
 31
0.0
  0
TEXT
  5
46B
330
22
100
AcDbEntity
  8
_0-E_
 62
     7
100
AcDbText
 10
4728.150381098859
 20
5890.280088740989
 30
0.0
 40
400.0
  1
設計条件
100
AcDbText
  0
TEXT
  5
46C
330
22
100
AcDbEntity
  8
_0-E_
 62
     7
100
AcDbText
 10
5728.15038109886
 20
4440.280088740989
 30
0.0
 40
300.0
  1
基準風速・・・３４ｍ／ｓｅｃ
100
AcDbText
  0
TEXT
  5
46D
330
22
100
AcDbEntity
  8
_0-E_
 62
     7
100
AcDbText
 10
5728.15038109886
 20
3940.280088740988
 30
0.0
 40
300.0
  1
地表面粗度区分・・・Ⅲ
100
AcDbText
  0
TEXT
  5
46E
330
22
100
AcDbEntity
  8
_0-E_
 62
     7
100
AcDbText
 10
5728.15038109886
 20
3440.280088740988
 30
0.0
 40
300.0
  1
基礎　普通土質（Ｂ）を選定
100
AcDbText
  0
TEXT
  5
46F
330
22
100
AcDbEntity
  8
_0-E_
 62
     7
100
AcDbText
 10
5228.15038109886
 20
5440.280088740989
 30
0.0
 40
300.0
  1
・設計荷重　建築基準法・同施工令
100
AcDbText
  0
TEXT
  5
470
330
22
100
AcDbEntity
  8
_0-E_
 62
     7
100
AcDbText
 10
5467.608259621497
 20
4940.280088740989
 30
0.0
 40
300.0
  1
（平成１２年６月）に基づく風圧力による。
100
AcDbText
  0
TEXT
  5
471
330
22
100
AcDbEntity
  8
_0-F_
 62
     7
100
AcDbText
 10
19912.31780785002
 20
22988.64168734164
 30
0.0
 40
300.0
  1
ﾎﾟﾘﾛｰﾌﾟ6φ押え
100
AcDbText
  0
TEXT
  5
472
330
22
100
AcDbEntity
  8
_0-F_
 62
     7
100
AcDbText
 10
26866.47586842584
 20
25095.73398220474
 30
0.0
 40
300.0
  1
ポリロープ4φにてかがりどめ
100
AcDbText
  0
LINE
  5
473
330
22
100
AcDbEntity
  8
_0-F_
  6
Continuous
 62
     4
100
AcDbLine
 10
26780.45539360531
 20
25046.04064262493
 30
0.0
 11
31615.7606689471
 21
25046.04064262493
 31
0.0
  0
ENDSEC
  0
SECTION
  2
OBJECTS
  0
DICTIONARY
  5
C
330
0
100
AcDbDictionary
281
     1
  3
ACAD_COLOR
350
1B
  3
ACAD_GROUP
350
D
  3
ACAD_LAYOUT
350
19
  3
ACAD_MATERIAL
350
1A
  3
ACAD_MLINESTYLE
350
16
  3
ACAD_PLOTSETTINGS
350
18
  3
ACAD_PLOTSTYLENAME
350
E
  3
ACAD_TABLESTYLE
350
1C
  3
ACDBHEADERROUNDTRIPXREC
350
764
  3
AcDbVariableDictionary
350
75F
  3
ADE_QUERY_LIBRARY
350
75D
  3
AEC_VARS
350
49B
  3
ASE_INDEX_DICTIONARY
350
759
  3
Autodesk_MAP
350
49D
  3
Root
350
476
1001
ADE
1000
ADE02C004
1000
[Query]
1000
CaseSensitiveMatch=0
1000
SaveCurrQueryInSession=1
1000
MkSelSetWithQryObj=0
1000
ShowBlockAsInsPt=0
1000
CreateAssociativeHatchObjects=0
1000
ReferenceBoundaryForAreaLocation=1
1000
ShowImageAsBoundary=1
1000
DefaultJoinOperator=2
1000
ColorForAdd=red
1000
ColorForRemove=red
1000
BlockLocnForQuery=1
1000
TextLocnForQuery=1
1000
IncludeAllObjectsInGroups=0
1000
AlwaysUseLibraryDefinitions=0
1000
PreviewDefinitionsFrom=2
1000
[Save Back]
1000
RedefineBlockDefinitions=1
1000
RedefineLayerDefinitions=1
1000
RedefineTextStyleDefinitions=1
1000
RemoveUnusedGroups=1
1000
EraseSavedBackObjects=1
1000
RemoveLockAfterSave=1
1000
CreateHistoryFileOfChanges=0
1000
CreateBackupFileOfSourceDwg=1
1000
DontAddObjectsToSaveSet=0
1000
MarkObjectsForEditingWithoutPrompting=0
1000
[Coordinate Transformation]
1000
RestoreLastActiveDwgsOnStartup=1
1000
ActivateDwgsOnAttach=1
1000
AdjustSizesAndScalesForChangesInUnits=1
1000
AdjustRotationsForMapDistortions=1
1000
AdjustSizesAndScalesForMapDistortions=1
1000
AdjustElevations=1
1000
AdjustZeroRotationObjects=1
1000
ReconnectDbOnWSOpen=1
1000
NoOfSQLConditionsInHistory=10
  0
DICTIONARY
  5
1B
102
{ACAD_REACTORS
330
C
102
}
330
C
100
AcDbDictionary
281
     1
  0
DICTIONARY
  5
D
102
{ACAD_REACTORS
330
C
102
}
330
C
100
AcDbDictionary
281
     1
  0
DICTIONARY
  5
19
102
{ACAD_REACTORS
330
C
102
}
330
C
100
AcDbDictionary
281
     1
  3
Model
350
25
  3
レイアウト1
350
21
  0
DICTIONARY
  5
1A
102
{ACAD_REACTORS
330
C
102
}
330
C
100
AcDbDictionary
281
     1
  0
DICTIONARY
  5
16
102
{ACAD_REACTORS
330
C
102
}
330
C
100
AcDbDictionary
281
     1
  3
Standard
350
17
  0
DICTIONARY
  5
18
102
{ACAD_REACTORS
330
C
102
}
330
C
100
AcDbDictionary
281
     1
  0
ACDBDICTIONARYWDFLT
  5
E
102
{ACAD_REACTORS
330
C
102
}
330
C
100
AcDbDictionary
281
     1
  3
Normal
350
F
100
AcDbDictionaryWithDefault
340
F
  0
DICTIONARY
  5
1C
102
{ACAD_REACTORS
330
C
102
}
330
C
100
AcDbDictionary
281
     1
  3
Legend
350
4A1
  3
Standard
350
1D
  0
DICTIONARY
  5
764
102
{ACAD_REACTORS
330
C
102
}
330
C
100
AcDbDictionary
281
     1
  0
DICTIONARY
  5
75F
102
{ACAD_REACTORS
330
C
102
}
330
C
100
AcDbDictionary
281
     1
  3
CTABLESTYLE
350
760
  3
DIMASSOC
350
761
  3
PROJECTNAME
350
762
  0
DICTIONARY
  5
75D
102
{ACAD_REACTORS
330
C
102
}
330
C
100
AcDbDictionary
281
     1
  3
_CurrQry
350
75E
  0
DICTIONARY
  5
49B
102
{ACAD_REACTORS
330
C
102
}
330
C
100
AcDbDictionary
281
     1
  3
AEC_VARS_DWG_SETUP
350
49C
  0
DICTIONARY
  5
759
102
{ACAD_REACTORS
330
C
102
}
330
C
100
AcDbDictionary
281
     1
  3
ASEBlockHierarchyIndexRecord
350
75B
1001
DCO15
1040
1621943107.64
  0
DICTIONARY
  5
49D
102
{ACAD_REACTORS
330
C
102
}
330
C
100
AcDbDictionary
281
     1
  3
MAP_DISPLAY_MANAGEMENT_DICTIONARY
350
49E
  3
MAP_DISPLAY_STYLELIBRARY_DICTIONARY
350
49F
  0
LAYOUT
  5
25
102
{ACAD_XDICTIONARY
360
767
102
}
102
{ACAD_REACTORS
330
19
102
}
330
19
100
AcDbPlotSettings
  1

  2
DCColor a450_newosk
  4

  6

 40
0.0
 41
0.0
 42
0.0
 43
0.0
 44
0.0
 45
0.0
 46
0.0
 47
0.0
 48
0.0
 49
0.0
140
0.0
141
0.0
142
1.0
143
1.0
 70
  1712
 72
     0
 73
     0
 74
     0
  7

 75
     0
147
1.0
148
0.0
149
0.0
100
AcDbLayout
  1
Model
 70
     1
 71
     0
 10
0.0
 20
0.0
 11
12.0
 21
9.0
 12
0.0
 22
0.0
 32
0.0
 14
0.0
 24
0.0
 34
0.0
 15
0.0
 25
0.0
 35
0.0
146
0.0
 13
0.0
 23
0.0
 33
0.0
 16
1.0
 26
0.0
 36
0.0
 17
0.0
 27
1.0
 37
0.0
 76
     0
330
22
  0
LAYOUT
  5
21
102
{ACAD_XDICTIONARY
360
765
102
}
102
{ACAD_REACTORS
330
19
102
}
330
19
100
AcDbPlotSettings
  1

  2
DCColor a450_newosk
  4

  6

 40
0.0
 41
0.0
 42
0.0
 43
0.0
 44
0.0
 45
0.0
 46
0.0
 47
0.0
 48
0.0
 49
0.0
140
0.0
141
0.0
142
1.0
143
1.0
 70
   688
 72
     0
 73
     0
 74
     5
  7

 75
    16
147
1.0
148
0.0
149
0.0
100
AcDbLayout
  1
レイアウト1
 70
     1
 71
     1
 10
0.0
 20
0.0
 11
12.0
 21
9.0
 12
0.0
 22
0.0
 32
0.0
 14
1.000000000000000E+20
 24
1.000000000000000E+20
 34
1.000000000000000E+20
 15
-1.000000000000000E+20
 25
-1.000000000000000E+20
 35
-1.000000000000000E+20
146
0.0
 13
0.0
 23
0.0
 33
0.0
 16
1.0
 26
0.0
 36
0.0
 17
0.0
 27
1.0
 37
0.0
 76
     0
330
1E
  0
MLINESTYLE
  5
17
102
{ACAD_REACTORS
330
16
102
}
330
16
100
AcDbMlineStyle
  2
STANDARD
 70
     0
  3

 62
   256
 51
90.0
 52
90.0
 71
     2
 49
0.5
 62
   256
  6
BYLAYER
 49
-0.5
 62
   256
  6
BYLAYER
  0
ACDBPLACEHOLDER
  5
F
102
{ACAD_REACTORS
330
E
102
}
330
E
  0
TABLESTYLE
  5
4A1
102
{ACAD_REACTORS
330
1C
102
}
330
1C
100
AcDbTableStyle
  3

 70
     0
 71
     1
 40
0.06
 41
0.06
280
     0
281
     0
  7
STANDARD
140
0.4
170
     4
 62
     0
 63
     7
283
     0
274
    -2
284
     0
 64
     0
275
    -2
285
     0
 65
     0
276
    -2
286
     1
 66
     0
277
    -2
287
     1
 67
     0
278
    -2
288
     0
 68
     0
279
    -2
289
     1
 69
     0
  7
STANDARD
140
0.5
170
     5
 62
     0
 63
     7
283
     0
274
    -2
284
     1
 64
     0
275
    -2
285
     0
 65
     0
276
    -2
286
     1
 66
     0
277
    -2
287
     1
 67
     0
278
    -2
288
     0
 68
     0
279
    -2
289
     1
 69
     0
  7
STANDARD
140
0.4
170
     4
 62
     0
 63
     7
283
     0
274
    -2
284
     1
 64
     0
275
    -2
285
     0
 65
     0
276
    -2
286
     1
 66
     0
277
    -2
287
     1
 67
     0
278
    -2
288
     0
 68
     0
279
    -2
289
     1
 69
     0
  0
TABLESTYLE
  5
1D
102
{ACAD_REACTORS
330
1C
102
}
330
1C
100
AcDbTableStyle
  3
Standard
 70
     0
 71
     0
 40
0.06
 41
0.06
280
     0
281
     0
  7
STANDARD
140
0.18
170
     2
 62
     0
 63
     7
283
     0
274
    -2
284
     1
 64
     0
275
    -2
285
     1
 65
     0
276
    -2
286
     1
 66
     0
277
    -2
287
     1
 67
     0
278
    -2
288
     1
 68
     0
279
    -2
289
     1
 69
     0
  7
STANDARD
140
0.25
170
     5
 62
     0
 63
     7
283
     0
274
    -2
284
     1
 64
     0
275
    -2
285
     1
 65
     0
276
    -2
286
     1
 66
     0
277
    -2
287
     1
 67
     0
278
    -2
288
     1
 68
     0
279
    -2
289
     1
 69
     0
  7
STANDARD
140
0.18
170
     5
 62
     0
 63
     7
283
     0
274
    -2
284
     1
 64
     0
275
    -2
285
     1
 65
     0
276
    -2
286
     1
 66
     0
277
    -2
287
     1
 67
     0
278
    -2
288
     1
 68
     0
279
    -2
289
     1
 69
     0
  0
DICTIONARYVAR
  5
760
102
{ACAD_REACTORS
330
75F
102
}
330
75F
100
DictionaryVariables
280
     0
  1
STANDARD
  0
DICTIONARYVAR
  5
761
102
{ACAD_REACTORS
330
75F
102
}
330
75F
100
DictionaryVariables
280
     0
  1
1
  0
DICTIONARYVAR
  5
762
102
{ACAD_REACTORS
330
75F
102
}
330
75F
100
DictionaryVariables
280
     0
  1

  0
XRECORD
  5
75E
102
{ACAD_REACTORS
330
75D
102
}
330
75D
100
AcDbXrecord
280
     1
1000
ADE02C001
1070
     1
1070
     0
1002
{
1002
}
1002
{
1002
}
1002
{
1002
}
1000

  0
XRECORD
  5
75B
102
{ACAD_REACTORS
330
759
102
}
330
759
100
AcDbXrecord
280
     1
  0
DMMAPMANAGER
  5
49E
102
{ACAD_REACTORS
330
49D
102
}
330
49D
100
AcDbDictionary
281
     1
  3
DisplayMap1
350
4A0
100
AcDbDictionaryWithDefault
340
4A0
100
AcMapDMMapManager
 70
     1
340
4A0
  0
DMSTYLELIBRARY
  5
49F
102
{ACAD_REACTORS
330
49D
102
}
330
49D
100
AcMapDMStyleLibrary
 70
     1
 70
     1
360
4A5
  0
DICTIONARY
  5
767
330
25
100
AcDbDictionary
280
     1
281
     1
  3
ACAD_XREC_ROUNDTRIP
360
768
  0
DICTIONARY
  5
765
330
21
100
AcDbDictionary
280
     1
281
     1
  3
ACAD_XREC_ROUNDTRIP
360
766
  0
DMMAP
  5
4A0
102
{ACAD_REACTORS
330
49E
330
4A2
102
}
330
49E
100
AcMapDMMap
 70
     1
  1
既定値
 70
     1
330
0
100
AcMapDMMap
 70
     1
 90
        1
360
4A2
 90
        1
 40
1.797693134862314E+99
 70
     1
100
AcMapDMMap
 70
     2
 70
     0
 40
1.797693134862314E+99
290
     0
290
     1
 40
1.0
 40
3.0
  1
Legend
 90
        1
 40
1.797693134862314E+99
  1

 70
     0
 40
100.0
 70
     1
 90
        0
 90
        1
360
4A3
  0
DMSTYLECATEGORY
  5
4A5
102
{ACAD_REACTORS
330
49F
102
}
330
49F
100
AcMapDMStyleCategory
 70
     1
  1
スタイルを表示
 70
     0
  0
XRECORD
  5
768
102
{ACAD_REACTORS
330
767
102
}
330
767
100
AcDbXrecord
280
     1
102
SHADEPLOT
 70
     0
102
SHADEPLOTRESLEVEL
 70
     2
102
SHADEPLOTCUSTOMDPI
 70
   300
  0
XRECORD
  5
766
102
{ACAD_REACTORS
330
765
102
}
330
765
100
AcDbXrecord
280
     1
102
SHADEPLOT
 70
     0
102
SHADEPLOTRESLEVEL
 70
     2
102
SHADEPLOTCUSTOMDPI
 70
   300
  0
DMBASEELEMENT
  5
4A2
102
{ACAD_REACTORS
330
4A0
102
}
330
4A0
100
AcMapDMBaseElement
 70
     1
  1
マップ ベース
 70
     1
330
4A0
100
AcMapDMBaseElement
 70
     1
  1

 70
     2
  1

 70
     1
 40
1.797693134862314E+99
 70
     1
 70
     1
 70
     1
 70
     1
360
4A4
100
AcMapDMBaseElement
 70
     1
  0
DMDEFAULTSTYLE
  5
4A3
102
{ACAD_REACTORS
330
4A0
102
}
330
4A0
100
AcMapDMDefaultStyle
 70
     1
 90
        1
  1
既定値
100
AcMapDMDefaultStyle
 70
     1
280
   100
 90
     0
  0
DMSTYLEREFERENCE
  5
4A4
330
4A2
100
AcMapDMStyleReference
 70
     1
 70
     0
340
4A3
330
4A0
  0
ENDSEC
  0
EOF
