  0
SECTION
  2
HEADER
  9
$ACADVER
  1
AC1015
  9
$ACADMAINTVER
 70
    20
  9
$DWGCODEPAGE
  3
ANSI_932
  9
$INSBASE
 10
0.0
 20
0.0
 30
0.0
  9
$EXTMIN
 10
1986.483702788481
 20
4756.754694758234
 30
0.0
  9
$EXTMAX
 10
38986.48483688767
 20
29756.75675675677
 30
0.0
  9
$LIMMIN
 10
0.0
 20
0.0
  9
$LIMMAX
 10
42000.0
 20
29700.0
  9
$ORTHOMODE
 70
     0
  9
$REGENMODE
 70
     1
  9
$FILLMODE
 70
     1
  9
$QTEXTMODE
 70
     0
  9
$MIRRTEXT
 70
     0
  9
$LTSCALE
 40
100.0
  9
$ATTMODE
 70
     1
  9
$TEXTSIZE
 40
0.2
  9
$TRACEWID
 40
0.05
  9
$TEXTSTYLE
  7
STANDARD
  9
$CLAYER
  8
0
  9
$CELTYPE
  6
CONTINUOUS
  9
$CECOLOR
 62
   256
  9
$CELTSCALE
 40
1.0
  9
$DISPSILH
 70
     0
  9
$DIMSCALE
 40
40.0
  9
$DIMASZ
 40
0.18
  9
$DIMEXO
 40
0.0625
  9
$DIMDLI
 40
0.38
  9
$DIMRND
 40
0.0
  9
$DIMDLE
 40
0.0
  9
$DIMEXE
 40
0.18
  9
$DIMTP
 40
0.0
  9
$DIMTM
 40
0.0
  9
$DIMTXT
 40
0.18
  9
$DIMCEN
 40
0.09
  9
$DIMTSZ
 40
0.0
  9
$DIMTOL
 70
     0
  9
$DIMLIM
 70
     0
  9
$DIMTIH
 70
     1
  9
$DIMTOH
 70
     1
  9
$DIMSE1
 70
     0
  9
$DIMSE2
 70
     0
  9
$DIMTAD
 70
     0
  9
$DIMZIN
 70
     0
  9
$DIMBLK
  1

  9
$DIMASO
 70
     1
  9
$DIMSHO
 70
     1
  9
$DIMPOST
  1

  9
$DIMAPOST
  1

  9
$DIMALT
 70
     0
  9
$DIMALTD
 70
     2
  9
$DIMALTF
 40
25.4
  9
$DIMLFAC
 40
1.0
  9
$DIMTOFL
 70
     0
  9
$DIMTVP
 40
0.0
  9
$DIMTIX
 70
     0
  9
$DIMSOXD
 70
     0
  9
$DIMSAH
 70
     0
  9
$DIMBLK1
  1

  9
$DIMBLK2
  1

  9
$DIMSTYLE
  2
Standard
  9
$DIMCLRD
 70
     0
  9
$DIMCLRE
 70
     0
  9
$DIMCLRT
 70
     0
  9
$DIMTFAC
 40
1.0
  9
$DIMGAP
 40
0.09
  9
$DIMJUST
 70
     0
  9
$DIMSD1
 70
     0
  9
$DIMSD2
 70
     0
  9
$DIMTOLJ
 70
     1
  9
$DIMTZIN
 70
     0
  9
$DIMALTZ
 70
     0
  9
$DIMALTTZ
 70
     0
  9
$DIMUPT
 70
     0
  9
$DIMDEC
 70
     4
  9
$DIMTDEC
 70
     4
  9
$DIMALTU
 70
     2
  9
$DIMALTTD
 70
     2
  9
$DIMTXSTY
  7
STANDARD
  9
$DIMAUNIT
 70
     0
  9
$DIMADEC
 70
     0
  9
$DIMALTRND
 40
0.0
  9
$DIMAZIN
 70
     0
  9
$DIMDSEP
 70
    46
  9
$DIMATFIT
 70
     3
  9
$DIMFRAC
 70
     0
  9
$DIMLDRBLK
  1

  9
$DIMLUNIT
 70
     2
  9
$DIMLWD
 70
    -2
  9
$DIMLWE
 70
    -2
  9
$DIMTMOVE
 70
     0
  9
$LUNITS
 70
     2
  9
$LUPREC
 70
     4
  9
$SKETCHINC
 40
0.1
  9
$FILLETRAD
 40
0.0
  9
$AUNITS
 70
     0
  9
$AUPREC
 70
     0
  9
$MENU
  1
.
  9
$ELEVATION
 40
0.0
  9
$PELEVATION
 40
0.0
  9
$THICKNESS
 40
0.0
  9
$LIMCHECK
 70
     0
  9
$CHAMFERA
 40
0.0
  9
$CHAMFERB
 40
0.0
  9
$CHAMFERC
 40
0.0
  9
$CHAMFERD
 40
0.0
  9
$SKPOLY
 70
     0
  9
$TDCREATE
 40
2454575.703889607
  9
$TDUCREATE
 40
2454575.328889607
  9
$TDUPDATE
 40
2454575.704205185
  9
$TDUUPDATE
 40
2454575.329205185
  9
$TDINDWG
 40
0.0003161227
  9
$TDUSRTIMER
 40
0.0003161227
  9
$USRTIMER
 70
     1
  9
$ANGBASE
 50
0.0
  9
$ANGDIR
 70
     0
  9
$PDMODE
 70
     0
  9
$PDSIZE
 40
0.0
  9
$PLINEWID
 40
0.0
  9
$SPLFRAME
 70
     0
  9
$SPLINETYPE
 70
     6
  9
$SPLINESEGS
 70
     8
  9
$HANDSEED
  5
6F6
  9
$SURFTAB1
 70
     6
  9
$SURFTAB2
 70
     6
  9
$SURFTYPE
 70
     6
  9
$SURFU
 70
     6
  9
$SURFV
 70
     6
  9
$UCSBASE
  2

  9
$UCSNAME
  2

  9
$UCSORG
 10
0.0
 20
0.0
 30
0.0
  9
$UCSXDIR
 10
1.0
 20
0.0
 30
0.0
  9
$UCSYDIR
 10
0.0
 20
1.0
 30
0.0
  9
$UCSORTHOREF
  2

  9
$UCSORTHOVIEW
 70
     0
  9
$UCSORGTOP
 10
0.0
 20
0.0
 30
0.0
  9
$UCSORGBOTTOM
 10
0.0
 20
0.0
 30
0.0
  9
$UCSORGLEFT
 10
0.0
 20
0.0
 30
0.0
  9
$UCSORGRIGHT
 10
0.0
 20
0.0
 30
0.0
  9
$UCSORGFRONT
 10
0.0
 20
0.0
 30
0.0
  9
$UCSORGBACK
 10
0.0
 20
0.0
 30
0.0
  9
$PUCSBASE
  2

  9
$PUCSNAME
  2

  9
$PUCSORG
 10
0.0
 20
0.0
 30
0.0
  9
$PUCSXDIR
 10
1.0
 20
0.0
 30
0.0
  9
$PUCSYDIR
 10
0.0
 20
1.0
 30
0.0
  9
$PUCSORTHOREF
  2

  9
$PUCSORTHOVIEW
 70
     0
  9
$PUCSORGTOP
 10
0.0
 20
0.0
 30
0.0
  9
$PUCSORGBOTTOM
 10
0.0
 20
0.0
 30
0.0
  9
$PUCSORGLEFT
 10
0.0
 20
0.0
 30
0.0
  9
$PUCSORGRIGHT
 10
0.0
 20
0.0
 30
0.0
  9
$PUCSORGFRONT
 10
0.0
 20
0.0
 30
0.0
  9
$PUCSORGBACK
 10
0.0
 20
0.0
 30
0.0
  9
$USERI1
 70
     0
  9
$USERI2
 70
     0
  9
$USERI3
 70
     0
  9
$USERI4
 70
     0
  9
$USERI5
 70
     0
  9
$USERR1
 40
0.0
  9
$USERR2
 40
0.0
  9
$USERR3
 40
0.0
  9
$USERR4
 40
0.0
  9
$USERR5
 40
0.0
  9
$WORLDVIEW
 70
     1
  9
$SHADEDGE
 70
     3
  9
$SHADEDIF
 70
    70
  9
$TILEMODE
 70
     1
  9
$MAXACTVP
 70
    64
  9
$PINSBASE
 10
0.0
 20
0.0
 30
0.0
  9
$PLIMCHECK
 70
     0
  9
$PEXTMIN
 10
1.000000000000000E+20
 20
1.000000000000000E+20
 30
1.000000000000000E+20
  9
$PEXTMAX
 10
-1.000000000000000E+20
 20
-1.000000000000000E+20
 30
-1.000000000000000E+20
  9
$PLIMMIN
 10
0.0
 20
0.0
  9
$PLIMMAX
 10
12.0
 20
9.0
  9
$UNITMODE
 70
     0
  9
$VISRETAIN
 70
     1
  9
$PLINEGEN
 70
     0
  9
$PSLTSCALE
 70
     1
  9
$TREEDEPTH
 70
  3020
  9
$CMLSTYLE
  2
Standard
  9
$CMLJUST
 70
     0
  9
$CMLSCALE
 40
1.0
  9
$PROXYGRAPHICS
 70
     1
  9
$MEASUREMENT
 70
     0
  9
$CELWEIGHT
370
    -1
  9
$ENDCAPS
280
     0
  9
$JOINSTYLE
280
     0
  9
$LWDISPLAY
290
     0
  9
$INSUNITS
 70
     2
  9
$HYPERLINKBASE
  1

  9
$STYLESHEET
  1

  9
$XEDIT
290
     1
  9
$CEPSNTYPE
380
     0
  9
$PSTYLEMODE
290
     1
  9
$FINGERPRINTGUID
  2
{11F7B299-1E85-4967-9160-9B005FBF3D94}
  9
$VERSIONGUID
  2
{E15B7A47-5FED-4D70-B1DC-4FDF8072F801}
  9
$EXTNAMES
290
     1
  9
$PSVPSCALE
 40
0.0
  9
$OLESTARTUP
290
     0
  0
ENDSEC
  0
SECTION
  2
CLASSES
  0
CLASS
  1
ACDBDICTIONARYWDFLT
  2
AcDbDictionaryWithDefault
  3
ObjectDBX Classes
 90
        0
280
     0
281
     0
  0
CLASS
  1
TABLESTYLE
  2
AcDbTableStyle
  3
ObjectDBX Classes
 90
     2047
280
     0
281
     0
  0
CLASS
  1
AECC_TREE_NODE
  2
AeccDbTreeNode
  3
AeccvBase10|Product Desc: Autodesk Civil 3D |Company: Autodesk,Inc. |WEB Address: www.autodesk.com
 90
     1023
280
     0
281
     0
  0
CLASS
  1
AECC_CLASS_NODE
  2
AeccDbClassNode
  3
AeccLand10|Product Desc: Autodesk Civil 3D |Company: Autodesk,Inc. |WEB Address: www.autodesk.com
 90
     1023
280
     0
281
     0
  0
CLASS
  1
AECC_ROOT_SETTINGS_NODE
  2
AeccDbRootSettingsNode
  3
AeccvBase10|Product Desc: Autodesk Civil 3D |Company: Autodesk,Inc. |WEB Address: www.autodesk.com
 90
     1023
280
     0
281
     0
  0
CLASS
  1
AEC_VARS_DWG_SETUP
  2
AecDbVarsDwgSetup
  3
AecBase40|Product Desc: Autodesk Architectural Desktop 2005 |Company: Autodesk,Inc. |WEB Address: www.autodesk.com
 90
      129
280
     0
281
     0
  0
CLASS
  1
DMMAPMANAGER
  2
AcMapDMMapManager
  3
AcMapDisplayManagement
 90
     1024
280
     0
281
     0
  0
CLASS
  1
DMSTYLELIBRARY
  2
AcMapDMStyleLibrary
  3
AcMapDisplayManagement
 90
     1024
280
     0
281
     0
  0
CLASS
  1
DMMAP
  2
AcMapDMMap
  3
AcMapDisplayManagement
 90
     1024
280
     0
281
     0
  0
CLASS
  1
DMBASEELEMENT
  2
AcMapDMBaseElement
  3
AcMapDisplayManagement
 90
     1024
280
     0
281
     0
  0
CLASS
  1
DMDEFAULTSTYLE
  2
AcMapDMDefaultStyle
  3
AcMapDisplayManagement
 90
     1024
280
     0
281
     0
  0
CLASS
  1
DMSTYLEREFERENCE
  2
AcMapDMStyleReference
  3
AcMapDisplayManagement
 90
     1024
280
     0
281
     0
  0
CLASS
  1
DMSTYLECATEGORY
  2
AcMapDMStyleCategory
  3
AcMapDisplayManagement
 90
     1024
280
     0
281
     0
  0
CLASS
  1
AECC_SETTINGS_NODE
  2
AeccDbSettingsNode
  3
AeccvBase10|Product Desc: Autodesk Civil 3D |Company: Autodesk,Inc. |WEB Address: www.autodesk.com
 90
     1023
280
     0
281
     0
  0
CLASS
  1
AECC_PROFILE_VIEW_STYLE
  2
AeccDbGraphStyleProfile
  3
AeccLand10|Product Desc: Autodesk Civil 3D |Company: Autodesk,Inc. |WEB Address: www.autodesk.com
 90
      129
280
     0
281
     0
  0
CLASS
  1
AECC_PROFILE_VIEW_BAND_STYLE_SET
  2
AeccDbGraphProfileBandStyleSet
  3
AeccLand10|Product Desc: Autodesk Civil 3D |Company: Autodesk,Inc. |WEB Address: www.autodesk.com
 90
      129
280
     0
281
     0
  0
CLASS
  1
AECC_PROFILE_VIEW_DATA_BAND_STYLE
  2
AeccDbGraphStyleProfileDataBands
  3
AeccLand10|Product Desc: Autodesk Civil 3D |Company: Autodesk,Inc. |WEB Address: www.autodesk.com
 90
      129
280
     0
281
     0
  0
CLASS
  1
AECC_LABEL_NODE
  2
AeccDbLabelNode
  3
AeccLand10|Product Desc: Autodesk Civil 3D |Company: Autodesk,Inc. |WEB Address: www.autodesk.com
 90
     1023
280
     0
281
     0
  0
CLASS
  1
AECC_LABEL_COLLECTOR_STYLE
  2
AeccDbLabelStyleCollector
  3
AeccLand10|Product Desc: Autodesk Civil 3D |Company: Autodesk,Inc. |WEB Address: www.autodesk.com
 90
     1023
280
     0
281
     0
  0
CLASS
  1
AECC_LABEL_TEXT_STYLE
  2
AeccDbLabelStyleText
  3
AeccLand10|Product Desc: Autodesk Civil 3D |Company: Autodesk,Inc. |WEB Address: www.autodesk.com
 90
     1023
280
     0
281
     0
  0
CLASS
  1
AECC_PROFILE_VIEW_HORIZONTAL_GEOMETRY_BAND_STYLE
  2
AeccDbGraphStyleHorGeometryBands
  3
AeccLand10|Product Desc: Autodesk Civil 3D |Company: Autodesk,Inc. |WEB Address: www.autodesk.com
 90
      129
280
     0
281
     0
  0
CLASS
  1
AECC_PROFILE_VIEW_VERTICAL_GEOMETRY_BAND_STYLE
  2
AeccDbGraphStyleVertGeometryBands
  3
AeccLand10|Product Desc: Autodesk Civil 3D |Company: Autodesk,Inc. |WEB Address: www.autodesk.com
 90
      129
280
     0
281
     0
  0
CLASS
  1
AECC_LABEL_RADIAL_LINE_STYLE
  2
AeccDbLabelStyleRadialLine
  3
AeccLand10|Product Desc: Autodesk Civil 3D |Company: Autodesk,Inc. |WEB Address: www.autodesk.com
 90
     1023
280
     0
281
     0
  0
CLASS
  1
AECC_POINT_STYLE
  2
AeccDbPointStyle
  3
AeccLand10|Product Desc: Autodesk Civil 3D |Company: Autodesk,Inc. |WEB Address: www.autodesk.com
 90
      895
280
     0
281
     0
  0
CLASS
  1
AECC_PROFILE_LABEL_SET
  2
AeccDbVAlignStnLabelsDlgTemplate
  3
AeccLand10|Product Desc: Autodesk Civil 3D |Company: Autodesk,Inc. |WEB Address: www.autodesk.com
 90
     1023
280
     0
281
     0
  0
CLASS
  1
AECC_SECTION_VIEW_STYLE
  2
AeccDbGraphStyleCrossSection
  3
AeccLand10|Product Desc: Autodesk Civil 3D |Company: Autodesk,Inc. |WEB Address: www.autodesk.com
 90
      129
280
     0
281
     0
  0
CLASS
  1
AECC_SECTION_VIEW_BAND_STYLE_SET
  2
AeccDbGraphSectionBandStyleSet
  3
AeccLand10|Product Desc: Autodesk Civil 3D |Company: Autodesk,Inc. |WEB Address: www.autodesk.com
 90
      129
280
     0
281
     0
  0
CLASS
  1
AECC_SECTION_VIEW_DATA_BAND_STYLE
  2
AeccDbGraphStyleSectionDataBands
  3
AeccLand10|Product Desc: Autodesk Civil 3D |Company: Autodesk,Inc. |WEB Address: www.autodesk.com
 90
      129
280
     0
281
     0
  0
CLASS
  1
AECC_SECTION_LABEL_SET
  2
AeccDbSectionLabelsDlgTemplate
  3
AeccLand10|Product Desc: Autodesk Civil 3D |Company: Autodesk,Inc. |WEB Address: www.autodesk.com
 90
     1023
280
     0
281
     0
  0
CLASS
  1
AECC_ALIGNMENT_STYLE
  2
AeccDbAlignmentStyle
  3
AeccLand10|Product Desc: Autodesk Civil 3D |Company: Autodesk,Inc. |WEB Address: www.autodesk.com
 90
     1023
280
     0
281
     0
  0
CLASS
  1
AECC_LABEL_VECTOR_ARROW_STYLE
  2
AeccDbLabelStyleVectorArrow
  3
AeccLand10|Product Desc: Autodesk Civil 3D |Company: Autodesk,Inc. |WEB Address: www.autodesk.com
 90
     1023
280
     0
281
     0
  0
CLASS
  1
AECC_ALIGNMENT_LABEL_SET
  2
AeccDbAlignStnLabelsDlgTemplate
  3
AeccLand10|Product Desc: Autodesk Civil 3D |Company: Autodesk,Inc. |WEB Address: www.autodesk.com
 90
     1023
280
     0
281
     0
  0
CLASS
  1
AECC_SURFACE_STYLE
  2
AeccDbSurfaceStyle
  3
AeccLand10|Product Desc: Autodesk Civil 3D |Company: Autodesk,Inc. |WEB Address: www.autodesk.com
 90
      129
280
     0
281
     0
  0
CLASS
  1
AECC_LEGEND_TABLE_STYLE
  2
AeccDbLegendScheduleTableStyle
  3
AeccLand10|Product Desc: Autodesk Civil 3D |Company: Autodesk,Inc. |WEB Address: www.autodesk.com
 90
     1023
280
     0
281
     0
  0
CLASS
  1
AECC_SECTION_STYLE
  2
AeccDbSectionStyle
  3
AeccLand10|Product Desc: Autodesk Civil 3D |Company: Autodesk,Inc. |WEB Address: www.autodesk.com
 90
     1023
280
     0
281
     0
  0
CLASS
  1
AECC_GRADING_STYLE
  2
AeccDbGradingStyle
  3
AeccLand10|Product Desc: Autodesk Civil 3D |Company: Autodesk,Inc. |WEB Address: www.autodesk.com
 90
     1023
280
     0
281
     0
  0
CLASS
  1
AECC_GRADING_CRITERIA
  2
AeccDbGradingCriteria
  3
AeccLand10|Product Desc: Autodesk Civil 3D |Company: Autodesk,Inc. |WEB Address: www.autodesk.com
 90
     1023
280
     0
281
     0
  0
CLASS
  1
AECC_PARCEL_STYLE
  2
AeccDbParcelStyle
  3
AeccLand10|Product Desc: Autodesk Civil 3D |Company: Autodesk,Inc. |WEB Address: www.autodesk.com
 90
      129
280
     0
281
     0
  0
CLASS
  1
AECC_SAMPLE_LINE_GROUP_STYLE
  2
AeccDbSampleLineGroupStyle
  3
AeccLand10|Product Desc: Autodesk Civil 3D |Company: Autodesk,Inc. |WEB Address: www.autodesk.com
 90
      129
280
     0
281
     0
  0
CLASS
  1
AECC_SHEET_STYLE
  2
AeccDbSheetStyle
  3
AeccLand10|Product Desc: Autodesk Civil 3D |Company: Autodesk,Inc. |WEB Address: www.autodesk.com
 90
      129
280
     0
281
     0
  0
CLASS
  1
AECC_SAMPLE_LINE_STYLE
  2
AeccDbSampleLineStyle
  3
AeccLand10|Product Desc: Autodesk Civil 3D |Company: Autodesk,Inc. |WEB Address: www.autodesk.com
 90
     1023
280
     0
281
     0
  0
CLASS
  1
AECC_PROFILE_STYLE
  2
AeccDbVAlignmentStyle
  3
AeccLand10|Product Desc: Autodesk Civil 3D |Company: Autodesk,Inc. |WEB Address: www.autodesk.com
 90
     1023
280
     0
281
     0
  0
CLASS
  1
AECC_STATION_FORMAT_STYLE
  2
AeccDbStationFormatStyle
  3
AeccLand10|Product Desc: Autodesk Civil 3D |Company: Autodesk,Inc. |WEB Address: www.autodesk.com
 90
     1023
280
     0
281
     0
  0
CLASS
  1
AECC_TABLE_STYLE
  2
AeccDbScheduleTableStyle
  3
AeccLand10|Product Desc: Autodesk Civil 3D |Company: Autodesk,Inc. |WEB Address: www.autodesk.com
 90
     1023
280
     0
281
     0
  0
CLASS
  1
AECC_GRADING_CRITERIA_SET
  2
AeccDbGradingCriteriaSet
  3
AeccLand10|Product Desc: Autodesk Civil 3D |Company: Autodesk,Inc. |WEB Address: www.autodesk.com
 90
     1023
280
     0
281
     0
  0
CLASS
  1
AECC_FORMAT_MANAGER_OBJECT
  2
AeccDbFormatManagerObject
  3
AeccLand10|Product Desc: Autodesk Civil 3D |Company: Autodesk,Inc. |WEB Address: www.autodesk.com
 90
     1023
280
     0
281
     0
  0
CLASS
  1
AECC_POINT_DESCRIPTION_KEY_SET_NODE
  2
AeccDbPointDescKeySetsNode
  3
AeccvBase10|Product Desc: Autodesk Civil 3D |Company: Autodesk,Inc. |WEB Address: www.autodesk.com
 90
     1023
280
     0
281
     0
  0
CLASS
  1
DICTIONARYVAR
  2
AcDbDictionaryVar
  3
ObjectDBX Classes
 90
        0
280
     0
281
     0
  0
CLASS
  1
ACDBPLACEHOLDER
  2
AcDbPlaceHolder
  3
ObjectDBX Classes
 90
        0
280
     0
281
     0
  0
CLASS
  1
LAYOUT
  2
AcDbLayout
  3
ObjectDBX Classes
 90
        0
280
     0
281
     0
  0
ENDSEC
  0
SECTION
  2
TABLES
  0
TABLE
  2
VPORT
  5
8
330
0
100
AcDbSymbolTable
 70
     2
  0
VPORT
  5
6F0
330
8
100
AcDbSymbolTableRecord
100
AcDbViewportTableRecord
  2
*Active
 70
     0
 10
0.0
 20
0.0
 11
1.0
 21
1.0
 12
47160.08701792793
 22
15284.42403129224
 13
0.0
 23
0.0
 14
1.0
 24
1.0
 15
0.0
 25
0.0
 16
0.0
 26
0.0
 36
1.0
 17
0.0
 27
0.0
 37
0.0
 40
59477.19672440835
 41
1.937399678972712
 42
50.0
 43
0.0
 44
0.0
 50
0.0
 51
0.0
 71
     0
 72
   100
 73
     1
 74
     1
 75
     0
 76
     0
 77
     0
 78
     0
281
     0
 65
     1
110
0.0
120
0.0
130
0.0
111
1.0
121
0.0
131
0.0
112
0.0
122
1.0
132
0.0
 79
     0
146
0.0
  0
ENDTAB
  0
TABLE
  2
LTYPE
  5
5
330
0
100
AcDbSymbolTable
 70
    35
  0
LTYPE
  5
13
330
5
100
AcDbSymbolTableRecord
100
AcDbLinetypeTableRecord
  2
ByBlock
 70
     0
  3

 72
    65
 73
     0
 40
0.0
  0
LTYPE
  5
14
330
5
100
AcDbSymbolTableRecord
100
AcDbLinetypeTableRecord
  2
ByLayer
 70
     0
  3

 72
    65
 73
     0
 40
0.0
  0
LTYPE
  5
15
330
5
100
AcDbSymbolTableRecord
100
AcDbLinetypeTableRecord
  2
CONTINUOUS
 70
     0
  3
実線
 72
    65
 73
     0
 40
0.0
  0
LTYPE
  5
26
330
5
100
AcDbSymbolTableRecord
100
AcDbLinetypeTableRecord
  2
DASHED1
 70
     0
  3
--  --  --  --  --  --  --  --  
 72
    65
 73
     2
 40
2.5
 49
1.25
 74
     0
 49
-1.25
 74
     0
  0
LTYPE
  5
27
330
5
100
AcDbSymbolTableRecord
100
AcDbLinetypeTableRecord
  2
DASHED2
 70
     0
  3
----    ----    ----    ----    
 72
    65
 73
     2
 40
5.0
 49
2.5
 74
     0
 49
-2.5
 74
     0
  0
LTYPE
  5
28
330
5
100
AcDbSymbolTableRecord
100
AcDbLinetypeTableRecord
  2
DASHED3
 70
     0
  3
------  ------  ------  ------  
 72
    65
 73
     2
 40
5.0
 49
3.75
 74
     0
 49
-1.25
 74
     0
  0
LTYPE
  5
29
330
5
100
AcDbSymbolTableRecord
100
AcDbLinetypeTableRecord
  2
CENTER1
 70
     0
  3
----- - ----- - ----- - ----- - 
 72
    65
 73
     4
 40
10.0
 49
6.25
 74
     0
 49
-1.25
 74
     0
 49
1.25
 74
     0
 49
-1.25
 74
     0
  0
LTYPE
  5
2A
330
5
100
AcDbSymbolTableRecord
100
AcDbLinetypeTableRecord
  2
CENTER2
 70
     0
  3
----------  --  ----------  --  
 72
    65
 73
     4
 40
20.0
 49
12.5
 74
     0
 49
-2.5
 74
     0
 49
2.5
 74
     0
 49
-2.5
 74
     0
  0
LTYPE
  5
2B
330
5
100
AcDbSymbolTableRecord
100
AcDbLinetypeTableRecord
  2
PHANTOM1
 70
     0
  3
--- - - --- - - --- - - --- - - 
 72
    65
 73
     6
 40
10.0
 49
3.25
 74
     0
 49
-1.25
 74
     0
 49
1.25
 74
     0
 49
-1.25
 74
     0
 49
1.25
 74
     0
 49
-1.25
 74
     0
  0
LTYPE
  5
2C
330
5
100
AcDbSymbolTableRecord
100
AcDbLinetypeTableRecord
  2
PHANTOM2
 70
     0
  3
--------  -  -  --------  -  -  
 72
    65
 73
     6
 40
20.0
 49
10.0
 74
     0
 49
-2.5
 74
     0
 49
1.25
 74
     0
 49
-2.5
 74
     0
 49
1.25
 74
     0
 49
-2.5
 74
     0
  0
LTYPE
  5
2D
330
5
100
AcDbSymbolTableRecord
100
AcDbLinetypeTableRecord
  2
DOT
 70
     0
  3
-   -   -   -   -   -   -   -   
 72
    65
 73
     2
 40
2.5
 49
0.625
 74
     0
 49
-1.875
 74
     0
  0
LTYPE
  5
2E
330
5
100
AcDbSymbolTableRecord
100
AcDbLinetypeTableRecord
  2
DUMMY
 70
     0
  3
ダミー
 72
    65
 73
     0
 40
0.0
  0
LTYPE
  5
2F
330
5
100
AcDbSymbolTableRecord
100
AcDbLinetypeTableRecord
  2
RAND1
 70
     0
  3
ランダム線1
 72
    65
 73
     4
 40
10.0
 49
1.0
 74
     0
 49
-2.0
 74
     0
 49
3.0
 74
     0
 49
-4.0
 74
     0
  0
LTYPE
  5
30
330
5
100
AcDbSymbolTableRecord
100
AcDbLinetypeTableRecord
  2
RAND2
 70
     0
  3
ランダム線2
 72
    65
 73
     4
 40
14.0
 49
2.0
 74
     0
 49
-3.0
 74
     0
 49
4.0
 74
     0
 49
-5.0
 74
     0
  0
LTYPE
  5
31
330
5
100
AcDbSymbolTableRecord
100
AcDbLinetypeTableRecord
  2
RAND3
 70
     0
  3
ランダム線3
 72
    65
 73
     4
 40
18.0
 49
3.0
 74
     0
 49
-4.0
 74
     0
 49
5.0
 74
     0
 49
-6.0
 74
     0
  0
LTYPE
  5
32
330
5
100
AcDbSymbolTableRecord
100
AcDbLinetypeTableRecord
  2
RAND4
 70
     0
  3
ランダム線4
 72
    65
 73
     4
 40
22.0
 49
4.0
 74
     0
 49
-5.0
 74
     0
 49
6.0
 74
     0
 49
-7.0
 74
     0
  0
LTYPE
  5
33
330
5
100
AcDbSymbolTableRecord
100
AcDbLinetypeTableRecord
  2
RAND5
 70
     0
  3
ランダム線5
 72
    65
 73
     4
 40
26.0
 49
5.0
 74
     0
 49
-6.0
 74
     0
 49
7.0
 74
     0
 49
-8.0
 74
     0
  0
LTYPE
  5
34
330
5
100
AcDbSymbolTableRecord
100
AcDbLinetypeTableRecord
  2
LONG1
 70
     0
  3
----------  --  ----------  --  
 72
    65
 73
     4
 40
40.0
 49
32.5
 74
     0
 49
-2.5
 74
     0
 49
2.5
 74
     0
 49
-2.5
 74
     0
  0
LTYPE
  5
35
330
5
100
AcDbSymbolTableRecord
100
AcDbLinetypeTableRecord
  2
LONG2
 70
     0
  3
--------  -  -  --------  -  -  
 72
    65
 73
     6
 40
40.0
 49
30.0
 74
     0
 49
-2.5
 74
     0
 49
1.25
 74
     0
 49
-2.5
 74
     0
 49
1.25
 74
     0
 49
-2.5
 74
     0
  0
LTYPE
  5
36
330
5
100
AcDbSymbolTableRecord
100
AcDbLinetypeTableRecord
  2
LONG3
 70
     0
  3
+++++++++++++++..+++++++++++++++
 72
    65
 73
     2
 40
40.0
 49
37.5
 74
     0
 49
-2.5
 74
     0
  0
LTYPE
  5
37
330
5
100
AcDbSymbolTableRecord
100
AcDbLinetypeTableRecord
  2
LONG4
 70
     0
  3
+++++++++++++++..+++++++++++++++
 72
    65
 73
     2
 40
80.0
 49
75.0
 74
     0
 49
-5.0
 74
     0
  0
LTYPE
  5
38
330
5
100
AcDbSymbolTableRecord
100
AcDbLinetypeTableRecord
  2
LONG5
 70
     0
  3
----------  --  ----------  --  
 72
    65
 73
     4
 40
60.0
 49
37.5
 74
     0
 49
-7.5
 74
     0
 49
7.5
 74
     0
 49
-7.5
 74
     0
  0
LTYPE
  5
39
330
5
100
AcDbSymbolTableRecord
100
AcDbLinetypeTableRecord
  2
DASHED
 70
     0
  3
-------   -------------   ------
 72
    65
 73
     2
 40
7.5
 49
6.0
 74
     0
 49
-1.5
 74
     0
  0
LTYPE
  5
3A
330
5
100
AcDbSymbolTableRecord
100
AcDbLinetypeTableRecord
  2
DASHED_SPACED
 70
     0
  3
----        --------        ----
 72
    65
 73
     2
 40
12.0
 49
6.0
 74
     0
 49
-6.0
 74
     0
  0
LTYPE
  5
3B
330
5
100
AcDbSymbolTableRecord
100
AcDbLinetypeTableRecord
  2
LONG_DASHED_DOTTED
 70
     0
  3
------------- --- --------------
 72
    65
 73
     4
 40
15.25
 49
12.0
 74
     0
 49
-1.5
 74
     0
 49
0.25
 74
     0
 49
-1.5
 74
     0
  0
LTYPE
  5
3C
330
5
100
AcDbSymbolTableRecord
100
AcDbLinetypeTableRecord
  2
LONG_DASHED_DOUBLE-DOTTED
 70
     0
  3
----------- --- --- ------------
 72
    65
 73
     6
 40
17.0
 49
12.0
 74
     0
 49
-1.5
 74
     0
 49
0.25
 74
     0
 49
-1.5
 74
     0
 49
0.25
 74
     0
 49
-1.5
 74
     0
  0
LTYPE
  5
3D
330
5
100
AcDbSymbolTableRecord
100
AcDbLinetypeTableRecord
  2
LONG_DASHED_TRIPLICATE-DOTTED
 70
     0
  3
--------- --- --- --- ----------
 72
    65
 73
     8
 40
18.75
 49
12.0
 74
     0
 49
-1.5
 74
     0
 49
0.25
 74
     0
 49
-1.5
 74
     0
 49
0.25
 74
     0
 49
-1.5
 74
     0
 49
0.25
 74
     0
 49
-1.5
 74
     0
  0
LTYPE
  5
3E
330
5
100
AcDbSymbolTableRecord
100
AcDbLinetypeTableRecord
  2
DOTTED
 70
     0
  3
   -       -       -       -    
 72
    65
 73
     2
 40
1.75
 49
0.25
 74
     0
 49
-1.5
 74
     0
  0
LTYPE
  5
3F
330
5
100
AcDbSymbolTableRecord
100
AcDbLinetypeTableRecord
  2
CHAIN
 70
     0
  3
-------------- -- --------------
 72
    65
 73
     4
 40
18.5
 49
12.0
 74
     0
 49
-1.5
 74
     0
 49
3.5
 74
     0
 49
-1.5
 74
     0
  0
LTYPE
  5
40
330
5
100
AcDbSymbolTableRecord
100
AcDbLinetypeTableRecord
  2
CHAIN_DOUBLE_DASH
 70
     0
  3
------------ -- -- -------------
 72
    65
 73
     6
 40
23.5
 49
12.0
 74
     0
 49
-1.5
 74
     0
 49
3.5
 74
     0
 49
-1.5
 74
     0
 49
3.5
 74
     0
 49
-1.5
 74
     0
  0
LTYPE
  5
41
330
5
100
AcDbSymbolTableRecord
100
AcDbLinetypeTableRecord
  2
DASHED_DOTTED
 70
     0
  3
-----------     -     ----------
 72
    65
 73
     4
 40
9.25
 49
6.0
 74
     0
 49
-1.5
 74
     0
 49
0.25
 74
     0
 49
-1.5
 74
     0
  0
LTYPE
  5
42
330
5
100
AcDbSymbolTableRecord
100
AcDbLinetypeTableRecord
  2
DOUBLE-DASHED_DOTTED
 70
     0
  3
------   -----------   -   -----
 72
    65
 73
     6
 40
16.75
 49
6.0
 74
     0
 49
-1.5
 74
     0
 49
6.0
 74
     0
 49
-1.5
 74
     0
 49
0.25
 74
     0
 49
-1.5
 74
     0
  0
LTYPE
  5
43
330
5
100
AcDbSymbolTableRecord
100
AcDbLinetypeTableRecord
  2
DASHED_DOUBLE-DOTTED
 70
     0
  3
---------    -    -    ---------
 72
    65
 73
     6
 40
11.0
 49
6.0
 74
     0
 49
-1.5
 74
     0
 49
0.25
 74
     0
 49
-1.5
 74
     0
 49
0.25
 74
     0
 49
-1.5
 74
     0
  0
LTYPE
  5
44
330
5
100
AcDbSymbolTableRecord
100
AcDbLinetypeTableRecord
  2
DOUBLE-DASHED_DOUBLE-DOTTED
 70
     0
  3
-----   ---------   -   -   ----
 72
    65
 73
     8
 40
18.5
 49
6.0
 74
     0
 49
-1.5
 74
     0
 49
6.0
 74
     0
 49
-1.5
 74
     0
 49
0.25
 74
     0
 49
-1.5
 74
     0
 49
0.25
 74
     0
 49
-1.5
 74
     0
  0
LTYPE
  5
45
330
5
100
AcDbSymbolTableRecord
100
AcDbLinetypeTableRecord
  2
DASHED_TRIPLICATE-DOTTED
 70
     0
  3
-------    -    -    -    ------
 72
    65
 73
     8
 40
12.75
 49
6.0
 74
     0
 49
-1.5
 74
     0
 49
0.25
 74
     0
 49
-1.5
 74
     0
 49
0.25
 74
     0
 49
-1.5
 74
     0
 49
0.25
 74
     0
 49
-1.5
 74
     0
  0
LTYPE
  5
46
330
5
100
AcDbSymbolTableRecord
100
AcDbLinetypeTableRecord
  2
DOUBLE-DASHED_TRIPLICATE-DOTTED
 70
     0
  3
-----  ---------  -  -  -  -----
 72
    65
 73
    10
 40
20.25
 49
6.0
 74
     0
 49
-1.5
 74
     0
 49
6.0
 74
     0
 49
-1.5
 74
     0
 49
0.25
 74
     0
 49
-1.5
 74
     0
 49
0.25
 74
     0
 49
-1.5
 74
     0
 49
0.25
 74
     0
 49
-1.5
 74
     0
  0
LTYPE
  5
47
330
5
100
AcDbSymbolTableRecord
100
AcDbLinetypeTableRecord
  2
UNDEFINED
 70
     0
  3
--------------------------------
 72
    65
 73
     0
 40
0.0
  0
ENDTAB
  0
TABLE
  2
LAYER
  5
2
330
0
100
AcDbSymbolTable
 70
     9
  0
LAYER
  5
10
330
2
100
AcDbSymbolTableRecord
100
AcDbLayerTableRecord
  2
0
 70
     0
 62
     7
  6
CONTINUOUS
370
    -3
390
F
  0
LAYER
  5
49
330
2
100
AcDbSymbolTableRecord
100
AcDbLayerTableRecord
  2
_0-0_パイプ
 70
     0
 62
     7
  6
CONTINUOUS
370
    -3
390
F
  0
LAYER
  5
4A
330
2
100
AcDbSymbolTableRecord
100
AcDbLayerTableRecord
  2
_0-1_ＧＬ
 70
     0
 62
     7
  6
CONTINUOUS
370
    -3
390
F
  0
LAYER
  5
4B
330
2
100
AcDbSymbolTableRecord
100
AcDbLayerTableRecord
  2
_0-2_メッセン
 70
     0
 62
     7
  6
CONTINUOUS
370
    -3
390
F
  0
LAYER
  5
4C
330
2
100
AcDbSymbolTableRecord
100
AcDbLayerTableRecord
  2
_0-3_寸法
 70
     0
 62
     7
  6
CONTINUOUS
370
    -3
390
F
  0
LAYER
  5
4D
330
2
100
AcDbSymbolTableRecord
100
AcDbLayerTableRecord
  2
_0-4_ハッチ
 70
     0
 62
     7
  6
CONTINUOUS
370
    -3
390
F
  0
LAYER
  5
4E
330
2
100
AcDbSymbolTableRecord
100
AcDbLayerTableRecord
  2
_0-5_枠
 70
     0
 62
     7
  6
CONTINUOUS
370
    -3
390
F
  0
LAYER
  5
4F
330
2
100
AcDbSymbolTableRecord
100
AcDbLayerTableRecord
  2
_0-6_仕上
 70
     0
 62
     7
  6
CONTINUOUS
370
    -3
390
F
  0
LAYER
  5
50
330
2
100
AcDbSymbolTableRecord
100
AcDbLayerTableRecord
  2
ADD_LINE
 70
     0
 62
     7
  6
CONTINUOUS
370
    -3
390
F
  0
ENDTAB
  0
TABLE
  2
STYLE
  5
3
330
0
100
AcDbSymbolTable
 70
     2
  0
STYLE
  5
11
330
3
100
AcDbSymbolTableRecord
100
AcDbTextStyleTableRecord
  2
STANDARD
 70
     0
 40
0.0
 41
1.0
 50
0.0
 71
     0
 42
0.2
  3
MS Gothic.ttf
  4

1001
ACAD
1000
MS Gothic
1071
    32817
  0
STYLE
  5
48
330
3
100
AcDbSymbolTableRecord
100
AcDbTextStyleTableRecord
  2
TATEGAKI
 70
     4
 40
0.0
 41
1.0
 50
0.0
 71
     0
 42
1.0
  3
txt
  4
bigfont.shx
  0
ENDTAB
  0
TABLE
  2
VIEW
  5
6
330
0
100
AcDbSymbolTable
 70
     0
  0
ENDTAB
  0
TABLE
  2
UCS
  5
7
330
0
100
AcDbSymbolTable
 70
     0
  0
ENDTAB
  0
TABLE
  2
APPID
  5
9
330
0
100
AcDbSymbolTable
 70
     3
  0
APPID
  5
12
330
9
100
AcDbSymbolTableRecord
100
AcDbRegAppTableRecord
  2
ACAD
 70
     0
  0
APPID
  5
6E7
330
9
100
AcDbSymbolTableRecord
100
AcDbRegAppTableRecord
  2
DCO15
 70
     0
  0
APPID
  5
6E9
330
9
100
AcDbSymbolTableRecord
100
AcDbRegAppTableRecord
  2
ADE
 70
     0
  0
ENDTAB
  0
TABLE
  2
DIMSTYLE
  5
A
330
0
100
AcDbSymbolTable
 70
     1
100
AcDbDimStyleTable
 71
     0
  0
DIMSTYLE
105
401
330
A
100
AcDbSymbolTableRecord
100
AcDbDimStyleTableRecord
  2
Standard
 70
     0
340
11
  0
ENDTAB
  0
TABLE
  2
BLOCK_RECORD
  5
1
330
0
100
AcDbSymbolTable
 70
     0
  0
BLOCK_RECORD
  5
22
330
1
100
AcDbSymbolTableRecord
100
AcDbBlockTableRecord
  2
*Model_Space
340
25
  0
BLOCK_RECORD
  5
1E
330
1
100
AcDbSymbolTableRecord
100
AcDbBlockTableRecord
  2
*Paper_Space
340
21
  0
ENDTAB
  0
ENDSEC
  0
SECTION
  2
BLOCKS
  0
BLOCK
  5
23
330
22
100
AcDbEntity
  8
0
100
AcDbBlockBegin
  2
*Model_Space
 70
     0
 10
0.0
 20
0.0
 30
0.0
  3
*Model_Space
  1

  0
ENDBLK
  5
24
330
22
100
AcDbEntity
  8
0
100
AcDbBlockEnd
  0
BLOCK
  5
1F
330
1E
100
AcDbEntity
 67
     1
  8
0
100
AcDbBlockBegin
  2
*Paper_Space
 70
     0
 10
0.0
 20
0.0
 30
0.0
  3
*Paper_Space
  1

  0
ENDBLK
  5
20
330
1E
100
AcDbEntity
 67
     1
  8
0
100
AcDbBlockEnd
  0
ENDSEC
  0
SECTION
  2
ENTITIES
  0
LINE
  5
54
330
22
100
AcDbEntity
  8
_0-5_枠
  6
Continuous
 62
     2
100
AcDbLine
 10
36486.48401208826
 20
28756.75345755913
 30
0.0
 11
36486.48401208826
 21
29756.75675675677
 31
0.0
  0
LINE
  5
55
330
22
100
AcDbEntity
  8
_0-5_枠
  6
Continuous
 62
     2
100
AcDbLine
 10
36486.48401208826
 20
28756.75345755913
 30
0.0
 11
38986.48483688767
 21
28756.75345755913
 31
0.0
  0
LINE
  5
56
330
22
100
AcDbEntity
  8
_0-5_枠
  6
Continuous
 62
     2
100
AcDbLine
 10
1986.483702788481
 20
4756.754694758234
 30
0.0
 11
1986.483702788481
 21
29756.75675675677
 31
0.0
  0
LINE
  5
57
330
22
100
AcDbEntity
  8
_0-5_枠
  6
Continuous
 62
     2
100
AcDbLine
 10
1986.483702788481
 20
29756.75675675677
 30
0.0
 11
38986.48483688767
 21
29756.75675675677
 31
0.0
  0
LINE
  5
58
330
22
100
AcDbEntity
  8
_0-5_枠
  6
Continuous
 62
     2
100
AcDbLine
 10
38986.48483688767
 20
4756.754694758234
 30
0.0
 11
1986.483702788481
 21
4756.754694758234
 31
0.0
  0
LINE
  5
59
330
22
100
AcDbEntity
  8
_0-5_枠
  6
Continuous
 62
     2
100
AcDbLine
 10
38986.48483688767
 20
29756.75675675677
 30
0.0
 11
38986.48483688767
 21
4756.754694758234
 31
0.0
  0
TEXT
  5
5A
330
22
100
AcDbEntity
  8
_0-6_仕上
 62
     7
100
AcDbText
 10
37242.65532622466
 20
29034.07658757391
 30
0.0
 40
400.0
  1
９Ｍ
100
AcDbText
  0
LINE
  5
5B
330
22
100
AcDbEntity
  8
_0-0_パイプ
  6
Continuous
 62
     7
100
AcDbLine
 10
25527.11689607491
 20
14548.92589804948
 30
0.0
 11
26034.17552941528
 21
14548.92589804948
 31
0.0
  0
LINE
  5
5C
330
22
100
AcDbEntity
  8
_0-0_パイプ
  6
Continuous
 62
     7
100
AcDbLine
 10
14348.45627133884
 20
14548.92837244771
 30
0.0
 11
14855.51490467922
 21
14548.92837244771
 31
0.0
  0
LINE
  5
5D
330
22
100
AcDbEntity
  8
_0-2_メッセン
  6
Continuous
 62
     6
100
AcDbLine
 10
8545.792004288591
 20
14998.92985708664
 30
0.0
 11
8748.536771761139
 21
14998.92985708664
 31
0.0
  0
LINE
  5
5E
330
22
100
AcDbEntity
  8
_0-0_パイプ
  6
Continuous
 62
     7
100
AcDbLine
 10
7966.315158057594
 20
14423.92919724712
 30
0.0
 11
7966.315158057594
 21
14473.929362207
 31
0.0
  0
LINE
  5
5F
330
22
100
AcDbEntity
  8
_0-0_パイプ
  6
Continuous
 62
     7
100
AcDbLine
 10
7966.315158057594
 20
14473.929362207
 30
0.0
 11
8416.316642696529
 21
14473.929362207
 31
0.0
  0
LINE
  5
60
330
22
100
AcDbEntity
  8
_0-0_パイプ
  6
Continuous
 62
     7
100
AcDbLine
 10
8416.316642696529
 20
14473.929362207
 30
0.0
 11
8416.316642696529
 21
14423.92919724712
 31
0.0
  0
LINE
  5
61
330
22
100
AcDbEntity
  8
_0-0_パイプ
  6
Continuous
 62
     7
100
AcDbLine
 10
8416.316642696529
 20
14423.92919724712
 30
0.0
 11
7966.315158057594
 21
14423.92919724712
 31
0.0
  0
LINE
  5
62
330
22
100
AcDbEntity
  8
_0-0_パイプ
  6
Continuous
 62
     7
100
AcDbLine
 10
8041.316642696527
 20
23548.93208404505
 30
0.0
 11
8041.316642696527
 21
23648.92746516837
 31
0.0
  0
LINE
  5
63
330
22
100
AcDbEntity
  8
_0-0_パイプ
  6
Continuous
 62
     7
100
AcDbLine
 10
8041.316642696527
 20
23648.92746516837
 30
0.0
 11
8341.317632455817
 21
23648.92746516837
 31
0.0
  0
LINE
  5
64
330
22
100
AcDbEntity
  8
_0-0_パイプ
  6
Continuous
 62
     7
100
AcDbLine
 10
7527.116896074907
 20
14348.92894980729
 30
0.0
 11
7527.116896074907
 21
14548.92960964682
 31
0.0
  0
LINE
  5
65
330
22
100
AcDbEntity
  8
_0-0_パイプ
  6
Continuous
 62
     7
100
AcDbLine
 10
8855.51737907744
 20
14548.92960964682
 30
0.0
 11
8855.51737907744
 21
14348.92894980729
 31
0.0
  0
LINE
  5
66
330
22
100
AcDbEntity
  8
_0-0_パイプ
  6
Continuous
 62
     7
100
AcDbLine
 10
8041.316642696527
 20
23598.9297746067
 30
0.0
 11
8341.317632455817
 21
23598.9297746067
 31
0.0
  0
LINE
  5
67
330
22
100
AcDbEntity
  8
_0-0_パイプ
  6
Continuous
 62
     7
100
AcDbLine
 10
8341.317632455817
 20
23648.92746516837
 30
0.0
 11
8341.317632455817
 21
23548.93208404505
 31
0.0
  0
LINE
  5
68
330
22
100
AcDbEntity
  8
_0-0_パイプ
  6
Continuous
 62
     7
100
AcDbLine
 10
8216.301136467643
 20
23488.92792705603
 30
0.0
 11
8166.300971507759
 21
23488.92792705603
 31
0.0
  0
LINE
  5
69
330
22
100
AcDbEntity
  8
_0-0_パイプ
  6
Continuous
 62
     7
100
AcDbLine
 10
8041.316642696527
 20
23548.93208404505
 30
0.0
 11
8166.300971507759
 21
23548.93208404505
 31
0.0
  0
LINE
  5
6A
330
22
100
AcDbEntity
  8
_0-0_パイプ
  6
Continuous
 62
     7
100
AcDbLine
 10
8216.301136467643
 20
23548.93208404505
 30
0.0
 11
8341.317632455817
 21
23548.93208404505
 31
0.0
  0
LINE
  5
6B
330
22
100
AcDbEntity
  8
_0-0_パイプ
  6
Continuous
 62
     7
100
AcDbLine
 10
7991.316477736646
 20
19278.93111078175
 30
0.0
 11
7991.316477736646
 21
19378.93144070151
 31
0.0
  0
LINE
  5
6C
330
22
100
AcDbEntity
  8
_0-0_パイプ
  6
Continuous
 62
     7
100
AcDbLine
 10
7991.316477736646
 20
19378.93144070151
 30
0.0
 11
8391.3177974157
 21
19378.93144070151
 31
0.0
  0
LINE
  5
6D
330
22
100
AcDbEntity
  8
_0-0_パイプ
  6
Continuous
 62
     7
100
AcDbLine
 10
8391.3177974157
 20
19378.93144070151
 30
0.0
 11
8391.3177974157
 21
19278.93111078175
 31
0.0
  0
LINE
  5
6E
330
22
100
AcDbEntity
  8
_0-0_パイプ
  6
Continuous
 62
     7
100
AcDbLine
 10
8391.3177974157
 20
19278.93111078175
 30
0.0
 11
7991.316477736646
 21
19278.93111078175
 31
0.0
  0
LINE
  5
6F
330
22
100
AcDbEntity
  8
_0-0_パイプ
  6
Continuous
 62
     7
100
AcDbLine
 10
8153.815158057595
 20
19203.93086334192
 30
0.0
 11
8153.815158057595
 21
19353.93135822157
 31
0.0
  0
LINE
  5
70
330
22
100
AcDbEntity
  8
_0-0_パイプ
  6
Continuous
 62
     7
100
AcDbLine
 10
8153.815158057595
 20
19353.93135822157
 30
0.0
 11
8228.816642696527
 21
19353.93135822157
 31
0.0
  0
LINE
  5
71
330
22
100
AcDbEntity
  8
_0-0_パイプ
  6
Continuous
 62
     7
100
AcDbLine
 10
8228.816642696527
 20
19353.93135822157
 30
0.0
 11
8228.816642696527
 21
19203.93086334192
 31
0.0
  0
LINE
  5
72
330
22
100
AcDbEntity
  8
_0-0_パイプ
  6
Continuous
 62
     7
100
AcDbLine
 10
8228.816642696527
 20
19203.93086334192
 30
0.0
 11
8153.815158057595
 21
19203.93086334192
 31
0.0
  0
LINE
  5
73
330
22
100
AcDbEntity
  8
_0-0_パイプ
  6
Continuous
 62
     7
100
AcDbLine
 10
8176.317335528031
 20
19233.93046743821
 30
0.0
 11
8153.815158057595
 21
19233.93046743821
 31
0.0
  0
LINE
  5
74
330
22
100
AcDbEntity
  8
_0-0_パイプ
  6
Continuous
 62
     7
100
AcDbLine
 10
8153.817632455817
 20
14918.93008803048
 30
0.0
 11
8153.817632455817
 21
15068.93058291012
 31
0.0
  0
LINE
  5
75
330
22
100
AcDbEntity
  8
_0-0_パイプ
  6
Continuous
 62
     7
100
AcDbLine
 10
8153.817632455817
 20
15068.93058291012
 30
0.0
 11
8228.816642696527
 21
15068.93058291012
 31
0.0
  0
LINE
  5
76
330
22
100
AcDbEntity
  8
_0-0_パイプ
  6
Continuous
 62
     7
100
AcDbLine
 10
8228.816642696527
 20
15068.93058291012
 30
0.0
 11
8228.816642696527
 21
14918.93008803048
 31
0.0
  0
LINE
  5
77
330
22
100
AcDbEntity
  8
_0-0_パイプ
  6
Continuous
 62
     7
100
AcDbLine
 10
8228.816642696527
 20
14918.93008803048
 30
0.0
 11
8153.817632455817
 21
14918.93008803048
 31
0.0
  0
LINE
  5
78
330
22
100
AcDbEntity
  8
_0-0_パイプ
  6
Continuous
 62
     7
100
AcDbLine
 10
8228.816642696527
 20
14948.92969212676
 30
0.0
 11
8206.316939624315
 21
14948.92969212676
 31
0.0
  0
LINE
  5
79
330
22
100
AcDbEntity
  8
_0-0_パイプ
  6
Continuous
 62
     7
100
AcDbLine
 10
8176.317335528031
 20
14948.92969212676
 30
0.0
 11
8153.817632455817
 21
14948.92969212676
 31
0.0
  0
LINE
  5
7A
330
22
100
AcDbEntity
  8
_0-0_パイプ
  6
Continuous
 62
     7
100
AcDbLine
 10
7941.318787174989
 20
14993.9303354703
 30
0.0
 11
7941.318787174989
 21
15093.93066539006
 31
0.0
  0
LINE
  5
7B
330
22
100
AcDbEntity
  8
_0-0_パイプ
  6
Continuous
 62
     7
100
AcDbLine
 10
8441.315487977353
 20
14993.9303354703
 30
0.0
 11
7941.318787174989
 21
14993.9303354703
 31
0.0
  0
LINE
  5
7C
330
22
100
AcDbEntity
  8
_0-0_パイプ
  6
Continuous
 62
     7
100
AcDbLine
 10
7941.318787174989
 20
15093.93066539006
 30
0.0
 11
8441.315487977353
 21
15093.93066539006
 31
0.0
  0
LINE
  5
7D
330
22
100
AcDbEntity
  8
_0-0_パイプ
  6
Continuous
 62
     7
100
AcDbLine
 10
8341.317632455817
 20
23648.92746516837
 30
0.0
 11
8390.558157160212
 21
23657.6076541464
 31
0.0
  0
LINE
  5
7E
330
22
100
AcDbEntity
  8
_0-0_パイプ
  6
Continuous
 62
     7
100
AcDbLine
 10
8391.3177974157
 20
23573.92845492765
 30
0.0
 11
8391.3177974157
 21
23673.92878484742
 31
0.0
  0
LINE
  5
7F
330
22
100
AcDbEntity
  8
_0-0_パイプ
  6
Continuous
 62
     7
100
AcDbLine
 10
8341.317632455817
 20
23598.9297746067
 30
0.0
 11
8390.558157160212
 21
23590.24463683221
 31
0.0
  0
LINE
  5
80
330
22
100
AcDbEntity
  8
_0-0_パイプ
  6
Continuous
 62
     7
100
AcDbLine
 10
8391.3177974157
 20
23673.92878484742
 30
0.0
 11
13991.31647773665
 21
23673.92878484742
 31
0.0
  0
LINE
  5
81
330
22
100
AcDbEntity
  8
_0-0_パイプ
  6
Continuous
 62
     7
100
AcDbLine
 10
8591.31845725523
 20
23573.92845492765
 30
0.0
 11
8591.31845725523
 21
23673.92878484742
 31
0.0
  0
LINE
  5
82
330
22
100
AcDbEntity
  8
_0-0_パイプ
  6
Continuous
 62
     7
100
AcDbLine
 10
8591.31845725523
 20
23573.92845492765
 30
0.0
 11
8391.3177974157
 21
23573.92845492765
 31
0.0
  0
LINE
  5
83
330
22
100
AcDbEntity
  8
_0-0_パイプ
  6
Continuous
 62
     7
100
AcDbLine
 10
8441.315487977353
 20
15093.93066539006
 30
0.0
 11
8441.315487977353
 21
14993.9303354703
 31
0.0
  0
LINE
  5
84
330
22
100
AcDbEntity
  8
_0-0_パイプ
  6
Continuous
 62
     7
100
AcDbLine
 10
8166.300971507759
 20
23518.92753115232
 30
0.0
 11
8181.323043139938
 21
23518.92753115232
 31
0.0
  0
LINE
  5
85
330
22
100
AcDbEntity
  8
_0-0_パイプ
  6
Continuous
 62
     7
100
AcDbLine
 10
8201.311232012406
 20
23518.92753115232
 30
0.0
 11
8216.333303644587
 21
23518.92753115232
 31
0.0
  0
LINE
  5
86
330
22
100
AcDbEntity
  8
ADD_LINE
  6
DOT
 62
     7
100
AcDbLine
 10
8191.317137576174
 20
23390.12025708137
 30
0.0
 11
8191.317137576174
 21
23702.09238545974
 31
0.0
  0
LINE
  5
87
330
22
100
AcDbEntity
  8
_0-0_パイプ
  6
Continuous
 62
     7
100
AcDbLine
 10
8166.300971507759
 20
23488.92792705603
 30
0.0
 11
8166.300971507759
 21
23588.92825697579
 31
0.0
  0
LINE
  5
88
330
22
100
AcDbEntity
  8
_0-0_パイプ
  6
Continuous
 62
     7
100
AcDbLine
 10
8216.301136467643
 20
23588.92825697579
 30
0.0
 11
8216.301136467643
 21
23488.92792705603
 31
0.0
  0
LINE
  5
89
330
22
100
AcDbEntity
  8
_0-0_パイプ
  6
Continuous
 62
     7
100
AcDbLine
 10
8096.317566471864
 20
23848.92812500789
 30
0.0
 11
8286.31670868048
 21
23848.92812500789
 31
0.0
  0
LINE
  5
8A
330
22
100
AcDbEntity
  8
_0-0_パイプ
  6
Continuous
 62
     7
100
AcDbLine
 10
8191.317137576174
 20
12848.92894980729
 30
0.0
 11
8359.816233596019
 21
12848.92894980729
 31
0.0
  0
LINE
  5
8B
330
22
100
AcDbEntity
  8
_0-0_パイプ
  6
Continuous
 62
     7
100
AcDbLine
 10
8191.317137576174
 20
12848.92771260818
 30
0.0
 11
8022.818041556325
 21
12848.92771260818
 31
0.0
  0
LINE
  5
8C
330
22
100
AcDbEntity
  8
_0-0_パイプ
  6
Continuous
 62
     7
100
AcDbLine
 10
8286.31670868048
 20
23848.92812500789
 30
0.0
 11
8359.816233596019
 21
12848.92894980729
 31
0.0
  0
LINE
  5
8D
330
22
100
AcDbEntity
  8
_0-0_パイプ
  6
Continuous
 62
     7
100
AcDbLine
 10
8022.818041556325
 20
12848.92771260818
 30
0.0
 11
8096.317566471864
 21
23848.92812500789
 31
0.0
  0
LINE
  5
8E
330
22
100
AcDbEntity
  8
_0-0_パイプ
  6
Continuous
 62
     7
100
AcDbLine
 10
8166.300971507759
 20
23588.92825697579
 30
0.0
 11
8216.301136467643
 21
23588.92825697579
 31
0.0
  0
LINE
  5
8F
330
22
100
AcDbEntity
  8
ADD_LINE
  6
DOT
 62
     7
100
AcDbLine
 10
8191.317137576174
 20
14598.64274441245
 30
0.0
 11
8191.317137576174
 21
14256.78730865442
 31
0.0
  0
LINE
  5
90
330
22
100
AcDbEntity
  8
_0-0_パイプ
  6
Continuous
 62
     7
100
AcDbLine
 10
7527.116896074907
 20
14548.92960964682
 30
0.0
 11
8034.175529415277
 21
14548.92960964682
 31
0.0
  0
LINE
  5
91
330
22
100
AcDbEntity
  8
_0-0_パイプ
  6
Continuous
 62
     7
100
AcDbLine
 10
8032.839354373045
 20
14348.92894980729
 30
0.0
 11
7527.116896074907
 21
14348.92894980729
 31
0.0
  0
LINE
  5
92
330
22
100
AcDbEntity
  8
_0-0_パイプ
  6
Continuous
 62
     7
100
AcDbLine
 10
8348.458745737067
 20
14548.92960964682
 30
0.0
 11
8855.51737907744
 21
14548.92960964682
 31
0.0
  0
LINE
  5
93
330
22
100
AcDbEntity
  8
_0-0_パイプ
  6
Continuous
 62
     7
100
AcDbLine
 10
8855.51737907744
 20
14348.92894980729
 30
0.0
 11
8349.794920779299
 21
14348.92894980729
 31
0.0
  0
LINE
  5
94
330
22
100
AcDbEntity
  8
_0-0_パイプ
  6
Continuous
 62
     7
100
AcDbLine
 10
13966.31515805759
 20
14423.927960048
 30
0.0
 11
13966.31515805759
 21
14473.92812500789
 31
0.0
  0
LINE
  5
95
330
22
100
AcDbEntity
  8
_0-0_パイプ
  6
Continuous
 62
     7
100
AcDbLine
 10
13966.31515805759
 20
14473.92812500789
 30
0.0
 11
14416.3141682983
 21
14473.92812500789
 31
0.0
  0
LINE
  5
96
330
22
100
AcDbEntity
  8
_0-0_パイプ
  6
Continuous
 62
     7
100
AcDbLine
 10
14416.3141682983
 20
14473.92812500789
 30
0.0
 11
14416.3141682983
 21
14423.927960048
 31
0.0
  0
LINE
  5
97
330
22
100
AcDbEntity
  8
_0-0_パイプ
  6
Continuous
 62
     7
100
AcDbLine
 10
14416.3141682983
 20
14423.927960048
 30
0.0
 11
13966.31515805759
 21
14423.927960048
 31
0.0
  0
LINE
  5
98
330
22
100
AcDbEntity
  8
_0-0_パイプ
  6
Continuous
 62
     7
100
AcDbLine
 10
14041.31664269653
 20
23548.93208404505
 30
0.0
 11
14041.31664269653
 21
23648.92746516837
 31
0.0
  0
LINE
  5
99
330
22
100
AcDbEntity
  8
_0-0_パイプ
  6
Continuous
 62
     7
100
AcDbLine
 10
14041.31664269653
 20
23648.92746516837
 30
0.0
 11
14341.31515805759
 21
23648.92746516837
 31
0.0
  0
LINE
  5
9A
330
22
100
AcDbEntity
  8
_0-0_パイプ
  6
Continuous
 62
     7
100
AcDbLine
 10
13527.11689607491
 20
14348.92771260818
 30
0.0
 11
13527.11689607491
 21
14548.92837244771
 31
0.0
  0
LINE
  5
9B
330
22
100
AcDbEntity
  8
_0-0_パイプ
  6
Continuous
 62
     7
100
AcDbLine
 10
14855.51490467922
 20
14548.92837244771
 30
0.0
 11
14855.51490467922
 21
14348.92771260818
 31
0.0
  0
LINE
  5
9C
330
22
100
AcDbEntity
  8
_0-0_パイプ
  6
Continuous
 62
     7
100
AcDbLine
 10
14041.31664269653
 20
23598.9297746067
 30
0.0
 11
14341.31515805759
 21
23598.9297746067
 31
0.0
  0
LINE
  5
9D
330
22
100
AcDbEntity
  8
_0-0_パイプ
  6
Continuous
 62
     7
100
AcDbLine
 10
14341.31515805759
 20
23648.92746516837
 30
0.0
 11
14341.31515805759
 21
23548.93208404505
 31
0.0
  0
LINE
  5
9E
330
22
100
AcDbEntity
  8
_0-0_パイプ
  6
Continuous
 62
     7
100
AcDbLine
 10
14216.29866206942
 20
23488.92792705603
 30
0.0
 11
14166.30097150776
 21
23488.92792705603
 31
0.0
  0
LINE
  5
9F
330
22
100
AcDbEntity
  8
_0-0_パイプ
  6
Continuous
 62
     7
100
AcDbLine
 10
14041.31664269653
 20
23548.93208404505
 30
0.0
 11
14166.30097150776
 21
23548.93208404505
 31
0.0
  0
LINE
  5
A0
330
22
100
AcDbEntity
  8
_0-0_パイプ
  6
Continuous
 62
     7
100
AcDbLine
 10
14216.29866206942
 20
23548.93208404505
 30
0.0
 11
14341.31515805759
 21
23548.93208404505
 31
0.0
  0
LINE
  5
A1
330
22
100
AcDbEntity
  8
_0-0_パイプ
  6
Continuous
 62
     7
100
AcDbLine
 10
14041.31664269653
 20
23648.92746516837
 30
0.0
 11
13992.07611799214
 21
23657.6076541464
 31
0.0
  0
LINE
  5
A2
330
22
100
AcDbEntity
  8
_0-0_パイプ
  6
Continuous
 62
     7
100
AcDbLine
 10
13991.31647773665
 20
23573.92845492765
 30
0.0
 11
13991.31647773665
 21
23673.92878484742
 31
0.0
  0
LINE
  5
A3
330
22
100
AcDbEntity
  8
_0-0_パイプ
  6
Continuous
 62
     7
100
AcDbLine
 10
14041.31664269653
 20
23598.9297746067
 30
0.0
 11
13992.07611799214
 21
23590.24463683221
 31
0.0
  0
LINE
  5
A4
330
22
100
AcDbEntity
  8
_0-0_パイプ
  6
Continuous
 62
     7
100
AcDbLine
 10
13791.31581789712
 20
23573.92845492765
 30
0.0
 11
13791.31581789712
 21
23673.92878484742
 31
0.0
  0
LINE
  5
A5
330
22
100
AcDbEntity
  8
_0-0_パイプ
  6
Continuous
 62
     7
100
AcDbLine
 10
13791.31581789712
 20
23573.92845492765
 30
0.0
 11
13991.31647773665
 21
23573.92845492765
 31
0.0
  0
LINE
  5
A6
330
22
100
AcDbEntity
  8
_0-0_パイプ
  6
Continuous
 62
     7
100
AcDbLine
 10
14166.30097150776
 20
23518.92753115232
 30
0.0
 11
14181.32056874172
 21
23518.92753115232
 31
0.0
  0
LINE
  5
A7
330
22
100
AcDbEntity
  8
_0-0_パイプ
  6
Continuous
 62
     7
100
AcDbLine
 10
14201.30875761418
 20
23518.92753115232
 30
0.0
 11
14216.33330364458
 21
23518.92753115232
 31
0.0
  0
LINE
  5
A8
330
22
100
AcDbEntity
  8
ADD_LINE
  6
DOT
 62
     7
100
AcDbLine
 10
14191.31713757617
 20
23390.12025708137
 30
0.0
 11
14191.31713757617
 21
23702.09238545974
 31
0.0
  0
LINE
  5
A9
330
22
100
AcDbEntity
  8
_0-0_パイプ
  6
Continuous
 62
     7
100
AcDbLine
 10
14166.30097150776
 20
23488.92792705603
 30
0.0
 11
14166.30097150776
 21
23588.92825697579
 31
0.0
  0
LINE
  5
AA
330
22
100
AcDbEntity
  8
_0-0_パイプ
  6
Continuous
 62
     7
100
AcDbLine
 10
14216.29866206942
 20
23588.92825697579
 30
0.0
 11
14216.29866206942
 21
23488.92792705603
 31
0.0
  0
LINE
  5
AB
330
22
100
AcDbEntity
  8
_0-0_パイプ
  6
Continuous
 62
     7
100
AcDbLine
 10
14096.31509207364
 20
23848.92812500789
 30
0.0
 11
14286.31423428225
 21
23848.92812500789
 31
0.0
  0
LINE
  5
AC
330
22
100
AcDbEntity
  8
_0-0_パイプ
  6
Continuous
 62
     7
100
AcDbLine
 10
14191.31713757617
 20
12848.92771260818
 30
0.0
 11
14359.81375919779
 21
12848.92771260818
 31
0.0
  0
LINE
  5
AD
330
22
100
AcDbEntity
  8
_0-0_パイプ
  6
Continuous
 62
     7
100
AcDbLine
 10
14191.31713757617
 20
12848.92647540907
 30
0.0
 11
14022.81804155632
 21
12848.92647540907
 31
0.0
  0
LINE
  5
AE
330
22
100
AcDbEntity
  8
_0-0_パイプ
  6
Continuous
 62
     7
100
AcDbLine
 10
14286.31423428225
 20
23848.92812500789
 30
0.0
 11
14359.81375919779
 21
12848.92771260818
 31
0.0
  0
LINE
  5
AF
330
22
100
AcDbEntity
  8
_0-0_パイプ
  6
Continuous
 62
     7
100
AcDbLine
 10
14022.81804155632
 20
12848.92647540907
 30
0.0
 11
14096.31509207364
 21
23848.92812500789
 31
0.0
  0
LINE
  5
B0
330
22
100
AcDbEntity
  8
_0-0_パイプ
  6
Continuous
 62
     7
100
AcDbLine
 10
14166.30097150776
 20
23588.92825697579
 30
0.0
 11
14216.29866206942
 21
23588.92825697579
 31
0.0
  0
LINE
  5
B1
330
22
100
AcDbEntity
  8
ADD_LINE
  6
DOT
 62
     7
100
AcDbLine
 10
14191.31713757617
 20
14598.64150721333
 30
0.0
 11
14191.31713757617
 21
14256.78607145531
 31
0.0
  0
LINE
  5
B2
330
22
100
AcDbEntity
  8
_0-0_パイプ
  6
Continuous
 62
     7
100
AcDbLine
 10
13527.11689607491
 20
14548.92837244771
 30
0.0
 11
14034.17552941528
 21
14548.92837244771
 31
0.0
  0
LINE
  5
B3
330
22
100
AcDbEntity
  8
_0-0_パイプ
  6
Continuous
 62
     7
100
AcDbLine
 10
14032.83935437305
 20
14348.92771260818
 30
0.0
 11
13527.11689607491
 21
14348.92771260818
 31
0.0
  0
LINE
  5
B4
330
22
100
AcDbEntity
  8
_0-0_パイプ
  6
Continuous
 62
     7
100
AcDbLine
 10
14855.51490467922
 20
14348.92771260818
 30
0.0
 11
14349.79244638107
 21
14348.92771260818
 31
0.0
  0
LINE
  5
B5
330
22
100
AcDbEntity
  8
_0-0_パイプ
  6
Continuous
 62
     7
100
AcDbLine
 10
19966.31515805759
 20
14423.92672284889
 30
0.0
 11
19966.31515805759
 21
14473.92688780877
 31
0.0
  0
LINE
  5
B6
330
22
100
AcDbEntity
  8
_0-0_パイプ
  6
Continuous
 62
     7
100
AcDbLine
 10
19966.31515805759
 20
14473.92688780877
 30
0.0
 11
20416.3141682983
 21
14473.92688780877
 31
0.0
  0
LINE
  5
B7
330
22
100
AcDbEntity
  8
_0-0_パイプ
  6
Continuous
 62
     7
100
AcDbLine
 10
20416.3141682983
 20
14473.92688780877
 30
0.0
 11
20416.3141682983
 21
14423.92672284889
 31
0.0
  0
LINE
  5
B8
330
22
100
AcDbEntity
  8
_0-0_パイプ
  6
Continuous
 62
     7
100
AcDbLine
 10
20416.3141682983
 20
14423.92672284889
 30
0.0
 11
19966.31515805759
 21
14423.92672284889
 31
0.0
  0
LINE
  5
B9
330
22
100
AcDbEntity
  8
_0-0_パイプ
  6
Continuous
 62
     7
100
AcDbLine
 10
19527.11442167668
 20
14348.92647540906
 30
0.0
 11
19527.11442167668
 21
14548.9271352486
 31
0.0
  0
LINE
  5
BA
330
22
100
AcDbEntity
  8
_0-0_パイプ
  6
Continuous
 62
     7
100
AcDbLine
 10
20855.51490467922
 20
14548.9271352486
 30
0.0
 11
20855.51490467922
 21
14348.92647540906
 31
0.0
  0
LINE
  5
BB
330
22
100
AcDbEntity
  8
_0-0_パイプ
  6
Continuous
 62
     7
100
AcDbLine
 10
20041.31664269653
 20
23598.92482581025
 30
0.0
 11
20341.31515805759
 21
23598.92482581025
 31
0.0
  0
LINE
  5
BC
330
22
100
AcDbEntity
  8
_0-0_パイプ
  6
Continuous
 62
     7
100
AcDbLine
 10
20041.31664269653
 20
23548.9271352486
 30
0.0
 11
20041.31664269653
 21
23598.92482581025
 31
0.0
  0
LINE
  5
BD
330
22
100
AcDbEntity
  8
_0-0_パイプ
  6
Continuous
 62
     7
100
AcDbLine
 10
20216.29866206942
 20
23488.92792705603
 30
0.0
 11
20166.29849710954
 21
23488.92792705603
 31
0.0
  0
LINE
  5
BE
330
22
100
AcDbEntity
  8
_0-0_パイプ
  6
Continuous
 62
     7
100
AcDbLine
 10
20041.31664269653
 20
23548.9271352486
 30
0.0
 11
20166.29849710954
 21
23548.9271352486
 31
0.0
  0
LINE
  5
BF
330
22
100
AcDbEntity
  8
_0-0_パイプ
  6
Continuous
 62
     7
100
AcDbLine
 10
20216.29866206942
 20
23548.9271352486
 30
0.0
 11
20341.31515805759
 21
23548.9271352486
 31
0.0
  0
LINE
  5
C0
330
22
100
AcDbEntity
  8
_0-0_パイプ
  6
Continuous
 62
     7
100
AcDbLine
 10
20166.29849710954
 20
23518.92753115232
 30
0.0
 11
20181.32304313994
 21
23518.92753115232
 31
0.0
  0
LINE
  5
C1
330
22
100
AcDbEntity
  8
_0-0_パイプ
  6
Continuous
 62
     7
100
AcDbLine
 10
20201.30875761418
 20
23518.92753115232
 30
0.0
 11
20216.33330364459
 21
23518.92753115232
 31
0.0
  0
LINE
  5
C2
330
22
100
AcDbEntity
  8
ADD_LINE
  6
DOT
 62
     7
100
AcDbLine
 10
20191.31713757617
 20
23390.11530828492
 30
0.0
 11
20191.31713757617
 21
23702.09238545974
 31
0.0
  0
LINE
  5
C3
330
22
100
AcDbEntity
  8
_0-0_パイプ
  6
Continuous
 62
     7
100
AcDbLine
 10
20166.29849710954
 20
23488.92792705603
 30
0.0
 11
20166.29849710954
 21
23588.92825697579
 31
0.0
  0
LINE
  5
C4
330
22
100
AcDbEntity
  8
_0-0_パイプ
  6
Continuous
 62
     7
100
AcDbLine
 10
20216.29866206942
 20
23588.92825697579
 30
0.0
 11
20216.29866206942
 21
23488.92792705603
 31
0.0
  0
LINE
  5
C5
330
22
100
AcDbEntity
  8
_0-0_パイプ
  6
Continuous
 62
     7
100
AcDbLine
 10
20341.31515805759
 20
23598.92482581025
 30
0.0
 11
20341.31515805759
 21
23548.9271352486
 31
0.0
  0
LINE
  5
C6
330
22
100
AcDbEntity
  8
_0-0_パイプ
  6
Continuous
 62
     7
100
AcDbLine
 10
20096.31509207364
 20
23848.92317621144
 30
0.0
 11
20286.31670868048
 21
23848.92317621144
 31
0.0
  0
LINE
  5
C7
330
22
100
AcDbEntity
  8
_0-0_パイプ
  6
Continuous
 62
     7
100
AcDbLine
 10
20191.31713757617
 20
12848.92647540907
 30
0.0
 11
20359.81623359602
 21
12848.92647540907
 31
0.0
  0
LINE
  5
C8
330
22
100
AcDbEntity
  8
_0-0_パイプ
  6
Continuous
 62
     7
100
AcDbLine
 10
20191.31713757617
 20
12848.92523820996
 30
0.0
 11
20022.8155671581
 21
12848.92523820996
 31
0.0
  0
LINE
  5
C9
330
22
100
AcDbEntity
  8
_0-0_パイプ
  6
Continuous
 62
     7
100
AcDbLine
 10
20286.31670868048
 20
23848.92317621144
 30
0.0
 11
20359.81623359602
 21
12848.92647540907
 31
0.0
  0
LINE
  5
CA
330
22
100
AcDbEntity
  8
_0-0_パイプ
  6
Continuous
 62
     7
100
AcDbLine
 10
20022.8155671581
 20
12848.92523820996
 30
0.0
 11
20096.31509207364
 21
23848.92317621144
 31
0.0
  0
LINE
  5
CB
330
22
100
AcDbEntity
  8
_0-0_パイプ
  6
Continuous
 62
     7
100
AcDbLine
 10
20166.29849710954
 20
23588.92825697579
 30
0.0
 11
20216.29866206942
 21
23588.92825697579
 31
0.0
  0
LINE
  5
CC
330
22
100
AcDbEntity
  8
ADD_LINE
  6
DOT
 62
     7
100
AcDbLine
 10
20191.31713757617
 20
14598.64027001422
 30
0.0
 11
20191.31713757617
 21
14256.78483425619
 31
0.0
  0
LINE
  5
CD
330
22
100
AcDbEntity
  8
_0-0_パイプ
  6
Continuous
 62
     7
100
AcDbLine
 10
19527.11442167668
 20
14548.9271352486
 30
0.0
 11
20034.17552941528
 21
14548.9271352486
 31
0.0
  0
LINE
  5
CE
330
22
100
AcDbEntity
  8
_0-0_パイプ
  6
Continuous
 62
     7
100
AcDbLine
 10
20032.83935437305
 20
14348.92647540906
 30
0.0
 11
19527.11442167668
 21
14348.92647540906
 31
0.0
  0
LINE
  5
CF
330
22
100
AcDbEntity
  8
_0-0_パイプ
  6
Continuous
 62
     7
100
AcDbLine
 10
20348.45627133884
 20
14548.9271352486
 30
0.0
 11
20855.51490467922
 21
14548.9271352486
 31
0.0
  0
LINE
  5
D0
330
22
100
AcDbEntity
  8
_0-0_パイプ
  6
Continuous
 62
     7
100
AcDbLine
 10
20855.51490467922
 20
14348.92647540906
 30
0.0
 11
20349.79244638107
 21
14348.92647540906
 31
0.0
  0
LINE
  5
D1
330
22
100
AcDbEntity
  8
_0-0_パイプ
  6
Continuous
 62
     7
100
AcDbLine
 10
25966.31268365937
 20
14423.92548564978
 30
0.0
 11
25966.31268365937
 21
14473.92565060966
 31
0.0
  0
LINE
  5
D2
330
22
100
AcDbEntity
  8
_0-0_パイプ
  6
Continuous
 62
     7
100
AcDbLine
 10
25966.31268365937
 20
14473.92565060966
 30
0.0
 11
26416.3141682983
 21
14473.92565060966
 31
0.0
  0
LINE
  5
D3
330
22
100
AcDbEntity
  8
_0-0_パイプ
  6
Continuous
 62
     7
100
AcDbLine
 10
26416.3141682983
 20
14473.92565060966
 30
0.0
 11
26416.3141682983
 21
14423.92548564978
 31
0.0
  0
LINE
  5
D4
330
22
100
AcDbEntity
  8
_0-0_パイプ
  6
Continuous
 62
     7
100
AcDbLine
 10
26416.3141682983
 20
14423.92548564978
 30
0.0
 11
25966.31268365937
 21
14423.92548564978
 31
0.0
  0
LINE
  5
D5
330
22
100
AcDbEntity
  8
_0-0_パイプ
  6
Continuous
 62
     7
100
AcDbLine
 10
25527.11689607491
 20
14348.92523820995
 30
0.0
 11
25527.11689607491
 21
14548.92589804948
 31
0.0
  0
LINE
  5
D6
330
22
100
AcDbEntity
  8
_0-0_パイプ
  6
Continuous
 62
     7
100
AcDbLine
 10
26855.51490467922
 20
14548.92589804948
 30
0.0
 11
26855.51490467922
 21
14348.92523820995
 31
0.0
  0
LINE
  5
D7
330
22
100
AcDbEntity
  8
_0-0_パイプ
  6
Continuous
 62
     7
100
AcDbLine
 10
26041.31664269653
 20
23598.92482581025
 30
0.0
 11
26341.3151580576
 21
23598.92482581025
 31
0.0
  0
LINE
  5
D8
330
22
100
AcDbEntity
  8
_0-0_パイプ
  6
Continuous
 62
     7
100
AcDbLine
 10
26041.31664269653
 20
23548.9271352486
 30
0.0
 11
26041.31664269653
 21
23598.92482581025
 31
0.0
  0
LINE
  5
D9
330
22
100
AcDbEntity
  8
_0-0_パイプ
  6
Continuous
 62
     7
100
AcDbLine
 10
26216.29866206942
 20
23488.92792705603
 30
0.0
 11
26166.29849710954
 21
23488.92792705603
 31
0.0
  0
LINE
  5
DA
330
22
100
AcDbEntity
  8
_0-0_パイプ
  6
Continuous
 62
     7
100
AcDbLine
 10
26041.31664269653
 20
23548.9271352486
 30
0.0
 11
26166.29849710954
 21
23548.9271352486
 31
0.0
  0
LINE
  5
DB
330
22
100
AcDbEntity
  8
_0-0_パイプ
  6
Continuous
 62
     7
100
AcDbLine
 10
26216.29866206942
 20
23548.9271352486
 30
0.0
 11
26341.3151580576
 21
23548.9271352486
 31
0.0
  0
LINE
  5
DC
330
22
100
AcDbEntity
  8
_0-0_パイプ
  6
Continuous
 62
     7
100
AcDbLine
 10
26166.29849710954
 20
23518.92753115232
 30
0.0
 11
26181.32304313994
 21
23518.92753115232
 31
0.0
  0
LINE
  5
DD
330
22
100
AcDbEntity
  8
_0-0_パイプ
  6
Continuous
 62
     7
100
AcDbLine
 10
26201.30875761418
 20
23518.92753115232
 30
0.0
 11
26216.33082924637
 21
23518.92753115232
 31
0.0
  0
LINE
  5
DE
330
22
100
AcDbEntity
  8
ADD_LINE
  6
DOT
 62
     7
100
AcDbLine
 10
26191.31466317795
 20
23390.11530828492
 30
0.0
 11
26191.31466317795
 21
23702.09238545974
 31
0.0
  0
LINE
  5
DF
330
22
100
AcDbEntity
  8
_0-0_パイプ
  6
Continuous
 62
     7
100
AcDbLine
 10
26166.29849710954
 20
23488.92792705603
 30
0.0
 11
26166.29849710954
 21
23588.92825697579
 31
0.0
  0
LINE
  5
E0
330
22
100
AcDbEntity
  8
_0-0_パイプ
  6
Continuous
 62
     7
100
AcDbLine
 10
26216.29866206942
 20
23588.92825697579
 30
0.0
 11
26216.29866206942
 21
23488.92792705603
 31
0.0
  0
LINE
  5
E1
330
22
100
AcDbEntity
  8
_0-0_パイプ
  6
Continuous
 62
     7
100
AcDbLine
 10
26341.3151580576
 20
23598.92482581025
 30
0.0
 11
26341.3151580576
 21
23548.9271352486
 31
0.0
  0
LINE
  5
E2
330
22
100
AcDbEntity
  8
_0-0_パイプ
  6
Continuous
 62
     7
100
AcDbLine
 10
26096.31509207364
 20
23848.92317621144
 30
0.0
 11
26286.31670868048
 21
23848.92317621144
 31
0.0
  0
LINE
  5
E3
330
22
100
AcDbEntity
  8
_0-0_パイプ
  6
Continuous
 62
     7
100
AcDbLine
 10
26191.31466317795
 20
12848.92523820996
 30
0.0
 11
26359.81623359603
 21
12848.92523820996
 31
0.0
  0
LINE
  5
E4
330
22
100
AcDbEntity
  8
_0-0_パイプ
  6
Continuous
 62
     7
100
AcDbLine
 10
26191.31466317795
 20
12848.92400101084
 30
0.0
 11
26022.8155671581
 21
12848.92400101084
 31
0.0
  0
LINE
  5
E5
330
22
100
AcDbEntity
  8
_0-0_パイプ
  6
Continuous
 62
     7
100
AcDbLine
 10
26286.31670868048
 20
23848.92317621144
 30
0.0
 11
26359.81623359603
 21
12848.92523820996
 31
0.0
  0
LINE
  5
E6
330
22
100
AcDbEntity
  8
_0-0_パイプ
  6
Continuous
 62
     7
100
AcDbLine
 10
26022.8155671581
 20
12848.92400101084
 30
0.0
 11
26096.31509207364
 21
23848.92317621144
 31
0.0
  0
LINE
  5
E7
330
22
100
AcDbEntity
  8
_0-0_パイプ
  6
Continuous
 62
     7
100
AcDbLine
 10
26166.29849710954
 20
23588.92825697579
 30
0.0
 11
26216.29866206942
 21
23588.92825697579
 31
0.0
  0
LINE
  5
E8
330
22
100
AcDbEntity
  8
ADD_LINE
  6
DOT
 62
     7
100
AcDbLine
 10
26191.31466317795
 20
14598.63903281511
 30
0.0
 11
26191.31466317795
 21
14256.78359705708
 31
0.0
  0
LINE
  5
E9
330
22
100
AcDbEntity
  8
_0-0_パイプ
  6
Continuous
 62
     7
100
AcDbLine
 10
26032.83935437305
 20
14348.92523820995
 30
0.0
 11
25527.11689607491
 21
14348.92523820995
 31
0.0
  0
LINE
  5
EA
330
22
100
AcDbEntity
  8
_0-0_パイプ
  6
Continuous
 62
     7
100
AcDbLine
 10
26348.45627133885
 20
14548.92589804948
 30
0.0
 11
26855.51490467922
 21
14548.92589804948
 31
0.0
  0
LINE
  5
EB
330
22
100
AcDbEntity
  8
_0-0_パイプ
  6
Continuous
 62
     7
100
AcDbLine
 10
26855.51490467922
 20
14348.92523820995
 30
0.0
 11
26349.79244638108
 21
14348.92523820995
 31
0.0
  0
LINE
  5
EC
330
22
100
AcDbEntity
  8
_0-0_パイプ
  6
Continuous
 62
     7
100
AcDbLine
 10
8591.31845725523
 20
23578.92673934488
 30
0.0
 11
13791.31581789712
 21
23578.92673934488
 31
0.0
  0
LINE
  5
ED
330
22
100
AcDbEntity
  8
ADD_LINE
  6
DOT
 62
     7
100
AcDbLine
 10
8191.317137576174
 20
19396.40440377688
 30
0.0
 11
8191.317137576174
 21
19206.86055084192
 31
0.0
  0
LINE
  5
EE
330
22
100
AcDbEntity
  8
_0-0_パイプ
  6
Continuous
 62
     7
100
AcDbLine
 10
14153.81515805759
 20
14918.93008803048
 30
0.0
 11
14153.81515805759
 21
15068.93058291012
 31
0.0
  0
LINE
  5
EF
330
22
100
AcDbEntity
  8
_0-0_パイプ
  6
Continuous
 62
     7
100
AcDbLine
 10
14153.81515805759
 20
15068.93058291012
 30
0.0
 11
14228.8141682983
 21
15068.93058291012
 31
0.0
  0
LINE
  5
F0
330
22
100
AcDbEntity
  8
_0-0_パイプ
  6
Continuous
 62
     7
100
AcDbLine
 10
14228.8141682983
 20
15068.93058291012
 30
0.0
 11
14228.8141682983
 21
14918.93008803048
 31
0.0
  0
LINE
  5
F1
330
22
100
AcDbEntity
  8
_0-0_パイプ
  6
Continuous
 62
     7
100
AcDbLine
 10
14228.8141682983
 20
14918.93008803048
 30
0.0
 11
14153.81515805759
 21
14918.93008803048
 31
0.0
  0
LINE
  5
F2
330
22
100
AcDbEntity
  8
_0-0_パイプ
  6
Continuous
 62
     7
100
AcDbLine
 10
14228.8141682983
 20
14948.92969212676
 30
0.0
 11
14206.31693962431
 21
14948.92969212676
 31
0.0
  0
LINE
  5
F3
330
22
100
AcDbEntity
  8
_0-0_パイプ
  6
Continuous
 62
     7
100
AcDbLine
 10
14176.31733552803
 20
14948.92969212676
 30
0.0
 11
14153.81515805759
 21
14948.92969212676
 31
0.0
  0
LINE
  5
F4
330
22
100
AcDbEntity
  8
_0-0_パイプ
  6
Continuous
 62
     7
100
AcDbLine
 10
13941.31878717499
 20
14993.9303354703
 30
0.0
 11
13941.31878717499
 21
15093.93066539006
 31
0.0
  0
LINE
  5
F5
330
22
100
AcDbEntity
  8
_0-0_パイプ
  6
Continuous
 62
     7
100
AcDbLine
 10
14441.31548797735
 20
14993.9303354703
 30
0.0
 11
13941.31878717499
 21
14993.9303354703
 31
0.0
  0
LINE
  5
F6
330
22
100
AcDbEntity
  8
_0-0_パイプ
  6
Continuous
 62
     7
100
AcDbLine
 10
13941.31878717499
 20
15093.93066539006
 30
0.0
 11
14441.31548797735
 21
15093.93066539006
 31
0.0
  0
LINE
  5
F7
330
22
100
AcDbEntity
  8
_0-0_パイプ
  6
Continuous
 62
     7
100
AcDbLine
 10
14441.31548797735
 20
15093.93066539006
 30
0.0
 11
14441.31548797735
 21
14993.9303354703
 31
0.0
  0
LINE
  5
F8
330
22
100
AcDbEntity
  8
_0-0_パイプ
  6
Continuous
 62
     7
100
AcDbLine
 10
20153.81515805759
 20
14918.93008803048
 30
0.0
 11
20153.81515805759
 21
15068.93058291012
 31
0.0
  0
LINE
  5
F9
330
22
100
AcDbEntity
  8
_0-0_パイプ
  6
Continuous
 62
     7
100
AcDbLine
 10
20153.81515805759
 20
15068.93058291012
 30
0.0
 11
20228.81664269653
 21
15068.93058291012
 31
0.0
  0
LINE
  5
FA
330
22
100
AcDbEntity
  8
_0-0_パイプ
  6
Continuous
 62
     7
100
AcDbLine
 10
20228.81664269653
 20
15068.93058291012
 30
0.0
 11
20228.81664269653
 21
14918.93008803048
 31
0.0
  0
LINE
  5
FB
330
22
100
AcDbEntity
  8
_0-0_パイプ
  6
Continuous
 62
     7
100
AcDbLine
 10
20228.81664269653
 20
14918.93008803048
 30
0.0
 11
20153.81515805759
 21
14918.93008803048
 31
0.0
  0
LINE
  5
FC
330
22
100
AcDbEntity
  8
_0-0_パイプ
  6
Continuous
 62
     7
100
AcDbLine
 10
20228.81664269653
 20
14948.92969212676
 30
0.0
 11
20206.31446522609
 21
14948.92969212676
 31
0.0
  0
LINE
  5
FD
330
22
100
AcDbEntity
  8
_0-0_パイプ
  6
Continuous
 62
     7
100
AcDbLine
 10
20176.31733552804
 20
14948.92969212676
 30
0.0
 11
20153.81515805759
 21
14948.92969212676
 31
0.0
  0
LINE
  5
FE
330
22
100
AcDbEntity
  8
_0-0_パイプ
  6
Continuous
 62
     7
100
AcDbLine
 10
19941.31631277676
 20
14993.9303354703
 30
0.0
 11
19941.31631277676
 21
15093.93066539006
 31
0.0
  0
LINE
  5
FF
330
22
100
AcDbEntity
  8
_0-0_パイプ
  6
Continuous
 62
     7
100
AcDbLine
 10
20441.31548797736
 20
14993.9303354703
 30
0.0
 11
19941.31631277676
 21
14993.9303354703
 31
0.0
  0
LINE
  5
100
330
22
100
AcDbEntity
  8
_0-0_パイプ
  6
Continuous
 62
     7
100
AcDbLine
 10
19941.31631277676
 20
15093.93066539006
 30
0.0
 11
20441.31548797736
 21
15093.93066539006
 31
0.0
  0
LINE
  5
101
330
22
100
AcDbEntity
  8
_0-0_パイプ
  6
Continuous
 62
     7
100
AcDbLine
 10
20441.31548797736
 20
15093.93066539006
 30
0.0
 11
20441.31548797736
 21
14993.9303354703
 31
0.0
  0
LINE
  5
102
330
22
100
AcDbEntity
  8
_0-0_パイプ
  6
Continuous
 62
     7
100
AcDbLine
 10
26153.8151580576
 20
14918.93008803048
 30
0.0
 11
26153.8151580576
 21
15068.93058291012
 31
0.0
  0
LINE
  5
103
330
22
100
AcDbEntity
  8
_0-0_パイプ
  6
Continuous
 62
     7
100
AcDbLine
 10
26153.8151580576
 20
15068.93058291012
 30
0.0
 11
26228.81664269653
 21
15068.93058291012
 31
0.0
  0
LINE
  5
104
330
22
100
AcDbEntity
  8
_0-0_パイプ
  6
Continuous
 62
     7
100
AcDbLine
 10
26228.81664269653
 20
15068.93058291012
 30
0.0
 11
26228.81664269653
 21
14918.93008803048
 31
0.0
  0
LINE
  5
105
330
22
100
AcDbEntity
  8
_0-0_パイプ
  6
Continuous
 62
     7
100
AcDbLine
 10
26228.81664269653
 20
14918.93008803048
 30
0.0
 11
26153.8151580576
 21
14918.93008803048
 31
0.0
  0
LINE
  5
106
330
22
100
AcDbEntity
  8
_0-0_パイプ
  6
Continuous
 62
     7
100
AcDbLine
 10
26228.81664269653
 20
14948.92969212676
 30
0.0
 11
26206.31446522609
 21
14948.92969212676
 31
0.0
  0
LINE
  5
107
330
22
100
AcDbEntity
  8
_0-0_パイプ
  6
Continuous
 62
     7
100
AcDbLine
 10
26176.31486112981
 20
14948.92969212676
 30
0.0
 11
26153.8151580576
 21
14948.92969212676
 31
0.0
  0
LINE
  5
108
330
22
100
AcDbEntity
  8
_0-0_パイプ
  6
Continuous
 62
     7
100
AcDbLine
 10
25941.31631277677
 20
14993.9303354703
 30
0.0
 11
25941.31631277677
 21
15093.93066539006
 31
0.0
  0
LINE
  5
109
330
22
100
AcDbEntity
  8
_0-0_パイプ
  6
Continuous
 62
     7
100
AcDbLine
 10
26441.31548797736
 20
14993.9303354703
 30
0.0
 11
25941.31631277677
 21
14993.9303354703
 31
0.0
  0
LINE
  5
10A
330
22
100
AcDbEntity
  8
_0-0_パイプ
  6
Continuous
 62
     7
100
AcDbLine
 10
25941.31631277677
 20
15093.93066539006
 30
0.0
 11
26441.31548797736
 21
15093.93066539006
 31
0.0
  0
LINE
  5
10B
330
22
100
AcDbEntity
  8
_0-0_パイプ
  6
Continuous
 62
     7
100
AcDbLine
 10
26441.31548797736
 20
15093.93066539006
 30
0.0
 11
26441.31548797736
 21
14993.9303354703
 31
0.0
  0
LINE
  5
10C
330
22
100
AcDbEntity
  8
_0-2_メッセン
  6
Continuous
 62
     6
100
AcDbLine
 10
8216.333303644587
 20
23518.92753115232
 30
0.0
 11
14166.30097150776
 21
23518.92753115232
 31
0.0
  0
LINE
  5
10D
330
22
100
AcDbEntity
  8
_0-2_メッセン
  6
Continuous
 62
     6
100
AcDbLine
 10
14041.31664269653
 20
23548.93208404505
 30
0.0
 11
8441.315487977353
 21
15093.93066539006
 31
0.0
  0
LINE
  5
10E
330
22
100
AcDbEntity
  8
_0-2_メッセン
  6
Continuous
 62
     6
100
AcDbLine
 10
8228.816642696527
 20
14948.92969212676
 30
0.0
 11
14153.81515805759
 21
14948.92969212676
 31
0.0
  0
LINE
  5
10F
330
22
100
AcDbEntity
  8
_0-2_メッセン
  6
Continuous
 62
     6
100
AcDbLine
 10
13941.31878717499
 20
15093.93066539006
 30
0.0
 11
8341.317632455817
 21
23548.93208404505
 31
0.0
  0
LINE
  5
110
330
22
100
AcDbEntity
  8
_0-2_メッセン
  6
Continuous
 62
     6
100
AcDbLine
 10
14191.31713757617
 20
23443.74541544285
 30
0.0
 11
14191.31713757617
 21
15068.93058291012
 31
0.0
  0
LINE
  5
111
330
22
100
AcDbEntity
  8
_0-2_メッセン
  6
Continuous
 62
     6
100
AcDbLine
 10
8191.317137576174
 20
23443.74541544285
 30
0.0
 11
8191.317137576174
 21
15068.93058291012
 31
0.0
  0
LINE
  5
112
330
22
100
AcDbEntity
  8
_0-2_メッセン
  6
Continuous
 62
     6
100
AcDbLine
 10
20166.29849710954
 20
23518.92753115232
 30
0.0
 11
14216.33330364458
 21
23518.92753115232
 31
0.0
  0
LINE
  5
113
330
22
100
AcDbEntity
  8
_0-2_メッセン
  6
Continuous
 62
     6
100
AcDbLine
 10
14341.31515805759
 20
23548.93208404505
 30
0.0
 11
19941.31631277676
 21
15093.93066539006
 31
0.0
  0
LINE
  5
114
330
22
100
AcDbEntity
  8
_0-2_メッセン
  6
Continuous
 62
     6
100
AcDbLine
 10
20153.81515805759
 20
14948.92969212676
 30
0.0
 11
14228.8141682983
 21
14948.92969212676
 31
0.0
  0
LINE
  5
115
330
22
100
AcDbEntity
  8
_0-2_メッセン
  6
Continuous
 62
     6
100
AcDbLine
 10
14441.31548797735
 20
15093.93066539006
 30
0.0
 11
20041.31664269653
 21
23548.93208404505
 31
0.0
  0
LINE
  5
116
330
22
100
AcDbEntity
  8
_0-2_メッセン
  6
Continuous
 62
     6
100
AcDbLine
 10
20191.31466317795
 20
23443.74541544285
 30
0.0
 11
20191.31466317795
 21
15068.93058291012
 31
0.0
  0
LINE
  5
117
330
22
100
AcDbEntity
  8
_0-2_メッセン
  6
Continuous
 62
     6
100
AcDbLine
 10
26191.31466317795
 20
23518.92753115232
 30
0.0
 11
26191.31466317795
 21
15068.93058291012
 31
0.0
  0
LINE
  5
118
330
22
100
AcDbEntity
  8
_0-2_メッセン
  6
Continuous
 62
     6
100
AcDbLine
 10
20216.33082924636
 20
23518.92753115232
 30
0.0
 11
26166.29849710954
 21
23518.92753115232
 31
0.0
  0
LINE
  5
119
330
22
100
AcDbEntity
  8
_0-2_メッセン
  6
Continuous
 62
     6
100
AcDbLine
 10
26041.3141682983
 20
23548.93208404505
 30
0.0
 11
20441.31548797736
 21
15093.93066539006
 31
0.0
  0
LINE
  5
11A
330
22
100
AcDbEntity
  8
_0-2_メッセン
  6
Continuous
 62
     6
100
AcDbLine
 10
20228.81416829831
 20
14948.92969212676
 30
0.0
 11
26153.8151580576
 21
14948.92969212676
 31
0.0
  0
LINE
  5
11B
330
22
100
AcDbEntity
  8
_0-2_メッセン
  6
Continuous
 62
     6
100
AcDbLine
 10
25941.31631277677
 20
15093.93066539006
 30
0.0
 11
20341.31515805759
 21
23548.93208404505
 31
0.0
  0
LINE
  5
11C
330
22
100
AcDbEntity
  8
_0-0_パイプ
  6
Continuous
 62
     7
100
AcDbLine
 10
13991.31647773665
 20
19278.93111078175
 30
0.0
 11
13991.31647773665
 21
19378.93144070151
 31
0.0
  0
LINE
  5
11D
330
22
100
AcDbEntity
  8
_0-0_パイプ
  6
Continuous
 62
     7
100
AcDbLine
 10
13991.31647773665
 20
19378.93144070151
 30
0.0
 11
14391.31532301747
 21
19378.93144070151
 31
0.0
  0
LINE
  5
11E
330
22
100
AcDbEntity
  8
_0-0_パイプ
  6
Continuous
 62
     7
100
AcDbLine
 10
14391.31532301747
 20
19378.93144070151
 30
0.0
 11
14391.31532301747
 21
19278.93111078175
 31
0.0
  0
LINE
  5
11F
330
22
100
AcDbEntity
  8
_0-0_パイプ
  6
Continuous
 62
     7
100
AcDbLine
 10
14391.31532301747
 20
19278.93111078175
 30
0.0
 11
13991.31647773665
 21
19278.93111078175
 31
0.0
  0
LINE
  5
120
330
22
100
AcDbEntity
  8
_0-0_パイプ
  6
Continuous
 62
     7
100
AcDbLine
 10
14153.81515805759
 20
19203.93086334192
 30
0.0
 11
14153.81515805759
 21
19353.93135822157
 31
0.0
  0
LINE
  5
121
330
22
100
AcDbEntity
  8
_0-0_パイプ
  6
Continuous
 62
     7
100
AcDbLine
 10
14153.81515805759
 20
19353.93135822157
 30
0.0
 11
14228.8141682983
 21
19353.93135822157
 31
0.0
  0
LINE
  5
122
330
22
100
AcDbEntity
  8
_0-0_パイプ
  6
Continuous
 62
     7
100
AcDbLine
 10
14228.8141682983
 20
19353.93135822157
 30
0.0
 11
14228.8141682983
 21
19203.93086334192
 31
0.0
  0
LINE
  5
123
330
22
100
AcDbEntity
  8
_0-0_パイプ
  6
Continuous
 62
     7
100
AcDbLine
 10
14228.8141682983
 20
19203.93086334192
 30
0.0
 11
14153.81515805759
 21
19203.93086334192
 31
0.0
  0
LINE
  5
124
330
22
100
AcDbEntity
  8
_0-0_パイプ
  6
Continuous
 62
     7
100
AcDbLine
 10
14228.8141682983
 20
19233.93046743821
 30
0.0
 11
14206.31446522609
 21
19233.93046743821
 31
0.0
  0
LINE
  5
125
330
22
100
AcDbEntity
  8
_0-0_パイプ
  6
Continuous
 62
     7
100
AcDbLine
 10
14176.31486112981
 20
19233.93046743821
 30
0.0
 11
14153.81515805759
 21
19233.93046743821
 31
0.0
  0
LINE
  5
126
330
22
100
AcDbEntity
  8
ADD_LINE
  6
DOT
 62
     7
100
AcDbLine
 10
14191.31713757617
 20
19396.40440377688
 30
0.0
 11
14191.31713757617
 21
19206.86055084192
 31
0.0
  0
LINE
  5
127
330
22
100
AcDbEntity
  8
_0-0_パイプ
  6
Continuous
 62
     7
100
AcDbLine
 10
19991.31647773665
 20
19278.93111078175
 30
0.0
 11
19991.31647773665
 21
19378.93144070151
 31
0.0
  0
LINE
  5
128
330
22
100
AcDbEntity
  8
_0-0_パイプ
  6
Continuous
 62
     7
100
AcDbLine
 10
19991.31647773665
 20
19378.93144070151
 30
0.0
 11
20391.31532301748
 21
19378.93144070151
 31
0.0
  0
LINE
  5
129
330
22
100
AcDbEntity
  8
_0-0_パイプ
  6
Continuous
 62
     7
100
AcDbLine
 10
20391.31532301748
 20
19378.93144070151
 30
0.0
 11
20391.31532301748
 21
19278.93111078175
 31
0.0
  0
LINE
  5
12A
330
22
100
AcDbEntity
  8
_0-0_パイプ
  6
Continuous
 62
     7
100
AcDbLine
 10
20391.31532301748
 20
19278.93111078175
 30
0.0
 11
19991.31647773665
 21
19278.93111078175
 31
0.0
  0
LINE
  5
12B
330
22
100
AcDbEntity
  8
_0-0_パイプ
  6
Continuous
 62
     7
100
AcDbLine
 10
20153.81515805759
 20
19203.93086334192
 30
0.0
 11
20153.81515805759
 21
19353.93135822157
 31
0.0
  0
LINE
  5
12C
330
22
100
AcDbEntity
  8
_0-0_パイプ
  6
Continuous
 62
     7
100
AcDbLine
 10
20153.81515805759
 20
19353.93135822157
 30
0.0
 11
20228.81664269653
 21
19353.93135822157
 31
0.0
  0
LINE
  5
12D
330
22
100
AcDbEntity
  8
_0-0_パイプ
  6
Continuous
 62
     7
100
AcDbLine
 10
20228.81664269653
 20
19353.93135822157
 30
0.0
 11
20228.81664269653
 21
19203.93086334192
 31
0.0
  0
LINE
  5
12E
330
22
100
AcDbEntity
  8
_0-0_パイプ
  6
Continuous
 62
     7
100
AcDbLine
 10
20228.81664269653
 20
19203.93086334192
 30
0.0
 11
20153.81515805759
 21
19203.93086334192
 31
0.0
  0
LINE
  5
12F
330
22
100
AcDbEntity
  8
_0-0_パイプ
  6
Continuous
 62
     7
100
AcDbLine
 10
20228.81664269653
 20
19233.93046743821
 30
0.0
 11
20206.31446522609
 21
19233.93046743821
 31
0.0
  0
LINE
  5
130
330
22
100
AcDbEntity
  8
_0-0_パイプ
  6
Continuous
 62
     7
100
AcDbLine
 10
20176.31486112981
 20
19233.93046743821
 30
0.0
 11
20153.81515805759
 21
19233.93046743821
 31
0.0
  0
LINE
  5
131
330
22
100
AcDbEntity
  8
ADD_LINE
  6
DOT
 62
     7
100
AcDbLine
 10
20191.31713757617
 20
19396.40440377688
 30
0.0
 11
20191.31713757617
 21
19206.86055084192
 31
0.0
  0
LINE
  5
132
330
22
100
AcDbEntity
  8
_0-0_パイプ
  6
Continuous
 62
     7
100
AcDbLine
 10
25991.31647773665
 20
19278.93111078175
 30
0.0
 11
25991.31647773665
 21
19378.93144070151
 31
0.0
  0
LINE
  5
133
330
22
100
AcDbEntity
  8
_0-0_パイプ
  6
Continuous
 62
     7
100
AcDbLine
 10
25991.31647773665
 20
19378.93144070151
 30
0.0
 11
26391.31532301748
 21
19378.93144070151
 31
0.0
  0
LINE
  5
134
330
22
100
AcDbEntity
  8
_0-0_パイプ
  6
Continuous
 62
     7
100
AcDbLine
 10
26391.31532301748
 20
19378.93144070151
 30
0.0
 11
26391.31532301748
 21
19278.93111078175
 31
0.0
  0
LINE
  5
135
330
22
100
AcDbEntity
  8
_0-0_パイプ
  6
Continuous
 62
     7
100
AcDbLine
 10
26391.31532301748
 20
19278.93111078175
 30
0.0
 11
25991.31647773665
 21
19278.93111078175
 31
0.0
  0
LINE
  5
136
330
22
100
AcDbEntity
  8
_0-0_パイプ
  6
Continuous
 62
     7
100
AcDbLine
 10
26153.81268365937
 20
19203.93086334192
 30
0.0
 11
26153.81268365937
 21
19353.93135822157
 31
0.0
  0
LINE
  5
137
330
22
100
AcDbEntity
  8
_0-0_パイプ
  6
Continuous
 62
     7
100
AcDbLine
 10
26153.81268365937
 20
19353.93135822157
 30
0.0
 11
26228.81416829831
 21
19353.93135822157
 31
0.0
  0
LINE
  5
138
330
22
100
AcDbEntity
  8
_0-0_パイプ
  6
Continuous
 62
     7
100
AcDbLine
 10
26228.81416829831
 20
19353.93135822157
 30
0.0
 11
26228.81416829831
 21
19203.93086334192
 31
0.0
  0
LINE
  5
139
330
22
100
AcDbEntity
  8
_0-0_パイプ
  6
Continuous
 62
     7
100
AcDbLine
 10
26228.81416829831
 20
19203.93086334192
 30
0.0
 11
26153.81268365937
 21
19203.93086334192
 31
0.0
  0
LINE
  5
13A
330
22
100
AcDbEntity
  8
_0-0_パイプ
  6
Continuous
 62
     7
100
AcDbLine
 10
26228.81416829831
 20
19233.93046743821
 30
0.0
 11
26206.31446522609
 21
19233.93046743821
 31
0.0
  0
LINE
  5
13B
330
22
100
AcDbEntity
  8
_0-0_パイプ
  6
Continuous
 62
     7
100
AcDbLine
 10
26176.31486112981
 20
19233.93046743821
 30
0.0
 11
26153.81268365937
 21
19233.93046743821
 31
0.0
  0
LINE
  5
13C
330
22
100
AcDbEntity
  8
ADD_LINE
  6
DOT
 62
     7
100
AcDbLine
 10
26191.31466317795
 20
19396.40440377688
 30
0.0
 11
26191.31466317795
 21
19206.86055084192
 31
0.0
  0
LINE
  5
13D
330
22
100
AcDbEntity
  8
_0-0_パイプ
  6
Continuous
 62
     7
100
AcDbLine
 10
8228.816642696527
 20
19233.93046743821
 30
0.0
 11
8206.316939624315
 21
19233.93046743821
 31
0.0
  0
LINE
  5
13E
330
22
100
AcDbEntity
  8
_0-2_メッセン
  6
Continuous
 62
     6
100
AcDbLine
 10
8228.816642696527
 20
19233.93046743821
 30
0.0
 11
14153.81515805759
 21
19233.93046743821
 31
0.0
  0
LINE
  5
13F
330
22
100
AcDbEntity
  8
_0-2_メッセン
  6
Continuous
 62
     6
100
AcDbLine
 10
14228.8141682983
 20
19233.93046743821
 30
0.0
 11
20153.81515805759
 21
19233.93046743821
 31
0.0
  0
LINE
  5
140
330
22
100
AcDbEntity
  8
_0-2_メッセン
  6
Continuous
 62
     6
100
AcDbLine
 10
20228.81664269653
 20
19233.93046743821
 30
0.0
 11
26153.81268365937
 21
19233.93046743821
 31
0.0
  0
LINE
  5
141
330
22
100
AcDbEntity
  8
_0-2_メッセン
  6
Continuous
 62
     6
100
AcDbLine
 10
8141.316972616293
 20
15243.9299230706
 30
0.0
 11
8141.316972616293
 21
15443.93058291013
 31
0.0
  0
LINE
  5
142
330
22
100
AcDbEntity
  8
_0-2_メッセン
  6
Continuous
 62
     6
100
AcDbLine
 10
8241.317302536053
 20
15443.93305730835
 30
0.0
 11
8241.317302536053
 21
15243.92744867237
 31
0.0
  0
LINE
  5
143
330
22
100
AcDbEntity
  8
_0-2_メッセン
  6
Continuous
 62
     6
100
AcDbLine
 10
8480.208079299146
 20
15243.19873839471
 30
0.0
 11
8590.647895335886
 21
15409.94224887296
 31
0.0
  0
LINE
  5
144
330
22
100
AcDbEntity
  8
_0-2_メッセン
  6
Continuous
 62
     6
100
AcDbLine
 10
8674.017794776345
 20
15354.72110365548
 30
0.0
 11
8563.577978739605
 21
15187.97759317723
 31
0.0
  0
LINE
  5
145
330
22
100
AcDbEntity
  8
_0-2_メッセン
  6
Continuous
 62
     6
100
AcDbLine
 10
8742.19736350523
 20
14898.92952716688
 30
0.0
 11
8545.792004288591
 21
14898.92952716688
 31
0.0
  0
LINE
  5
146
330
22
100
AcDbEntity
  8
_0-2_メッセン
  6
Continuous
 62
     6
100
AcDbLine
 10
14241.31482813783
 20
15243.9299230706
 30
0.0
 11
14241.31482813783
 21
15443.93058291013
 31
0.0
  0
LINE
  5
147
330
22
100
AcDbEntity
  8
_0-2_メッセン
  6
Continuous
 62
     6
100
AcDbLine
 10
14141.31449821806
 20
15443.93305730835
 30
0.0
 11
14141.31449821806
 21
15243.92744867237
 31
0.0
  0
LINE
  5
148
330
22
100
AcDbEntity
  8
_0-2_メッセン
  6
Continuous
 62
     6
100
AcDbLine
 10
13902.42372145497
 20
15243.19873839471
 30
0.0
 11
13791.98637981646
 21
15409.94224887296
 31
0.0
  0
LINE
  5
149
330
22
100
AcDbEntity
  8
_0-2_メッセン
  6
Continuous
 62
     6
100
AcDbLine
 10
13708.616480376
 20
15354.72110365548
 30
0.0
 11
13819.05382201452
 21
15187.97759317723
 31
0.0
  0
LINE
  5
14A
330
22
100
AcDbEntity
  8
_0-2_メッセン
  6
Continuous
 62
     6
100
AcDbLine
 10
14480.20807929915
 20
15243.19873839471
 30
0.0
 11
14590.64542093766
 21
15409.94224887296
 31
0.0
  0
LINE
  5
14B
330
22
100
AcDbEntity
  8
_0-2_メッセン
  6
Continuous
 62
     6
100
AcDbLine
 10
14674.01779477634
 20
15354.72110365548
 30
0.0
 11
14563.5779787396
 21
15187.97759317723
 31
0.0
  0
LINE
  5
14C
330
22
100
AcDbEntity
  8
_0-2_メッセン
  6
Continuous
 62
     6
100
AcDbLine
 10
20241.31730253606
 20
15243.93116026971
 30
0.0
 11
20241.31730253606
 21
15443.93182010924
 31
0.0
  0
LINE
  5
14D
330
22
100
AcDbEntity
  8
_0-2_メッセン
  6
Continuous
 62
     6
100
AcDbLine
 10
20141.3169726163
 20
15443.93429450746
 30
0.0
 11
20141.3169726163
 21
15243.92868587149
 31
0.0
  0
LINE
  5
14E
330
22
100
AcDbEntity
  8
_0-2_メッセン
  6
Continuous
 62
     6
100
AcDbLine
 10
19902.42372145497
 20
15243.19997559382
 30
0.0
 11
19791.98637981646
 21
15409.94348607207
 31
0.0
  0
LINE
  5
14F
330
22
100
AcDbEntity
  8
_0-2_メッセン
  6
Continuous
 62
     6
100
AcDbLine
 10
19708.61400597777
 20
15354.72234085459
 30
0.0
 11
19819.05382201452
 21
15187.97883037634
 31
0.0
  0
LINE
  5
150
330
22
100
AcDbEntity
  8
_0-2_メッセン
  6
Continuous
 62
     6
100
AcDbLine
 10
20480.21055369737
 20
15243.19997559382
 30
0.0
 11
20590.64789533589
 21
15409.94348607207
 31
0.0
  0
LINE
  5
151
330
22
100
AcDbEntity
  8
_0-2_メッセン
  6
Continuous
 62
     6
100
AcDbLine
 10
20674.01779477634
 20
15354.72234085459
 30
0.0
 11
20563.5779787396
 21
15187.97883037634
 31
0.0
  0
LINE
  5
152
330
22
100
AcDbEntity
  8
_0-2_メッセン
  6
Continuous
 62
     6
100
AcDbLine
 10
26241.31730253606
 20
15243.93239746882
 30
0.0
 11
26241.31730253606
 21
15443.93305730835
 31
0.0
  0
LINE
  5
153
330
22
100
AcDbEntity
  8
_0-2_メッセン
  6
Continuous
 62
     6
100
AcDbLine
 10
26141.31697261629
 20
15443.93553170657
 30
0.0
 11
26141.31697261629
 21
15243.9299230706
 31
0.0
  0
LINE
  5
154
330
22
100
AcDbEntity
  8
_0-2_メッセン
  6
Continuous
 62
     6
100
AcDbLine
 10
25902.42372145498
 20
15243.20121279294
 30
0.0
 11
25791.98637981647
 21
15409.94472327119
 31
0.0
  0
LINE
  5
155
330
22
100
AcDbEntity
  8
_0-2_メッセン
  6
Continuous
 62
     6
100
AcDbLine
 10
25708.61648037601
 20
15354.72357805371
 30
0.0
 11
25819.05629641275
 21
15187.98006757545
 31
0.0
  0
LINE
  5
156
330
22
100
AcDbEntity
  8
_0-2_メッセン
  6
Continuous
 62
     6
100
AcDbLine
 10
26480.21055369737
 20
15243.20121279294
 30
0.0
 11
26590.64789533589
 21
15409.94472327119
 31
0.0
  0
LINE
  5
157
330
22
100
AcDbEntity
  8
_0-2_メッセン
  6
Continuous
 62
     6
100
AcDbLine
 10
26674.01779477635
 20
15354.72357805371
 30
0.0
 11
26563.57797873961
 21
15187.98006757545
 31
0.0
  0
LINE
  5
158
330
22
100
AcDbEntity
  8
_0-3_寸法
  6
Continuous
 62
     4
100
AcDbLine
 10
8191.317137576174
 20
10348.92874360744
 30
0.0
 11
26191.31713757617
 21
10348.92874360744
 31
0.0
  0
LINE
  5
159
330
22
100
AcDbEntity
  8
_0-3_寸法
  6
Continuous
 62
     4
100
AcDbLine
 10
8191.317137576174
 20
10848.92853740759
 30
0.0
 11
8191.317137576174
 21
10348.92874360744
 31
0.0
  0
LINE
  5
15A
330
22
100
AcDbEntity
  8
_0-3_寸法
  6
Continuous
 62
     4
100
AcDbLine
 10
14191.31713757617
 20
10848.92853740759
 30
0.0
 11
14191.31713757617
 21
10348.92874360744
 31
0.0
  0
LINE
  5
15B
330
22
100
AcDbEntity
  8
_0-3_寸法
  6
Continuous
 62
     4
100
AcDbLine
 10
20191.31713757617
 20
10848.92853740759
 30
0.0
 11
20191.31713757617
 21
10348.92874360744
 31
0.0
  0
LINE
  5
15C
330
22
100
AcDbEntity
  8
_0-3_寸法
  6
Continuous
 62
     4
100
AcDbLine
 10
4691.317962375584
 20
23848.92812500789
 30
0.0
 11
4691.317962375584
 21
12848.92894980729
 31
0.0
  0
LINE
  5
15D
330
22
100
AcDbEntity
  8
_0-3_寸法
  6
Continuous
 62
     4
100
AcDbLine
 10
7691.317962375584
 20
23518.92753115232
 30
0.0
 11
4691.317962375584
 21
23518.92753115232
 31
0.0
  0
LINE
  5
15E
330
22
100
AcDbEntity
  8
_0-3_寸法
  6
Continuous
 62
     4
100
AcDbLine
 10
5191.317137576172
 20
14948.92969212676
 30
0.0
 11
4691.317962375584
 21
14948.92969212676
 31
0.0
  0
LINE
  5
15F
330
22
100
AcDbEntity
  8
_0-3_寸法
  6
Continuous
 62
     4
100
AcDbLine
 10
5191.317137576172
 20
14848.929362207
 30
0.0
 11
4191.316312776765
 21
14848.929362207
 31
0.0
  0
LINE
  5
160
330
22
100
AcDbEntity
  8
_0-3_寸法
  6
Continuous
 62
     4
100
AcDbLine
 10
5191.317137576172
 20
14448.92804252795
 30
0.0
 11
4691.317962375584
 21
14448.92804252795
 31
0.0
  0
LINE
  5
161
330
22
100
AcDbEntity
  8
_0-3_寸法
  6
Continuous
 62
     4
100
AcDbLine
 10
4191.316312776765
 20
23848.92812500789
 30
0.0
 11
4191.316312776765
 21
12848.92894980729
 31
0.0
  0
LINE
  5
162
330
22
100
AcDbEntity
  8
_0-3_寸法
  6
Continuous
 62
     4
100
AcDbLine
 10
7691.317962375584
 20
23848.92812500789
 30
0.0
 11
3691.317137576172
 21
23848.92812500789
 31
0.0
  0
LINE
  5
163
330
22
100
AcDbEntity
  8
_0-3_寸法
  6
Continuous
 62
     4
100
AcDbLine
 10
7691.317962375584
 20
12848.92894980729
 30
0.0
 11
3691.317137576172
 21
12848.92894980729
 31
0.0
  0
LINE
  5
164
330
22
100
AcDbEntity
  8
_0-3_寸法
  6
Continuous
 62
     4
100
AcDbLine
 10
3691.317137576172
 20
23848.92812500789
 30
0.0
 11
3691.317137576172
 21
12848.92894980729
 31
0.0
  0
LINE
  5
165
330
22
100
AcDbEntity
  8
_0-1_ＧＬ
  6
Continuous
 62
     3
100
AcDbLine
 10
6629.778853686817
 20
14873.92820748782
 30
0.0
 11
7029.780173365871
 21
14473.92812500789
 31
0.0
  0
LINE
  5
166
330
22
100
AcDbEntity
  8
_0-1_ＧＬ
  6
Continuous
 62
     3
100
AcDbLine
 10
6629.778853686817
 20
14873.92820748782
 30
0.0
 11
6229.780008405986
 21
14473.92812500789
 31
0.0
  0
LINE
  5
167
330
22
100
AcDbEntity
  8
_0-1_ＧＬ
  6
Continuous
 62
     3
100
AcDbLine
 10
6229.777534007761
 20
14473.92812500789
 30
0.0
 11
5829.778688726932
 21
14873.92820748782
 31
0.0
  0
LINE
  5
168
330
22
100
AcDbEntity
  8
_0-1_ＧＬ
  6
Continuous
 62
     3
100
AcDbLine
 10
5914.390736077017
 20
14781.42035539746
 30
0.0
 11
5606.897268488334
 21
14473.92812500789
 31
0.0
  0
LINE
  5
169
330
22
100
AcDbEntity
  8
_0-1_ＧＬ
  6
Continuous
 62
     3
100
AcDbLine
 10
6017.998738610803
 20
14681.51157821207
 30
0.0
 11
5810.416522605734
 21
14473.92812500789
 31
0.0
  0
LINE
  5
16A
330
22
100
AcDbEntity
  8
_0-1_ＧＬ
  6
Continuous
 62
     3
100
AcDbLine
 10
6121.609215542812
 20
14581.60280102667
 30
0.0
 11
6013.93577672313
 21
14473.92812500789
 31
0.0
  0
LINE
  5
16B
330
22
100
AcDbEntity
  8
_0-1_ＧＬ
  6
Continuous
 62
     3
100
AcDbLine
 10
6729.779183606578
 20
14773.92787756806
 30
0.0
 11
6429.778193847287
 21
14473.92812500789
 31
0.0
  0
LINE
  5
16C
330
22
100
AcDbEntity
  8
_0-1_ＧＬ
  6
Continuous
 62
     3
100
AcDbLine
 10
6829.779513526344
 20
14673.9275476483
 30
0.0
 11
6629.778853686817
 21
14473.92812500789
 31
0.0
  0
LINE
  5
16D
330
22
100
AcDbEntity
  8
_0-1_ＧＬ
  6
Continuous
 62
     3
100
AcDbLine
 10
6929.77736904788
 20
14573.92845492765
 30
0.0
 11
6829.777039128114
 21
14473.92812500789
 31
0.0
  0
LINE
  5
16E
330
22
100
AcDbEntity
  8
_0-1_ＧＬ
  6
Continuous
 62
     3
100
AcDbLine
 10
6529.778523767053
 20
14773.92787756806
 30
0.0
 11
6429.778193847287
 21
14873.92820748782
 31
0.0
  0
LINE
  5
16F
330
22
100
AcDbEntity
  8
_0-1_ＧＬ
  6
Continuous
 62
     3
100
AcDbLine
 10
6429.778193847287
 20
14673.9275476483
 30
0.0
 11
6229.777534007761
 21
14873.92820748782
 31
0.0
  0
LINE
  5
170
330
22
100
AcDbEntity
  8
_0-1_ＧＬ
  6
Continuous
 62
     3
100
AcDbLine
 10
6329.777863927526
 20
14573.92845492765
 30
0.0
 11
6029.779348566457
 21
14873.92820748782
 31
0.0
  0
LINE
  5
171
330
22
100
AcDbEntity
  8
_0-1_ＧＬ
  6
Continuous
 62
     3
100
AcDbLine
 10
5829.778688726932
 20
14873.92820748782
 30
0.0
 11
5529.777698967641
 21
14573.92845492765
 31
0.0
  0
LINE
  5
172
330
22
100
AcDbEntity
  8
_0-1_ＧＬ
  6
Continuous
 62
     3
100
AcDbLine
 10
5629.778028887407
 20
14673.9275476483
 30
0.0
 11
5429.77736904788
 21
14873.92820748782
 31
0.0
  0
LINE
  5
173
330
22
100
AcDbEntity
  8
_0-1_ＧＬ
  6
Continuous
 62
     3
100
AcDbLine
 10
5729.778358807167
 20
14773.92787756806
 30
0.0
 11
5629.778028887407
 21
14873.92820748782
 31
0.0
  0
LINE
  5
174
330
22
100
AcDbEntity
  8
_0-1_ＧＬ
  6
Continuous
 62
     3
100
AcDbLine
 10
6141.01097203563
 20
15066.58980218799
 30
0.0
 11
5918.545250699062
 21
15066.58980218799
 31
0.0
  0
LINE
  5
175
330
22
100
AcDbEntity
  8
_0-1_ＧＬ
  6
Continuous
 62
     3
100
AcDbLine
 10
6029.779348566457
 20
14873.92820748782
 30
0.0
 11
6141.01097203563
 21
15066.58980218799
 31
0.0
  0
LINE
  5
176
330
22
100
AcDbEntity
  8
_0-1_ＧＬ
  6
Continuous
 62
     3
100
AcDbLine
 10
6029.779348566457
 20
14873.92820748782
 30
0.0
 11
5918.545250699062
 21
15066.58980218799
 31
0.0
  0
LINE
  5
177
330
22
100
AcDbEntity
  8
_0-1_ＧＬ
  6
Continuous
 62
     3
100
AcDbLine
 10
8346.286224094333
 20
14873.92820748782
 30
0.0
 11
14036.34805105801
 21
14873.92820748782
 31
0.0
  0
LINE
  5
178
330
22
100
AcDbEntity
  8
_0-1_ＧＬ
  6
Continuous
 62
     3
100
AcDbLine
 10
8036.348051058014
 20
14873.92820748782
 30
0.0
 11
5214.799176744246
 21
14873.92820748782
 31
0.0
  0
LINE
  5
179
330
22
100
AcDbEntity
  8
_0-6_仕上
  6
Continuous
 62
     4
100
AcDbLine
 10
26765.46660442584
 20
23399.22604255434
 30
0.0
 11
26765.46660442584
 21
23499.2263724741
 31
0.0
  0
LINE
  5
17A
330
22
100
AcDbEntity
  8
_0-6_仕上
  6
Continuous
 62
     4
100
AcDbLine
 10
14214.0717036657
 20
20543.02322108052
 30
0.0
 11
14614.07178614564
 21
21235.83987806954
 31
0.0
  0
LINE
  5
17B
330
22
100
AcDbEntity
  8
_0-6_仕上
  6
Continuous
 62
     4
100
AcDbLine
 10
14214.0717036657
 20
20543.02322108052
 30
0.0
 11
14214.0717036657
 21
20643.02355100029
 31
0.0
  0
LINE
  5
17C
330
22
100
AcDbEntity
  8
_0-6_仕上
  6
Continuous
 62
     4
100
AcDbLine
 10
14614.07178614564
 20
21235.83987806954
 30
0.0
 11
14814.07244598517
 21
21235.83987806954
 31
0.0
  0
LINE
  5
17D
330
22
100
AcDbEntity
  8
_0-6_仕上
  6
Continuous
 62
     4
100
AcDbLine
 10
8855.51737907744
 20
14348.92894980729
 30
0.0
 11
8855.51737907744
 21
14248.92861988753
 31
0.0
  0
LINE
  5
17E
330
22
100
AcDbEntity
  8
_0-6_仕上
  6
Continuous
 62
     4
100
AcDbLine
 10
9255.518698756496
 20
13656.10858122093
 30
0.0
 11
10055.5213381146
 21
13656.10858122093
 31
0.0
  0
LINE
  5
17F
330
22
100
AcDbEntity
  8
_0-6_仕上
  6
Continuous
 62
     4
100
AcDbLine
 10
14202.75009458103
 20
21965.59682617976
 30
0.0
 11
14602.75017706097
 21
22658.41595756701
 31
0.0
  0
LINE
  5
180
330
22
100
AcDbEntity
  8
_0-6_仕上
  6
Continuous
 62
     4
100
AcDbLine
 10
14202.75009458103
 20
21965.59682617976
 30
0.0
 11
14202.75009458103
 21
22065.59715609953
 31
0.0
  0
LINE
  5
181
330
22
100
AcDbEntity
  8
_0-6_仕上
  6
Continuous
 62
     4
100
AcDbLine
 10
14602.75017706097
 20
22658.41595756701
 30
0.0
 11
14802.75083690049
 21
22658.41595756701
 31
0.0
  0
LINE
  5
182
330
22
100
AcDbEntity
  8
_0-6_仕上
  6
Continuous
 62
     4
100
AcDbLine
 10
15706.19445691211
 20
19239.98779429632
 30
0.0
 11
16106.19453939205
 21
19932.80445128533
 31
0.0
  0
LINE
  5
183
330
22
100
AcDbEntity
  8
_0-6_仕上
  6
Continuous
 62
     4
100
AcDbLine
 10
15706.19445691211
 20
19239.98779429632
 30
0.0
 11
15706.19445691211
 21
19339.98936141519
 31
0.0
  0
LINE
  5
184
330
22
100
AcDbEntity
  8
_0-6_仕上
  6
Continuous
 62
     4
100
AcDbLine
 10
16106.19453939205
 20
19932.80445128533
 30
0.0
 11
16306.19519923158
 21
19932.80445128533
 31
0.0
  0
LINE
  5
185
330
22
100
AcDbEntity
  8
_0-6_仕上
  6
Continuous
 62
     4
100
AcDbLine
 10
8855.51737907744
 20
14348.92894980729
 30
0.0
 11
9255.518698756496
 21
13656.10858122093
 31
0.0
  0
LINE
  5
186
330
22
100
AcDbEntity
  8
_0-2_メッセン
  6
Continuous
 62
     6
100
AcDbLine
 10
26341.3151580576
 20
23548.93208404505
 30
0.0
 11
28191.31631277677
 21
20755.76455738753
 31
0.0
  0
LINE
  5
187
330
22
100
AcDbEntity
  8
_0-2_メッセン
  6
Continuous
 62
     6
100
AcDbLine
 10
28191.31631277677
 20
23518.92753115232
 30
0.0
 11
26216.33082924637
 21
23518.92753115232
 31
0.0
  0
LINE
  5
188
330
22
100
AcDbEntity
  8
_0-2_メッセン
  6
Continuous
 62
     6
100
AcDbLine
 10
26228.81416829831
 20
19233.93046743821
 30
0.0
 11
28191.31631277677
 21
19233.93046743821
 31
0.0
  0
LINE
  5
189
330
22
100
AcDbEntity
  8
_0-2_メッセン
  6
Continuous
 62
     6
100
AcDbLine
 10
26441.31301357913
 20
15093.93066539006
 30
0.0
 11
28191.31631277677
 21
17736.12525866498
 31
0.0
  0
LINE
  5
18A
330
22
100
AcDbEntity
  8
_0-2_メッセン
  6
Continuous
 62
     6
100
AcDbLine
 10
28191.31631277677
 20
14948.92969212676
 30
0.0
 11
26228.81416829831
 21
14948.92969212676
 31
0.0
  0
LINE
  5
18B
330
22
100
AcDbEntity
  8
_0-0_パイプ
  6
CENTER1
 62
     4
100
AcDbLine
 10
26191.31713757617
 20
24108.4974477486
 30
0.0
 11
26191.31713757617
 21
10348.92812500789
 31
0.0
  0
LINE
  5
18C
330
22
100
AcDbEntity
  8
_0-0_パイプ
  6
CENTER1
 62
     4
100
AcDbLine
 10
20191.31713757617
 20
24108.4974477486
 30
0.0
 11
20191.31713757617
 21
10348.92812500789
 31
0.0
  0
LINE
  5
18D
330
22
100
AcDbEntity
  8
_0-0_パイプ
  6
CENTER1
 62
     4
100
AcDbLine
 10
14191.31713757617
 20
24108.4974477486
 30
0.0
 11
14191.31713757617
 21
10348.92812500789
 31
0.0
  0
LINE
  5
18E
330
22
100
AcDbEntity
  8
_0-0_パイプ
  6
CENTER1
 62
     4
100
AcDbLine
 10
8191.317137576174
 20
24108.4974477486
 30
0.0
 11
8191.317137576174
 21
10348.92812500789
 31
0.0
  0
LINE
  5
18F
330
22
100
AcDbEntity
  8
_0-1_ＧＬ
  6
Continuous
 62
     3
100
AcDbLine
 10
26346.28622409433
 20
14873.92820748782
 30
0.0
 11
29191.31713757617
 21
14873.92820748782
 31
0.0
  0
LINE
  5
190
330
22
100
AcDbEntity
  8
_0-1_ＧＬ
  6
Continuous
 62
     3
100
AcDbLine
 10
14346.28374969611
 20
14873.92820748782
 30
0.0
 11
20036.34557665979
 21
14873.92820748782
 31
0.0
  0
LINE
  5
191
330
22
100
AcDbEntity
  8
_0-1_ＧＬ
  6
Continuous
 62
     3
100
AcDbLine
 10
20346.28622409433
 20
14873.92820748782
 30
0.0
 11
26036.34557665979
 21
14873.92820748782
 31
0.0
  0
LINE
  5
192
330
22
100
AcDbEntity
  8
_0-1_ＧＬ
  6
Continuous
 62
     3
100
AcDbLine
 10
28606.29763931815
 20
14873.92697028871
 30
0.0
 11
29006.2989589972
 21
14473.92688780877
 31
0.0
  0
LINE
  5
193
330
22
100
AcDbEntity
  8
_0-1_ＧＬ
  6
Continuous
 62
     3
100
AcDbLine
 10
28606.29763931815
 20
14873.92697028871
 30
0.0
 11
28206.29879403733
 21
14473.92688780877
 31
0.0
  0
LINE
  5
194
330
22
100
AcDbEntity
  8
_0-1_ＧＬ
  6
Continuous
 62
     3
100
AcDbLine
 10
28206.29631963909
 20
14473.92688780877
 30
0.0
 11
27806.29747435827
 21
14873.92697028871
 31
0.0
  0
LINE
  5
195
330
22
100
AcDbEntity
  8
_0-1_ＧＬ
  6
Continuous
 62
     3
100
AcDbLine
 10
27890.90952170836
 20
14781.41911819834
 30
0.0
 11
27583.41605411968
 21
14473.92688780877
 31
0.0
  0
LINE
  5
196
330
22
100
AcDbEntity
  8
_0-1_ＧＬ
  6
Continuous
 62
     3
100
AcDbLine
 10
27994.51752424213
 20
14681.51034101295
 30
0.0
 11
27786.93530823708
 21
14473.92688780877
 31
0.0
  0
LINE
  5
197
330
22
100
AcDbEntity
  8
_0-1_ＧＬ
  6
Continuous
 62
     3
100
AcDbLine
 10
28098.12800117415
 20
14581.60156382757
 30
0.0
 11
27990.45456235448
 21
14473.92688780877
 31
0.0
  0
LINE
  5
198
330
22
100
AcDbEntity
  8
_0-1_ＧＬ
  6
Continuous
 62
     3
100
AcDbLine
 10
28706.29796923792
 20
14773.92664036895
 30
0.0
 11
28406.29697947862
 21
14473.92688780877
 31
0.0
  0
LINE
  5
199
330
22
100
AcDbEntity
  8
_0-1_ＧＬ
  6
Continuous
 62
     3
100
AcDbLine
 10
28806.29829915768
 20
14673.92631044918
 30
0.0
 11
28606.29763931815
 21
14473.92688780877
 31
0.0
  0
LINE
  5
19A
330
22
100
AcDbEntity
  8
_0-1_ＧＬ
  6
Continuous
 62
     3
100
AcDbLine
 10
28906.29615467922
 20
14573.92721772854
 30
0.0
 11
28806.29582475945
 21
14473.92688780877
 31
0.0
  0
LINE
  5
19B
330
22
100
AcDbEntity
  8
_0-1_ＧＬ
  6
Continuous
 62
     3
100
AcDbLine
 10
28506.29730939839
 20
14773.92664036895
 30
0.0
 11
28406.29697947862
 21
14873.92697028871
 31
0.0
  0
LINE
  5
19C
330
22
100
AcDbEntity
  8
_0-1_ＧＬ
  6
Continuous
 62
     3
100
AcDbLine
 10
28406.29697947862
 20
14673.92631044918
 30
0.0
 11
28206.29631963909
 21
14873.92697028871
 31
0.0
  0
LINE
  5
19D
330
22
100
AcDbEntity
  8
_0-1_ＧＬ
  6
Continuous
 62
     3
100
AcDbLine
 10
28306.29664955886
 20
14573.92721772854
 30
0.0
 11
28006.2981341978
 21
14873.92697028871
 31
0.0
  0
LINE
  5
19E
330
22
100
AcDbEntity
  8
_0-1_ＧＬ
  6
Continuous
 62
     3
100
AcDbLine
 10
27806.29747435827
 20
14873.92697028871
 30
0.0
 11
27506.29648459898
 21
14573.92721772854
 31
0.0
  0
LINE
  5
19F
330
22
100
AcDbEntity
  8
_0-1_ＧＬ
  6
Continuous
 62
     3
100
AcDbLine
 10
27606.29681451875
 20
14673.92631044918
 30
0.0
 11
27406.29615467922
 21
14873.92697028871
 31
0.0
  0
LINE
  5
1A0
330
22
100
AcDbEntity
  8
_0-1_ＧＬ
  6
Continuous
 62
     3
100
AcDbLine
 10
27706.29714443851
 20
14773.92664036895
 30
0.0
 11
27606.29681451875
 21
14873.92697028871
 31
0.0
  0
LINE
  5
1A1
330
22
100
AcDbEntity
  8
_0-6_仕上
  6
Continuous
 62
     4
100
AcDbLine
 10
8880.513749960043
 20
23627.43979097073
 30
0.0
 11
9280.515069639095
 21
24320.25644795975
 31
0.0
  0
LINE
  5
1A2
330
22
100
AcDbEntity
  8
_0-6_仕上
  6
Continuous
 62
     4
100
AcDbLine
 10
8880.513749960043
 20
23627.43979097073
 30
0.0
 11
8880.513749960043
 21
23727.44012089049
 31
0.0
  0
LINE
  5
1A3
330
22
100
AcDbEntity
  8
_0-6_仕上
  6
Continuous
 62
     4
100
AcDbLine
 10
9280.515069639095
 20
24320.25644795975
 30
0.0
 11
11219.57971411756
 21
24320.25644795975
 31
0.0
  0
LINE
  5
1A4
330
22
100
AcDbEntity
  8
_0-6_仕上
  6
Continuous
 62
     4
100
AcDbLine
 10
9526.032284852355
 20
21784.0254843301
 30
0.0
 11
9926.033604531411
 21
22476.84461571735
 31
0.0
  0
LINE
  5
1A5
330
22
100
AcDbEntity
  8
_0-6_仕上
  6
Continuous
 62
     4
100
AcDbLine
 10
9526.032284852355
 20
21784.0254843301
 30
0.0
 11
9526.032284852355
 21
21884.02581424986
 31
0.0
  0
LINE
  5
1A6
330
22
100
AcDbEntity
  8
_0-6_仕上
  6
Continuous
 62
     4
100
AcDbLine
 10
9926.033604531411
 20
22476.84461571735
 30
0.0
 11
12933.98384603267
 21
22476.84461571735
 31
0.0
  0
LINE
  5
1A7
330
22
100
AcDbEntity
  8
_0-6_仕上
  6
Continuous
 62
     4
100
AcDbLine
 10
15706.19445691211
 20
23537.59439137191
 30
0.0
 11
16106.19453939205
 21
24230.41104836093
 31
0.0
  0
LINE
  5
1A8
330
22
100
AcDbEntity
  8
_0-6_仕上
  6
Continuous
 62
     4
100
AcDbLine
 10
15706.19445691211
 20
23537.59439137191
 30
0.0
 11
15706.19445691211
 21
23637.59472129168
 31
0.0
  0
LINE
  5
1A9
330
22
100
AcDbEntity
  8
_0-6_仕上
  6
Continuous
 62
     4
100
AcDbLine
 10
16106.19453939205
 20
24230.41104836093
 30
0.0
 11
16306.19519923158
 21
24230.41104836093
 31
0.0
  0
LINE
  5
1AA
330
22
100
AcDbEntity
  8
_0-6_仕上
  6
Continuous
 62
     4
100
AcDbLine
 10
15706.19445691211
 20
14963.03994801253
 30
0.0
 11
16106.19453939205
 21
15655.85660500155
 31
0.0
  0
LINE
  5
1AB
330
22
100
AcDbEntity
  8
_0-6_仕上
  6
Continuous
 62
     4
100
AcDbLine
 10
15706.19445691211
 20
14963.03994801253
 30
0.0
 11
15706.19445691211
 21
15063.04151513141
 31
0.0
  0
LINE
  5
1AC
330
22
100
AcDbEntity
  8
_0-6_仕上
  6
Continuous
 62
     4
100
AcDbLine
 10
16106.19453939205
 20
15655.85660500155
 30
0.0
 11
16306.19519923158
 21
15655.85660500155
 31
0.0
  0
LINE
  5
1AD
330
22
100
AcDbEntity
  8
_0-4_ハッチ
  6
Continuous
 62
     5
100
AcDbLine
 10
28191.31631277677
 20
14948.92969212676
 30
0.0
 11
23243.42301542668
 21
23518.92753115232
 31
0.0
  0
LINE
  5
1AE
330
22
100
AcDbEntity
  8
_0-4_ハッチ
  6
Continuous
 62
     5
100
AcDbLine
 10
8191.317137576174
 20
19206.86055084192
 30
0.0
 11
10649.63424985446
 21
14948.92969212676
 31
0.0
  0
LINE
  5
1AF
330
22
100
AcDbEntity
  8
_0-4_ハッチ
  6
Continuous
 62
     5
100
AcDbLine
 10
8191.317137576174
 20
15046.69935204547
 30
0.0
 11
10593.18580311671
 21
15046.69935204547
 31
0.0
  0
LINE
  5
1B0
330
22
100
AcDbEntity
  8
_0-4_ハッチ
  6
Continuous
 62
     5
100
AcDbLine
 10
8261.886974991716
 20
14948.92969212676
 30
0.0
 11
8261.886974991716
 21
19084.63270165485
 31
0.0
  0
LINE
  5
1B1
330
22
100
AcDbEntity
  8
_0-4_ハッチ
  6
Continuous
 62
     5
100
AcDbLine
 10
8361.884830513249
 20
14948.92969212676
 30
0.0
 11
8361.884830513249
 21
18911.42730020848
 31
0.0
  0
LINE
  5
1B2
330
22
100
AcDbEntity
  8
_0-4_ハッチ
  6
Continuous
 62
     5
100
AcDbLine
 10
8461.885160433014
 20
14948.92969212676
 30
0.0
 11
8461.885160433014
 21
18738.22313596122
 31
0.0
  0
LINE
  5
1B3
330
22
100
AcDbEntity
  8
_0-4_ハッチ
  6
Continuous
 62
     5
100
AcDbLine
 10
8561.885490352779
 20
14948.92969212676
 30
0.0
 11
8561.885490352779
 21
18565.01773451485
 31
0.0
  0
LINE
  5
1B4
330
22
100
AcDbEntity
  8
_0-4_ハッチ
  6
Continuous
 62
     5
100
AcDbLine
 10
8661.883345874315
 20
14948.92969212676
 30
0.0
 11
8661.883345874315
 21
18391.8135702676
 31
0.0
  0
LINE
  5
1B5
330
22
100
AcDbEntity
  8
_0-4_ハッチ
  6
Continuous
 62
     5
100
AcDbLine
 10
8761.883675794079
 20
14948.92969212676
 30
0.0
 11
8761.883675794079
 21
18218.60940602035
 31
0.0
  0
LINE
  5
1B6
330
22
100
AcDbEntity
  8
_0-4_ハッチ
  6
Continuous
 62
     5
100
AcDbLine
 10
8861.884005713843
 20
14948.92969212676
 30
0.0
 11
8861.884005713843
 21
18045.40400457398
 31
0.0
  0
LINE
  5
1B7
330
22
100
AcDbEntity
  8
_0-4_ハッチ
  6
Continuous
 62
     5
100
AcDbLine
 10
8961.884335633605
 20
14948.92969212676
 30
0.0
 11
8961.884335633605
 21
17872.19984032672
 31
0.0
  0
LINE
  5
1B8
330
22
100
AcDbEntity
  8
_0-4_ハッチ
  6
Continuous
 62
     5
100
AcDbLine
 10
9061.884665553371
 20
14948.92969212676
 30
0.0
 11
9061.884665553371
 21
17698.99567607946
 31
0.0
  0
LINE
  5
1B9
330
22
100
AcDbEntity
  8
_0-4_ハッチ
  6
Continuous
 62
     5
100
AcDbLine
 10
9161.882521074909
 20
14948.92969212676
 30
0.0
 11
9161.882521074909
 21
17525.7902746331
 31
0.0
  0
LINE
  5
1BA
330
22
100
AcDbEntity
  8
_0-4_ハッチ
  6
Continuous
 62
     5
100
AcDbLine
 10
9261.882850994672
 20
14948.92969212676
 30
0.0
 11
9261.882850994672
 21
17352.58611038584
 31
0.0
  0
LINE
  5
1BB
330
22
100
AcDbEntity
  8
_0-4_ハッチ
  6
Continuous
 62
     5
100
AcDbLine
 10
9361.883180914434
 20
14948.92969212676
 30
0.0
 11
9361.883180914434
 21
17179.38194613858
 31
0.0
  0
LINE
  5
1BC
330
22
100
AcDbEntity
  8
_0-4_ハッチ
  6
Continuous
 62
     5
100
AcDbLine
 10
9461.88103643597
 20
14948.92969212676
 30
0.0
 11
9461.88103643597
 21
17006.17654469222
 31
0.0
  0
LINE
  5
1BD
330
22
100
AcDbEntity
  8
_0-4_ハッチ
  6
Continuous
 62
     5
100
AcDbLine
 10
8191.317137576174
 20
15146.69968196524
 30
0.0
 11
10535.45314369948
 21
15146.69968196524
 31
0.0
  0
LINE
  5
1BE
330
22
100
AcDbEntity
  8
_0-4_ハッチ
  6
Continuous
 62
     5
100
AcDbLine
 10
9561.881366355732
 20
14948.92969212676
 30
0.0
 11
9561.881366355732
 21
16832.97238044496
 31
0.0
  0
LINE
  5
1BF
330
22
100
AcDbEntity
  8
_0-4_ハッチ
  6
Continuous
 62
     5
100
AcDbLine
 10
9661.881696275496
 20
14948.92969212676
 30
0.0
 11
9661.881696275496
 21
16659.76821619771
 31
0.0
  0
LINE
  5
1C0
330
22
100
AcDbEntity
  8
_0-4_ハッチ
  6
Continuous
 62
     5
100
AcDbLine
 10
9761.882026195262
 20
14948.92969212676
 30
0.0
 11
9761.882026195262
 21
16486.56405195045
 31
0.0
  0
LINE
  5
1C1
330
22
100
AcDbEntity
  8
_0-4_ハッチ
  6
Continuous
 62
     5
100
AcDbLine
 10
9861.882356115025
 20
14948.92969212676
 30
0.0
 11
9861.882356115025
 21
16313.35741330497
 31
0.0
  0
LINE
  5
1C2
330
22
100
AcDbEntity
  8
_0-4_ハッチ
  6
Continuous
 62
     5
100
AcDbLine
 10
9961.880211636563
 20
14948.92969212676
 30
0.0
 11
9961.880211636563
 21
16140.15324905771
 31
0.0
  0
LINE
  5
1C3
330
22
100
AcDbEntity
  8
_0-4_ハッチ
  6
Continuous
 62
     5
100
AcDbLine
 10
10061.88054155632
 20
14948.92969212676
 30
0.0
 11
10061.88054155632
 21
15966.94784761135
 31
0.0
  0
LINE
  5
1C4
330
22
100
AcDbEntity
  8
_0-4_ハッチ
  6
Continuous
 62
     5
100
AcDbLine
 10
10161.88087147608
 20
14948.92969212676
 30
0.0
 11
10161.88087147608
 21
15793.74492056321
 31
0.0
  0
LINE
  5
1C5
330
22
100
AcDbEntity
  8
_0-4_ハッチ
  6
Continuous
 62
     5
100
AcDbLine
 10
10361.87905691738
 20
14948.92969212676
 30
0.0
 11
10361.87905691738
 21
15447.33411767047
 31
0.0
  0
LINE
  5
1C6
330
22
100
AcDbEntity
  8
_0-4_ハッチ
  6
Continuous
 62
     5
100
AcDbLine
 10
8191.317137576174
 20
15246.700011885
 30
0.0
 11
10477.7155354858
 21
15246.700011885
 31
0.0
  0
LINE
  5
1C7
330
22
100
AcDbEntity
  8
_0-4_ハッチ
  6
Continuous
 62
     5
100
AcDbLine
 10
10261.87872699763
 20
14948.92969212676
 30
0.0
 11
10261.87872699763
 21
15620.53951911684
 31
0.0
  0
LINE
  5
1C8
330
22
100
AcDbEntity
  8
_0-4_ハッチ
  6
Continuous
 62
     5
100
AcDbLine
 10
8191.317137576174
 20
15346.70034180476
 30
0.0
 11
10419.98287606857
 21
15346.70034180476
 31
0.0
  0
LINE
  5
1C9
330
22
100
AcDbEntity
  8
_0-4_ハッチ
  6
Continuous
 62
     5
100
AcDbLine
 10
8191.317137576174
 20
15446.70067172452
 30
0.0
 11
10362.24526785489
 21
15446.70067172452
 31
0.0
  0
LINE
  5
1CA
330
22
100
AcDbEntity
  8
_0-4_ハッチ
  6
Continuous
 62
     5
100
AcDbLine
 10
8191.317137576174
 20
15546.70100164428
 30
0.0
 11
10304.51260843766
 21
15546.70100164428
 31
0.0
  0
LINE
  5
1CB
330
22
100
AcDbEntity
  8
_0-4_ハッチ
  6
Continuous
 62
     5
100
AcDbLine
 10
8191.317137576174
 20
15646.70133156405
 30
0.0
 11
10246.77500022398
 21
15646.70133156405
 31
0.0
  0
LINE
  5
1CC
330
22
100
AcDbEntity
  8
_0-4_ハッチ
  6
Continuous
 62
     5
100
AcDbLine
 10
8191.317137576174
 20
15746.70166148381
 30
0.0
 11
10189.03986640852
 21
15746.70166148381
 31
0.0
  0
LINE
  5
1CD
330
22
100
AcDbEntity
  8
_0-4_ハッチ
  6
Continuous
 62
     5
100
AcDbLine
 10
8191.317137576174
 20
15846.70199140358
 30
0.0
 11
10131.30473259306
 21
15846.70199140358
 31
0.0
  0
LINE
  5
1CE
330
22
100
AcDbEntity
  8
_0-4_ハッチ
  6
Continuous
 62
     5
100
AcDbLine
 10
8191.317137576174
 20
15946.70232132334
 30
0.0
 11
10073.5695987776
 21
15946.70232132334
 31
0.0
  0
LINE
  5
1CF
330
22
100
AcDbEntity
  8
_0-4_ハッチ
  6
Continuous
 62
     5
100
AcDbLine
 10
8191.317137576174
 20
16046.7026512431
 30
0.0
 11
10015.83446496215
 21
16046.7026512431
 31
0.0
  0
LINE
  5
1D0
330
22
100
AcDbEntity
  8
_0-4_ハッチ
  6
Continuous
 62
     5
100
AcDbLine
 10
8191.317137576174
 20
16146.70298116287
 30
0.0
 11
9958.099331146696
 21
16146.70298116287
 31
0.0
  0
LINE
  5
1D1
330
22
100
AcDbEntity
  8
_0-4_ハッチ
  6
Continuous
 62
     5
100
AcDbLine
 10
8191.317137576174
 20
16246.70331108263
 30
0.0
 11
9900.364197331242
 21
16246.70331108263
 31
0.0
  0
LINE
  5
1D2
330
22
100
AcDbEntity
  8
_0-4_ハッチ
  6
Continuous
 62
     5
100
AcDbLine
 10
8191.317137576174
 20
16346.70364100239
 30
0.0
 11
9842.629063515785
 21
16346.70364100239
 31
0.0
  0
LINE
  5
1D3
330
22
100
AcDbEntity
  8
_0-4_ハッチ
  6
Continuous
 62
     5
100
AcDbLine
 10
8191.317137576174
 20
16446.70397092216
 30
0.0
 11
9784.893929700331
 21
16446.70397092216
 31
0.0
  0
LINE
  5
1D4
330
22
100
AcDbEntity
  8
_0-4_ハッチ
  6
Continuous
 62
     5
100
AcDbLine
 10
8191.317137576174
 20
16546.70430084192
 30
0.0
 11
9727.158795884873
 21
16546.70430084192
 31
0.0
  0
LINE
  5
1D5
330
22
100
AcDbEntity
  8
_0-4_ハッチ
  6
Continuous
 62
     5
100
AcDbLine
 10
8191.317137576174
 20
16646.70463076169
 30
0.0
 11
9669.423662069418
 21
16646.70463076169
 31
0.0
  0
LINE
  5
1D6
330
22
100
AcDbEntity
  8
_0-4_ハッチ
  6
Continuous
 62
     5
100
AcDbLine
 10
8191.317137576174
 20
16746.70496068145
 30
0.0
 11
9611.688528253962
 21
16746.70496068145
 31
0.0
  0
LINE
  5
1D7
330
22
100
AcDbEntity
  8
_0-4_ハッチ
  6
Continuous
 62
     5
100
AcDbLine
 10
8191.317137576174
 20
16846.70529060121
 30
0.0
 11
9553.953394438506
 21
16846.70529060121
 31
0.0
  0
LINE
  5
1D8
330
22
100
AcDbEntity
  8
_0-4_ハッチ
  6
Continuous
 62
     5
100
AcDbLine
 10
8191.317137576174
 20
16946.70562052098
 30
0.0
 11
9496.218260623049
 21
16946.70562052098
 31
0.0
  0
LINE
  5
1D9
330
22
100
AcDbEntity
  8
_0-4_ハッチ
  6
Continuous
 62
     5
100
AcDbLine
 10
8191.317137576174
 20
17046.70595044074
 30
0.0
 11
9438.483126807593
 21
17046.70595044074
 31
0.0
  0
LINE
  5
1DA
330
22
100
AcDbEntity
  8
_0-4_ハッチ
  6
Continuous
 62
     5
100
AcDbLine
 10
8191.317137576174
 20
17146.70628036051
 30
0.0
 11
9380.747992992136
 21
17146.70628036051
 31
0.0
  0
LINE
  5
1DB
330
22
100
AcDbEntity
  8
_0-4_ハッチ
  6
Continuous
 62
     5
100
AcDbLine
 10
8191.317137576174
 20
17246.70661028027
 30
0.0
 11
9323.012859176678
 21
17246.70661028027
 31
0.0
  0
LINE
  5
1DC
330
22
100
AcDbEntity
  8
_0-4_ハッチ
  6
Continuous
 62
     5
100
AcDbLine
 10
8191.317137576174
 20
17346.70694020003
 30
0.0
 11
9265.277725361226
 21
17346.70694020003
 31
0.0
  0
LINE
  5
1DD
330
22
100
AcDbEntity
  8
_0-4_ハッチ
  6
Continuous
 62
     5
100
AcDbLine
 10
8191.317137576174
 20
17446.7072701198
 30
0.0
 11
9207.542591545767
 21
17446.7072701198
 31
0.0
  0
LINE
  5
1DE
330
22
100
AcDbEntity
  8
_0-4_ハッチ
  6
Continuous
 62
     5
100
AcDbLine
 10
8191.317137576174
 20
17546.70760003956
 30
0.0
 11
9149.807457730313
 21
17546.70760003956
 31
0.0
  0
LINE
  5
1DF
330
22
100
AcDbEntity
  8
_0-4_ハッチ
  6
Continuous
 62
     5
100
AcDbLine
 10
8191.317137576174
 20
17646.70792995932
 30
0.0
 11
9092.072323914855
 21
17646.70792995932
 31
0.0
  0
LINE
  5
1E0
330
22
100
AcDbEntity
  8
_0-4_ハッチ
  6
Continuous
 62
     5
100
AcDbLine
 10
8191.317137576174
 20
17746.70825987909
 30
0.0
 11
9034.337190099398
 21
17746.70825987909
 31
0.0
  0
LINE
  5
1E1
330
22
100
AcDbEntity
  8
_0-4_ハッチ
  6
Continuous
 62
     5
100
AcDbLine
 10
8191.317137576174
 20
17846.70858979885
 30
0.0
 11
8976.602056283944
 21
17846.70858979885
 31
0.0
  0
LINE
  5
1E2
330
22
100
AcDbEntity
  8
_0-4_ハッチ
  6
Continuous
 62
     5
100
AcDbLine
 10
8191.317137576174
 20
17946.70891971861
 30
0.0
 11
8918.864448070262
 21
17946.70891971861
 31
0.0
  0
LINE
  5
1E3
330
22
100
AcDbEntity
  8
_0-4_ハッチ
  6
Continuous
 62
     5
100
AcDbLine
 10
8191.317137576174
 20
18046.70924963837
 30
0.0
 11
8861.131788653032
 21
18046.70924963837
 31
0.0
  0
LINE
  5
1E4
330
22
100
AcDbEntity
  8
_0-4_ハッチ
  6
Continuous
 62
     5
100
AcDbLine
 10
8191.317137576174
 20
18146.70957955814
 30
0.0
 11
8803.394180439349
 21
18146.70957955814
 31
0.0
  0
LINE
  5
1E5
330
22
100
AcDbEntity
  8
_0-4_ハッチ
  6
Continuous
 62
     5
100
AcDbLine
 10
8191.317137576174
 20
18246.7099094779
 30
0.0
 11
8745.661521022121
 21
18246.7099094779
 31
0.0
  0
LINE
  5
1E6
330
22
100
AcDbEntity
  8
_0-4_ハッチ
  6
Continuous
 62
     5
100
AcDbLine
 10
8191.317137576174
 20
18346.71023939766
 30
0.0
 11
8687.923912808438
 21
18346.71023939766
 31
0.0
  0
LINE
  5
1E7
330
22
100
AcDbEntity
  8
_0-4_ハッチ
  6
Continuous
 62
     5
100
AcDbLine
 10
8191.317137576174
 20
18446.71056931743
 30
0.0
 11
8630.191253391208
 21
18446.71056931743
 31
0.0
  0
LINE
  5
1E8
330
22
100
AcDbEntity
  8
_0-4_ハッチ
  6
Continuous
 62
     5
100
AcDbLine
 10
8191.317137576174
 20
18546.71089923719
 30
0.0
 11
8572.453645177523
 21
18546.71089923719
 31
0.0
  0
LINE
  5
1E9
330
22
100
AcDbEntity
  8
_0-4_ハッチ
  6
Continuous
 62
     5
100
AcDbLine
 10
8191.317137576174
 20
18646.71122915696
 30
0.0
 11
8514.720985760295
 21
18646.71122915696
 31
0.0
  0
LINE
  5
1EA
330
22
100
AcDbEntity
  8
_0-4_ハッチ
  6
Continuous
 62
     5
100
AcDbLine
 10
28061.88796475101
 20
15173.10645983685
 30
0.0
 11
28061.88796475101
 21
15996.70248628322
 31
0.0
  0
LINE
  5
1EB
330
22
100
AcDbEntity
  8
_0-4_ハッチ
  6
Continuous
 62
     5
100
AcDbLine
 10
27961.88763483125
 20
15346.31186128322
 30
0.0
 11
27961.88763483125
 21
15996.70248628322
 31
0.0
  0
LINE
  5
1EC
330
22
100
AcDbEntity
  8
_0-4_ハッチ
  6
Continuous
 62
     5
100
AcDbLine
 10
27861.88730491148
 20
15519.51726272959
 30
0.0
 11
27861.88730491148
 21
15996.70248628322
 31
0.0
  0
LINE
  5
1ED
330
22
100
AcDbEntity
  8
_0-4_ハッチ
  6
Continuous
 62
     5
100
AcDbLine
 10
27788.45706314628
 20
15646.70133156405
 30
0.0
 11
28191.31631277677
 21
15646.70133156405
 31
0.0
  0
LINE
  5
1EE
330
22
100
AcDbEntity
  8
_0-4_ハッチ
  6
Continuous
 62
     5
100
AcDbLine
 10
27730.72192933083
 20
15746.70166148381
 30
0.0
 11
28191.31631277677
 21
15746.70166148381
 31
0.0
  0
LINE
  5
1EF
330
22
100
AcDbEntity
  8
_0-4_ハッチ
  6
Continuous
 62
     5
100
AcDbLine
 10
27761.88697499172
 20
15692.72266417596
 30
0.0
 11
27761.88697499172
 21
15996.70248628322
 31
0.0
  0
LINE
  5
1F0
330
22
100
AcDbEntity
  8
_0-4_ハッチ
  6
Continuous
 62
     5
100
AcDbLine
 10
27672.98679551537
 20
15846.70199140358
 30
0.0
 11
28191.31631277677
 21
15846.70199140358
 31
0.0
  0
LINE
  5
1F1
330
22
100
AcDbEntity
  8
_0-4_ハッチ
  6
Continuous
 62
     5
100
AcDbLine
 10
27615.25166169991
 20
15946.70232132334
 30
0.0
 11
28191.31631277677
 21
15946.70232132334
 31
0.0
  0
LINE
  5
1F2
330
22
100
AcDbEntity
  8
_0-4_ハッチ
  6
Continuous
 62
     5
100
AcDbLine
 10
27661.88911947017
 20
15865.92435402499
 30
0.0
 11
27661.88911947017
 21
17296.70677524015
 31
0.0
  0
LINE
  5
1F3
330
22
100
AcDbEntity
  8
_0-4_ハッチ
  6
Continuous
 62
     5
100
AcDbLine
 10
27557.51652788445
 20
16046.7026512431
 30
0.0
 11
28191.31631277677
 21
16046.7026512431
 31
0.0
  0
LINE
  5
1F4
330
22
100
AcDbEntity
  8
_0-4_ハッチ
  6
Continuous
 62
     5
100
AcDbLine
 10
27761.88944938994
 20
15996.70248628322
 30
0.0
 11
27761.88944938994
 21
17296.70677524015
 31
0.0
  0
LINE
  5
1F5
330
22
100
AcDbEntity
  8
_0-4_ハッチ
  6
Continuous
 62
     5
100
AcDbLine
 10
27861.8897793097
 20
15996.70248628322
 30
0.0
 11
27861.8897793097
 21
17296.70677524015
 31
0.0
  0
LINE
  5
1F6
330
22
100
AcDbEntity
  8
_0-4_ハッチ
  6
Continuous
 62
     5
100
AcDbLine
 10
27961.89010922948
 20
15996.70248628322
 30
0.0
 11
27961.89010922948
 21
17296.70677524015
 31
0.0
  0
LINE
  5
1F7
330
22
100
AcDbEntity
  8
_0-4_ハッチ
  6
Continuous
 62
     5
100
AcDbLine
 10
28061.89043914923
 20
15996.70248628322
 30
0.0
 11
28061.89043914923
 21
17296.70677524015
 31
0.0
  0
LINE
  5
1F8
330
22
100
AcDbEntity
  8
_0-4_ハッチ
  6
Continuous
 62
     5
100
AcDbLine
 10
27499.781394069
 20
16146.70298116287
 30
0.0
 11
28191.31631277677
 21
16146.70298116287
 31
0.0
  0
LINE
  5
1F9
330
22
100
AcDbEntity
  8
_0-4_ハッチ
  6
Continuous
 62
     5
100
AcDbLine
 10
27561.88878955041
 20
16039.12975547136
 30
0.0
 11
27561.88878955041
 21
17296.70677524015
 31
0.0
  0
LINE
  5
1FA
330
22
100
AcDbEntity
  8
_0-4_ハッチ
  6
Continuous
 62
     5
100
AcDbLine
 10
27442.04626025354
 20
16246.70331108263
 30
0.0
 11
28191.31631277677
 21
16246.70331108263
 31
0.0
  0
LINE
  5
1FB
330
22
100
AcDbEntity
  8
_0-4_ハッチ
  6
Continuous
 62
     5
100
AcDbLine
 10
27384.31112643809
 20
16346.70364100239
 30
0.0
 11
28191.31631277677
 21
16346.70364100239
 31
0.0
  0
LINE
  5
1FC
330
22
100
AcDbEntity
  8
_0-4_ハッチ
  6
Continuous
 62
     5
100
AcDbLine
 10
27461.88845963065
 20
16212.33515691772
 30
0.0
 11
27461.88845963065
 21
17296.70677524015
 31
0.0
  0
LINE
  5
1FD
330
22
100
AcDbEntity
  8
_0-4_ハッチ
  6
Continuous
 62
     5
100
AcDbLine
 10
27326.57599262263
 20
16446.70397092216
 30
0.0
 11
28191.31631277677
 21
16446.70397092216
 31
0.0
  0
LINE
  5
1FE
330
22
100
AcDbEntity
  8
_0-4_ハッチ
  6
Continuous
 62
     5
100
AcDbLine
 10
27268.84085880718
 20
16546.70430084192
 30
0.0
 11
28191.31631277677
 21
16546.70430084192
 31
0.0
  0
LINE
  5
1FF
330
22
100
AcDbEntity
  8
_0-4_ハッチ
  6
Continuous
 62
     5
100
AcDbLine
 10
27261.88779979112
 20
16558.74719700958
 30
0.0
 11
27261.88779979112
 21
17296.70677524015
 31
0.0
  0
LINE
  5
200
330
22
100
AcDbEntity
  8
_0-4_ハッチ
  6
Continuous
 62
     5
100
AcDbLine
 10
27211.10572499172
 20
16646.70463076169
 30
0.0
 11
28191.31631277677
 21
16646.70463076169
 31
0.0
  0
LINE
  5
201
330
22
100
AcDbEntity
  8
_0-4_ハッチ
  6
Continuous
 62
     5
100
AcDbLine
 10
27361.88812971089
 20
16385.5417955632
 30
0.0
 11
27361.88812971089
 21
17296.70677524015
 31
0.0
  0
LINE
  5
202
330
22
100
AcDbEntity
  8
_0-4_ハッチ
  6
Continuous
 62
     5
100
AcDbLine
 10
27153.37059117626
 20
16746.70496068145
 30
0.0
 11
28191.31631277677
 21
16746.70496068145
 31
0.0
  0
LINE
  5
203
330
22
100
AcDbEntity
  8
_0-4_ハッチ
  6
Continuous
 62
     5
100
AcDbLine
 10
27161.88746987136
 20
16731.95259845594
 30
0.0
 11
27161.88746987136
 21
17296.70677524015
 31
0.0
  0
LINE
  5
204
330
22
100
AcDbEntity
  8
_0-4_ハッチ
  6
Continuous
 62
     5
100
AcDbLine
 10
27095.6354573608
 20
16846.70529060121
 30
0.0
 11
28191.31631277677
 21
16846.70529060121
 31
0.0
  0
LINE
  5
205
330
22
100
AcDbEntity
  8
_0-4_ハッチ
  6
Continuous
 62
     5
100
AcDbLine
 10
27037.90032354534
 20
16946.70562052098
 30
0.0
 11
28191.31631277677
 21
16946.70562052098
 31
0.0
  0
LINE
  5
206
330
22
100
AcDbEntity
  8
_0-4_ハッチ
  6
Continuous
 62
     5
100
AcDbLine
 10
27061.8871399516
 20
16905.15799990231
 30
0.0
 11
27061.8871399516
 21
17296.70677524015
 31
0.0
  0
LINE
  5
207
330
22
100
AcDbEntity
  8
_0-4_ハッチ
  6
Continuous
 62
     5
100
AcDbLine
 10
26980.16518972989
 20
17046.70595044074
 30
0.0
 11
28191.31631277677
 21
17046.70595044074
 31
0.0
  0
LINE
  5
208
330
22
100
AcDbEntity
  8
_0-4_ハッチ
  6
Continuous
 62
     5
100
AcDbLine
 10
26922.43005591444
 20
17146.70628036051
 30
0.0
 11
28191.31631277677
 21
17146.70628036051
 31
0.0
  0
LINE
  5
209
330
22
100
AcDbEntity
  8
_0-4_ハッチ
  6
Continuous
 62
     5
100
AcDbLine
 10
26961.88681003184
 20
17196.70644532038
 30
0.0
 11
26961.88681003184
 21
17296.70677524015
 31
0.0
  0
LINE
  5
20A
330
22
100
AcDbEntity
  8
_0-4_ハッチ
  6
Continuous
 62
     5
100
AcDbLine
 10
26864.69492209898
 20
17246.70661028027
 30
0.0
 11
28191.31631277677
 21
17246.70661028027
 31
0.0
  0
LINE
  5
20B
330
22
100
AcDbEntity
  8
_0-4_ハッチ
  6
Continuous
 62
     5
100
AcDbLine
 10
26806.95978828352
 20
17346.70694020003
 30
0.0
 11
28191.31631277677
 21
17346.70694020003
 31
0.0
  0
LINE
  5
20C
330
22
100
AcDbEntity
  8
_0-4_ハッチ
  6
Continuous
 62
     5
100
AcDbLine
 10
26861.8889545103
 20
17251.56509119771
 30
0.0
 11
26861.8889545103
 21
18596.71106419708
 31
0.0
  0
LINE
  5
20D
330
22
100
AcDbEntity
  8
_0-4_ハッチ
  6
Continuous
 62
     5
100
AcDbLine
 10
27061.88961434983
 20
17296.70677524015
 30
0.0
 11
27061.88961434983
 21
18596.71106419708
 31
0.0
  0
LINE
  5
20E
330
22
100
AcDbEntity
  8
_0-4_ハッチ
  6
Continuous
 62
     5
100
AcDbLine
 10
27161.88994426959
 20
17296.70677524015
 30
0.0
 11
27161.88994426959
 21
18596.71106419708
 31
0.0
  0
LINE
  5
20F
330
22
100
AcDbEntity
  8
_0-4_ハッチ
  6
Continuous
 62
     5
100
AcDbLine
 10
27261.89027418935
 20
17296.70677524015
 30
0.0
 11
27261.89027418935
 21
18596.71106419708
 31
0.0
  0
LINE
  5
210
330
22
100
AcDbEntity
  8
_0-4_ハッチ
  6
Continuous
 62
     5
100
AcDbLine
 10
27361.89060410912
 20
17296.70677524015
 30
0.0
 11
27361.89060410912
 21
18596.71106419708
 31
0.0
  0
LINE
  5
211
330
22
100
AcDbEntity
  8
_0-4_ハッチ
  6
Continuous
 62
     5
100
AcDbLine
 10
27461.89093402888
 20
17296.70677524015
 30
0.0
 11
27461.89093402888
 21
18596.71106419708
 31
0.0
  0
LINE
  5
212
330
22
100
AcDbEntity
  8
_0-4_ハッチ
  6
Continuous
 62
     5
100
AcDbLine
 10
27561.89126394864
 20
17296.70677524015
 30
0.0
 11
27561.89126394864
 21
18596.71106419708
 31
0.0
  0
LINE
  5
213
330
22
100
AcDbEntity
  8
_0-4_ハッチ
  6
Continuous
 62
     5
100
AcDbLine
 10
27661.8915938684
 20
17296.70677524015
 30
0.0
 11
27661.8915938684
 21
18596.71106419708
 31
0.0
  0
LINE
  5
214
330
22
100
AcDbEntity
  8
_0-4_ハッチ
  6
Continuous
 62
     5
100
AcDbLine
 10
27761.89192378817
 20
17296.70677524015
 30
0.0
 11
27761.89192378817
 21
18596.71106419708
 31
0.0
  0
LINE
  5
215
330
22
100
AcDbEntity
  8
_0-4_ハッチ
  6
Continuous
 62
     5
100
AcDbLine
 10
27861.89225370793
 20
17296.70677524015
 30
0.0
 11
27861.89225370793
 21
18596.71106419708
 31
0.0
  0
LINE
  5
216
330
22
100
AcDbEntity
  8
_0-4_ハッチ
  6
Continuous
 62
     5
100
AcDbLine
 10
27961.89258362769
 20
17296.70677524015
 30
0.0
 11
27961.89258362769
 21
18596.71106419708
 31
0.0
  0
LINE
  5
217
330
22
100
AcDbEntity
  8
_0-4_ハッチ
  6
Continuous
 62
     5
100
AcDbLine
 10
28061.89291354746
 20
17296.70677524015
 30
0.0
 11
28061.89291354746
 21
18596.71106419708
 31
0.0
  0
LINE
  5
218
330
22
100
AcDbEntity
  8
_0-4_ハッチ
  6
Continuous
 62
     5
100
AcDbLine
 10
26749.22465446807
 20
17446.7072701198
 30
0.0
 11
28191.31631277677
 21
17446.7072701198
 31
0.0
  0
LINE
  5
219
330
22
100
AcDbEntity
  8
_0-4_ハッチ
  6
Continuous
 62
     5
100
AcDbLine
 10
26961.88928443006
 20
17078.35968975134
 30
0.0
 11
26961.88928443006
 21
18596.71106419708
 31
0.0
  0
LINE
  5
21A
330
22
100
AcDbEntity
  8
_0-4_ハッチ
  6
Continuous
 62
     5
100
AcDbLine
 10
26691.48952065262
 20
17546.70760003956
 30
0.0
 11
28191.31631277677
 21
17546.70760003956
 31
0.0
  0
LINE
  5
21B
330
22
100
AcDbEntity
  8
_0-4_ハッチ
  6
Continuous
 62
     5
100
AcDbLine
 10
26761.88862459053
 20
17424.77172984319
 30
0.0
 11
26761.88862459053
 21
18596.71106419708
 31
0.0
  0
LINE
  5
21C
330
22
100
AcDbEntity
  8
_0-4_ハッチ
  6
Continuous
 62
     5
100
AcDbLine
 10
26633.75438683716
 20
17646.70792995932
 30
0.0
 11
28191.31631277677
 21
17646.70792995932
 31
0.0
  0
LINE
  5
21D
330
22
100
AcDbEntity
  8
_0-4_ハッチ
  6
Continuous
 62
     5
100
AcDbLine
 10
26576.0192530217
 20
17746.70825987909
 30
0.0
 11
28191.31631277677
 21
17746.70825987909
 31
0.0
  0
LINE
  5
21E
330
22
100
AcDbEntity
  8
_0-4_ハッチ
  6
Continuous
 62
     5
100
AcDbLine
 10
26661.88829467077
 20
17597.97713128956
 30
0.0
 11
26661.88829467077
 21
18596.71106419708
 31
0.0
  0
LINE
  5
21F
330
22
100
AcDbEntity
  8
_0-4_ハッチ
  6
Continuous
 62
     5
100
AcDbLine
 10
26518.28164480802
 20
17846.70858979885
 30
0.0
 11
28191.31631277677
 21
17846.70858979885
 31
0.0
  0
LINE
  5
220
330
22
100
AcDbEntity
  8
_0-4_ハッチ
  6
Continuous
 62
     5
100
AcDbLine
 10
26460.54651099256
 20
17946.70891971861
 30
0.0
 11
28191.31631277677
 21
17946.70891971861
 31
0.0
  0
LINE
  5
221
330
22
100
AcDbEntity
  8
_0-4_ハッチ
  6
Continuous
 62
     5
100
AcDbLine
 10
26561.88796475101
 20
17771.18253273593
 30
0.0
 11
26561.88796475101
 21
18596.71106419708
 31
0.0
  0
LINE
  5
222
330
22
100
AcDbEntity
  8
_0-4_ハッチ
  6
Continuous
 62
     5
100
AcDbLine
 10
26402.81385157533
 20
18046.70924963837
 30
0.0
 11
28191.31631277677
 21
18046.70924963837
 31
0.0
  0
LINE
  5
223
330
22
100
AcDbEntity
  8
_0-4_ハッチ
  6
Continuous
 62
     5
100
AcDbLine
 10
26461.88763483125
 20
17944.3879341823
 30
0.0
 11
26461.88763483125
 21
18596.71106419708
 31
0.0
  0
LINE
  5
224
330
22
100
AcDbEntity
  8
_0-4_ハッチ
  6
Continuous
 62
     5
100
AcDbLine
 10
26345.07871775987
 20
18146.70957955814
 30
0.0
 11
28191.31631277677
 21
18146.70957955814
 31
0.0
  0
LINE
  5
225
330
22
100
AcDbEntity
  8
_0-4_ハッチ
  6
Continuous
 62
     5
100
AcDbLine
 10
26287.34110954618
 20
18246.7099094779
 30
0.0
 11
28191.31631277677
 21
18246.7099094779
 31
0.0
  0
LINE
  5
226
330
22
100
AcDbEntity
  8
_0-4_ハッチ
  6
Continuous
 62
     5
100
AcDbLine
 10
26361.88730491148
 20
18117.59333562866
 30
0.0
 11
26361.88730491148
 21
18596.71106419708
 31
0.0
  0
LINE
  5
227
330
22
100
AcDbEntity
  8
_0-4_ハッチ
  6
Continuous
 62
     5
100
AcDbLine
 10
26229.60597573074
 20
18346.71023939766
 30
0.0
 11
28191.31631277677
 21
18346.71023939766
 31
0.0
  0
LINE
  5
228
330
22
100
AcDbEntity
  8
_0-4_ハッチ
  6
Continuous
 62
     5
100
AcDbLine
 10
26171.87084191528
 20
18446.71056931743
 30
0.0
 11
28191.31631277677
 21
18446.71056931743
 31
0.0
  0
LINE
  5
229
330
22
100
AcDbEntity
  8
_0-4_ハッチ
  6
Continuous
 62
     5
100
AcDbLine
 10
26261.88697499172
 20
18396.71040435755
 30
0.0
 11
26261.88697499172
 21
18596.71106419708
 31
0.0
  0
LINE
  5
22A
330
22
100
AcDbEntity
  8
_0-4_ハッチ
  6
Continuous
 62
     5
100
AcDbLine
 10
26114.13570809983
 20
18546.71089923719
 30
0.0
 11
28191.31631277677
 21
18546.71089923719
 31
0.0
  0
LINE
  5
22B
330
22
100
AcDbEntity
  8
_0-4_ハッチ
  6
Continuous
 62
     5
100
AcDbLine
 10
26056.40057428437
 20
18646.71122915696
 30
0.0
 11
28191.31631277677
 21
18646.71122915696
 31
0.0
  0
LINE
  5
22C
330
22
100
AcDbEntity
  8
_0-4_ハッチ
  6
Continuous
 62
     5
100
AcDbLine
 10
26161.88911947018
 20
18464.00042692406
 30
0.0
 11
26161.88911947018
 21
19896.715353154
 31
0.0
  0
LINE
  5
22D
330
22
100
AcDbEntity
  8
_0-4_ハッチ
  6
Continuous
 62
     5
100
AcDbLine
 10
26361.8897793097
 20
18596.71106419708
 30
0.0
 11
26361.8897793097
 21
19896.715353154
 31
0.0
  0
LINE
  5
22E
330
22
100
AcDbEntity
  8
_0-4_ハッチ
  6
Continuous
 62
     5
100
AcDbLine
 10
26461.89010922948
 20
18596.71106419708
 30
0.0
 11
26461.89010922948
 21
19896.715353154
 31
0.0
  0
LINE
  5
22F
330
22
100
AcDbEntity
  8
_0-4_ハッチ
  6
Continuous
 62
     5
100
AcDbLine
 10
26561.89043914923
 20
18596.71106419708
 30
0.0
 11
26561.89043914923
 21
19896.715353154
 31
0.0
  0
LINE
  5
230
330
22
100
AcDbEntity
  8
_0-4_ハッチ
  6
Continuous
 62
     5
100
AcDbLine
 10
26661.890769069
 20
18596.71106419708
 30
0.0
 11
26661.890769069
 21
19896.715353154
 31
0.0
  0
LINE
  5
231
330
22
100
AcDbEntity
  8
_0-4_ハッチ
  6
Continuous
 62
     5
100
AcDbLine
 10
26761.89109898876
 20
18596.71106419708
 30
0.0
 11
26761.89109898876
 21
19896.715353154
 31
0.0
  0
LINE
  5
232
330
22
100
AcDbEntity
  8
_0-4_ハッチ
  6
Continuous
 62
     5
100
AcDbLine
 10
26861.89142890852
 20
18596.71106419708
 30
0.0
 11
26861.89142890852
 21
19896.715353154
 31
0.0
  0
LINE
  5
233
330
22
100
AcDbEntity
  8
_0-4_ハッチ
  6
Continuous
 62
     5
100
AcDbLine
 10
26961.89175882829
 20
18596.71106419708
 30
0.0
 11
26961.89175882829
 21
19896.715353154
 31
0.0
  0
LINE
  5
234
330
22
100
AcDbEntity
  8
_0-4_ハッチ
  6
Continuous
 62
     5
100
AcDbLine
 10
27061.89208874805
 20
18596.71106419708
 30
0.0
 11
27061.89208874805
 21
19896.715353154
 31
0.0
  0
LINE
  5
235
330
22
100
AcDbEntity
  8
_0-4_ハッチ
  6
Continuous
 62
     5
100
AcDbLine
 10
27161.89241866782
 20
18596.71106419708
 30
0.0
 11
27161.89241866782
 21
19896.715353154
 31
0.0
  0
LINE
  5
236
330
22
100
AcDbEntity
  8
_0-4_ハッチ
  6
Continuous
 62
     5
100
AcDbLine
 10
27261.89274858758
 20
18596.71106419708
 30
0.0
 11
27261.89274858758
 21
19896.715353154
 31
0.0
  0
LINE
  5
237
330
22
100
AcDbEntity
  8
_0-4_ハッチ
  6
Continuous
 62
     5
100
AcDbLine
 10
27361.89307850734
 20
18596.71106419708
 30
0.0
 11
27361.89307850734
 21
19896.715353154
 31
0.0
  0
LINE
  5
238
330
22
100
AcDbEntity
  8
_0-4_ハッチ
  6
Continuous
 62
     5
100
AcDbLine
 10
27461.89340842711
 20
18596.71106419708
 30
0.0
 11
27461.89340842711
 21
19896.715353154
 31
0.0
  0
LINE
  5
239
330
22
100
AcDbEntity
  8
_0-4_ハッチ
  6
Continuous
 62
     5
100
AcDbLine
 10
27561.89373834687
 20
18596.71106419708
 30
0.0
 11
27561.89373834687
 21
19896.715353154
 31
0.0
  0
LINE
  5
23A
330
22
100
AcDbEntity
  8
_0-4_ハッチ
  6
Continuous
 62
     5
100
AcDbLine
 10
27661.89406826664
 20
18596.71106419708
 30
0.0
 11
27661.89406826664
 21
19896.715353154
 31
0.0
  0
LINE
  5
23B
330
22
100
AcDbEntity
  8
_0-4_ハッチ
  6
Continuous
 62
     5
100
AcDbLine
 10
27761.89439818639
 20
18596.71106419708
 30
0.0
 11
27761.89439818639
 21
19896.715353154
 31
0.0
  0
LINE
  5
23C
330
22
100
AcDbEntity
  8
_0-4_ハッチ
  6
Continuous
 62
     5
100
AcDbLine
 10
27861.89472810616
 20
18596.71106419708
 30
0.0
 11
27861.89472810616
 21
19896.715353154
 31
0.0
  0
LINE
  5
23D
330
22
100
AcDbEntity
  8
_0-4_ハッチ
  6
Continuous
 62
     5
100
AcDbLine
 10
27961.89505802593
 20
18596.71106419708
 30
0.0
 11
27961.89505802593
 21
19896.715353154
 31
0.0
  0
LINE
  5
23E
330
22
100
AcDbEntity
  8
_0-4_ハッチ
  6
Continuous
 62
     5
100
AcDbLine
 10
28061.89538794569
 20
18596.71106419708
 30
0.0
 11
28061.89538794569
 21
19896.715353154
 31
0.0
  0
LINE
  5
23F
330
22
100
AcDbEntity
  8
_0-4_ハッチ
  6
Continuous
 62
     5
100
AcDbLine
 10
25998.66544046891
 20
18746.71155907672
 30
0.0
 11
28191.31631277677
 21
18746.71155907672
 31
0.0
  0
LINE
  5
240
330
22
100
AcDbEntity
  8
_0-4_ハッチ
  6
Continuous
 62
     5
100
AcDbLine
 10
26061.88878955042
 20
18637.20582837043
 30
0.0
 11
26061.88878955042
 21
19896.715353154
 31
0.0
  0
LINE
  5
241
330
22
100
AcDbEntity
  8
_0-4_ハッチ
  6
Continuous
 62
     5
100
AcDbLine
 10
26261.88944938994
 20
18290.79502547769
 30
0.0
 11
26261.88944938994
 21
19896.715353154
 31
0.0
  0
LINE
  5
242
330
22
100
AcDbEntity
  8
_0-4_ハッチ
  6
Continuous
 62
     5
100
AcDbLine
 10
25940.93030665346
 20
18846.71188899648
 30
0.0
 11
28191.31631277677
 21
18846.71188899648
 31
0.0
  0
LINE
  5
243
330
22
100
AcDbEntity
  8
_0-4_ハッチ
  6
Continuous
 62
     5
100
AcDbLine
 10
25883.195172838
 20
18946.71221891625
 30
0.0
 11
28191.31631277677
 21
18946.71221891625
 31
0.0
  0
LINE
  5
244
330
22
100
AcDbEntity
  8
_0-4_ハッチ
  6
Continuous
 62
     5
100
AcDbLine
 10
25961.88845963065
 20
18810.41246701591
 30
0.0
 11
25961.88845963065
 21
19896.715353154
 31
0.0
  0
LINE
  5
245
330
22
100
AcDbEntity
  8
_0-4_ハッチ
  6
Continuous
 62
     5
100
AcDbLine
 10
25825.46003902254
 20
19046.71254883601
 30
0.0
 11
28191.31631277677
 21
19046.71254883601
 31
0.0
  0
LINE
  5
246
330
22
100
AcDbEntity
  8
_0-4_ハッチ
  6
Continuous
 62
     5
100
AcDbLine
 10
25767.72490520709
 20
19146.71287875577
 30
0.0
 11
28191.31631277677
 21
19146.71287875577
 31
0.0
  0
LINE
  5
247
330
22
100
AcDbEntity
  8
_0-4_ハッチ
  6
Continuous
 62
     5
100
AcDbLine
 10
25861.88812971089
 20
18983.61786846228
 30
0.0
 11
25861.88812971089
 21
19896.715353154
 31
0.0
  0
LINE
  5
248
330
22
100
AcDbEntity
  8
_0-4_ハッチ
  6
Continuous
 62
     5
100
AcDbLine
 10
25709.98977139164
 20
19246.71320867554
 30
0.0
 11
28191.31631277677
 21
19246.71320867554
 31
0.0
  0
LINE
  5
249
330
22
100
AcDbEntity
  8
_0-4_ハッチ
  6
Continuous
 62
     5
100
AcDbLine
 10
25761.88779979112
 20
19156.82326990865
 30
0.0
 11
25761.88779979112
 21
19896.715353154
 31
0.0
  0
LINE
  5
24A
330
22
100
AcDbEntity
  8
_0-4_ハッチ
  6
Continuous
 62
     5
100
AcDbLine
 10
25652.25463757617
 20
19346.7135385953
 30
0.0
 11
28191.31631277677
 21
19346.7135385953
 31
0.0
  0
LINE
  5
24B
330
22
100
AcDbEntity
  8
_0-4_ハッチ
  6
Continuous
 62
     5
100
AcDbLine
 10
25594.51950376072
 20
19446.71386851507
 30
0.0
 11
28191.31631277677
 21
19446.71386851507
 31
0.0
  0
LINE
  5
24C
330
22
100
AcDbEntity
  8
_0-4_ハッチ
  6
Continuous
 62
     5
100
AcDbLine
 10
25661.88746987136
 20
19330.02867135502
 30
0.0
 11
25661.88746987136
 21
19896.715353154
 31
0.0
  0
LINE
  5
24D
330
22
100
AcDbEntity
  8
_0-4_ハッチ
  6
Continuous
 62
     5
100
AcDbLine
 10
25536.78436994526
 20
19546.71419843483
 30
0.0
 11
28191.31631277677
 21
19546.71419843483
 31
0.0
  0
LINE
  5
24E
330
22
100
AcDbEntity
  8
_0-4_ハッチ
  6
Continuous
 62
     5
100
AcDbLine
 10
25479.04923612981
 20
19646.7145283546
 30
0.0
 11
28191.31631277677
 21
19646.7145283546
 31
0.0
  0
LINE
  5
24F
330
22
100
AcDbEntity
  8
_0-4_ハッチ
  6
Continuous
 62
     5
100
AcDbLine
 10
25561.8871399516
 20
19596.71436339471
 30
0.0
 11
25561.8871399516
 21
19896.715353154
 31
0.0
  0
LINE
  5
250
330
22
100
AcDbEntity
  8
_0-4_ハッチ
  6
Continuous
 62
     5
100
AcDbLine
 10
25421.31410231435
 20
19746.71485827436
 30
0.0
 11
28191.31631277677
 21
19746.71485827436
 31
0.0
  0
LINE
  5
251
330
22
100
AcDbEntity
  8
_0-4_ハッチ
  6
Continuous
 62
     5
100
AcDbLine
 10
25363.57896849889
 20
19846.71518819412
 30
0.0
 11
28191.31631277677
 21
19846.71518819412
 31
0.0
  0
LINE
  5
252
330
22
100
AcDbEntity
  8
_0-4_ハッチ
  6
Continuous
 62
     5
100
AcDbLine
 10
25461.88681003184
 20
19796.71502323424
 30
0.0
 11
25461.88681003184
 21
19896.715353154
 31
0.0
  0
LINE
  5
253
330
22
100
AcDbEntity
  8
_0-4_ハッチ
  6
Continuous
 62
     5
100
AcDbLine
 10
25305.84383468344
 20
19946.71551811388
 30
0.0
 11
28191.31631277677
 21
19946.71551811388
 31
0.0
  0
LINE
  5
254
330
22
100
AcDbEntity
  8
_0-4_ハッチ
  6
Continuous
 62
     5
100
AcDbLine
 10
25361.8889545103
 20
19849.63992689767
 30
0.0
 11
25361.8889545103
 21
21196.71964211093
 31
0.0
  0
LINE
  5
255
330
22
100
AcDbEntity
  8
_0-4_ハッチ
  6
Continuous
 62
     5
100
AcDbLine
 10
25461.88928443006
 20
19676.43699984952
 30
0.0
 11
25461.88928443006
 21
21196.71964211093
 31
0.0
  0
LINE
  5
256
330
22
100
AcDbEntity
  8
_0-4_ハッチ
  6
Continuous
 62
     5
100
AcDbLine
 10
25661.88994426959
 20
19896.715353154
 30
0.0
 11
25661.88994426959
 21
21196.71964211093
 31
0.0
  0
LINE
  5
257
330
22
100
AcDbEntity
  8
_0-4_ハッチ
  6
Continuous
 62
     5
100
AcDbLine
 10
25761.89027418935
 20
19896.715353154
 30
0.0
 11
25761.89027418935
 21
21196.71964211093
 31
0.0
  0
LINE
  5
258
330
22
100
AcDbEntity
  8
_0-4_ハッチ
  6
Continuous
 62
     5
100
AcDbLine
 10
25861.89060410912
 20
19896.715353154
 30
0.0
 11
25861.89060410912
 21
21196.71964211093
 31
0.0
  0
LINE
  5
259
330
22
100
AcDbEntity
  8
_0-4_ハッチ
  6
Continuous
 62
     5
100
AcDbLine
 10
25961.89093402888
 20
19896.715353154
 30
0.0
 11
25961.89093402888
 21
21196.71964211093
 31
0.0
  0
LINE
  5
25A
330
22
100
AcDbEntity
  8
_0-4_ハッチ
  6
Continuous
 62
     5
100
AcDbLine
 10
26061.89126394864
 20
19896.715353154
 30
0.0
 11
26061.89126394864
 21
21196.71964211093
 31
0.0
  0
LINE
  5
25B
330
22
100
AcDbEntity
  8
_0-4_ハッチ
  6
Continuous
 62
     5
100
AcDbLine
 10
26161.8915938684
 20
19896.715353154
 30
0.0
 11
26161.8915938684
 21
21196.71964211093
 31
0.0
  0
LINE
  5
25C
330
22
100
AcDbEntity
  8
_0-4_ハッチ
  6
Continuous
 62
     5
100
AcDbLine
 10
26261.89192378817
 20
19896.715353154
 30
0.0
 11
26261.89192378817
 21
21196.71964211093
 31
0.0
  0
LINE
  5
25D
330
22
100
AcDbEntity
  8
_0-4_ハッチ
  6
Continuous
 62
     5
100
AcDbLine
 10
26361.89225370793
 20
19896.715353154
 30
0.0
 11
26361.89225370793
 21
21196.71964211093
 31
0.0
  0
LINE
  5
25E
330
22
100
AcDbEntity
  8
_0-4_ハッチ
  6
Continuous
 62
     5
100
AcDbLine
 10
26461.89258362769
 20
19896.715353154
 30
0.0
 11
26461.89258362769
 21
21196.71964211093
 31
0.0
  0
LINE
  5
25F
330
22
100
AcDbEntity
  8
_0-4_ハッチ
  6
Continuous
 62
     5
100
AcDbLine
 10
26561.89291354746
 20
19896.715353154
 30
0.0
 11
26561.89291354746
 21
21196.71964211093
 31
0.0
  0
LINE
  5
260
330
22
100
AcDbEntity
  8
_0-4_ハッチ
  6
Continuous
 62
     5
100
AcDbLine
 10
26661.89324346722
 20
19896.715353154
 30
0.0
 11
26661.89324346722
 21
21196.71964211093
 31
0.0
  0
LINE
  5
261
330
22
100
AcDbEntity
  8
_0-4_ハッチ
  6
Continuous
 62
     5
100
AcDbLine
 10
26761.89357338699
 20
19896.715353154
 30
0.0
 11
26761.89357338699
 21
21196.71964211093
 31
0.0
  0
LINE
  5
262
330
22
100
AcDbEntity
  8
_0-4_ハッチ
  6
Continuous
 62
     5
100
AcDbLine
 10
26861.89390330675
 20
19896.715353154
 30
0.0
 11
26861.89390330675
 21
21196.71964211093
 31
0.0
  0
LINE
  5
263
330
22
100
AcDbEntity
  8
_0-4_ハッチ
  6
Continuous
 62
     5
100
AcDbLine
 10
26961.89423322651
 20
19896.715353154
 30
0.0
 11
26961.89423322651
 21
21196.71964211093
 31
0.0
  0
LINE
  5
264
330
22
100
AcDbEntity
  8
_0-4_ハッチ
  6
Continuous
 62
     5
100
AcDbLine
 10
27061.89456314628
 20
19896.715353154
 30
0.0
 11
27061.89456314628
 21
21196.71964211093
 31
0.0
  0
LINE
  5
265
330
22
100
AcDbEntity
  8
_0-4_ハッチ
  6
Continuous
 62
     5
100
AcDbLine
 10
27161.89489306604
 20
19896.715353154
 30
0.0
 11
27161.89489306604
 21
21196.71964211093
 31
0.0
  0
LINE
  5
266
330
22
100
AcDbEntity
  8
_0-4_ハッチ
  6
Continuous
 62
     5
100
AcDbLine
 10
27261.89522298581
 20
19896.715353154
 30
0.0
 11
27261.89522298581
 21
21196.71964211093
 31
0.0
  0
LINE
  5
267
330
22
100
AcDbEntity
  8
_0-4_ハッチ
  6
Continuous
 62
     5
100
AcDbLine
 10
27361.89555290557
 20
19896.715353154
 30
0.0
 11
27361.89555290557
 21
21196.71964211093
 31
0.0
  0
LINE
  5
268
330
22
100
AcDbEntity
  8
_0-4_ハッチ
  6
Continuous
 62
     5
100
AcDbLine
 10
27461.89588282533
 20
19896.715353154
 30
0.0
 11
27461.89588282533
 21
21196.71964211093
 31
0.0
  0
LINE
  5
269
330
22
100
AcDbEntity
  8
_0-4_ハッチ
  6
Continuous
 62
     5
100
AcDbLine
 10
27561.8962127451
 20
19896.715353154
 30
0.0
 11
27561.8962127451
 21
21196.71964211093
 31
0.0
  0
LINE
  5
26A
330
22
100
AcDbEntity
  8
_0-4_ハッチ
  6
Continuous
 62
     5
100
AcDbLine
 10
27661.89654266486
 20
19896.715353154
 30
0.0
 11
27661.89654266486
 21
21196.71964211093
 31
0.0
  0
LINE
  5
26B
330
22
100
AcDbEntity
  8
_0-4_ハッチ
  6
Continuous
 62
     5
100
AcDbLine
 10
27761.89687258463
 20
19896.715353154
 30
0.0
 11
27761.89687258463
 21
21196.71964211093
 31
0.0
  0
LINE
  5
26C
330
22
100
AcDbEntity
  8
_0-4_ハッチ
  6
Continuous
 62
     5
100
AcDbLine
 10
27861.89720250439
 20
19896.715353154
 30
0.0
 11
27861.89720250439
 21
21196.71964211093
 31
0.0
  0
LINE
  5
26D
330
22
100
AcDbEntity
  8
_0-4_ハッチ
  6
Continuous
 62
     5
100
AcDbLine
 10
27961.89753242415
 20
19896.715353154
 30
0.0
 11
27961.89753242415
 21
21196.71964211093
 31
0.0
  0
LINE
  5
26E
330
22
100
AcDbEntity
  8
_0-4_ハッチ
  6
Continuous
 62
     5
100
AcDbLine
 10
28061.89786234392
 20
19896.715353154
 30
0.0
 11
28061.89786234392
 21
21196.71964211093
 31
0.0
  0
LINE
  5
26F
330
22
100
AcDbEntity
  8
_0-4_ハッチ
  6
Continuous
 62
     5
100
AcDbLine
 10
25248.10870086798
 20
20046.71584803365
 30
0.0
 11
28191.31631277677
 21
20046.71584803365
 31
0.0
  0
LINE
  5
270
330
22
100
AcDbEntity
  8
_0-4_ハッチ
  6
Continuous
 62
     5
100
AcDbLine
 10
25561.88961434983
 20
19503.23036120404
 30
0.0
 11
25561.88961434983
 21
21196.71964211093
 31
0.0
  0
LINE
  5
271
330
22
100
AcDbEntity
  8
_0-4_ハッチ
  6
Continuous
 62
     5
100
AcDbLine
 10
25190.37356705253
 20
20146.71617795341
 30
0.0
 11
28191.31631277677
 21
20146.71617795341
 31
0.0
  0
LINE
  5
272
330
22
100
AcDbEntity
  8
_0-4_ハッチ
  6
Continuous
 62
     5
100
AcDbLine
 10
25261.88862459053
 20
20022.84780274226
 30
0.0
 11
25261.88862459053
 21
21196.71964211093
 31
0.0
  0
LINE
  5
273
330
22
100
AcDbEntity
  8
_0-4_ハッチ
  6
Continuous
 62
     5
100
AcDbLine
 10
25132.63843323708
 20
20246.71650787317
 30
0.0
 11
28191.31631277677
 21
20246.71650787317
 31
0.0
  0
LINE
  5
274
330
22
100
AcDbEntity
  8
_0-4_ハッチ
  6
Continuous
 62
     5
100
AcDbLine
 10
25074.90329942162
 20
20346.71683779294
 30
0.0
 11
28191.31631277677
 21
20346.71683779294
 31
0.0
  0
LINE
  5
275
330
22
100
AcDbEntity
  8
_0-4_ハッチ
  6
Continuous
 62
     5
100
AcDbLine
 10
25161.88829467077
 20
20196.05691578597
 30
0.0
 11
25161.88829467077
 21
21196.71964211093
 31
0.0
  0
LINE
  5
276
330
22
100
AcDbEntity
  8
_0-4_ハッチ
  6
Continuous
 62
     5
100
AcDbLine
 10
25017.16816560616
 20
20446.7171677127
 30
0.0
 11
28191.31631277677
 21
20446.7171677127
 31
0.0
  0
LINE
  5
277
330
22
100
AcDbEntity
  8
_0-4_ハッチ
  6
Continuous
 62
     5
100
AcDbLine
 10
24959.4330317907
 20
20546.71749763246
 30
0.0
 11
28191.31631277677
 21
20546.71749763246
 31
0.0
  0
LINE
  5
278
330
22
100
AcDbEntity
  8
_0-4_ハッチ
  6
Continuous
 62
     5
100
AcDbLine
 10
25061.88796475101
 20
20369.258605635
 30
0.0
 11
25061.88796475101
 21
21196.71964211093
 31
0.0
  0
LINE
  5
279
330
22
100
AcDbEntity
  8
_0-4_ハッチ
  6
Continuous
 62
     5
100
AcDbLine
 10
24901.69789797525
 20
20646.71782755223
 30
0.0
 11
28191.31631277677
 21
20646.71782755223
 31
0.0
  0
LINE
  5
27A
330
22
100
AcDbEntity
  8
_0-4_ハッチ
  6
Continuous
 62
     5
100
AcDbLine
 10
24961.88763483124
 20
20542.46400708136
 30
0.0
 11
24961.88763483124
 21
21196.71964211093
 31
0.0
  0
LINE
  5
27B
330
22
100
AcDbEntity
  8
_0-4_ハッチ
  6
Continuous
 62
     5
100
AcDbLine
 10
24843.96028976157
 20
20746.71815747199
 30
0.0
 11
28191.31631277677
 21
20746.71815747199
 31
0.0
  0
LINE
  5
27C
330
22
100
AcDbEntity
  8
_0-4_ハッチ
  6
Continuous
 62
     5
100
AcDbLine
 10
24786.22763034433
 20
20846.71848739176
 30
0.0
 11
28191.31631277677
 21
20846.71848739176
 31
0.0
  0
LINE
  5
27D
330
22
100
AcDbEntity
  8
_0-4_ハッチ
  6
Continuous
 62
     5
100
AcDbLine
 10
24861.88730491148
 20
20796.71832243188
 30
0.0
 11
24861.88730491148
 21
21196.71964211093
 31
0.0
  0
LINE
  5
27E
330
22
100
AcDbEntity
  8
_0-4_ハッチ
  6
Continuous
 62
     5
100
AcDbLine
 10
24728.49249652888
 20
20946.71881731152
 30
0.0
 11
28191.31631277677
 21
20946.71881731152
 31
0.0
  0
LINE
  5
27F
330
22
100
AcDbEntity
  8
_0-4_ハッチ
  6
Continuous
 62
     5
100
AcDbLine
 10
24670.75736271342
 20
21046.71914723128
 30
0.0
 11
28191.31631277677
 21
21046.71914723128
 31
0.0
  0
LINE
  5
280
330
22
100
AcDbEntity
  8
_0-4_ハッチ
  6
Continuous
 62
     5
100
AcDbLine
 10
24761.88697499172
 20
20996.7189822714
 30
0.0
 11
24761.88697499172
 21
21196.71964211093
 31
0.0
  0
LINE
  5
281
330
22
100
AcDbEntity
  8
_0-4_ハッチ
  6
Continuous
 62
     5
100
AcDbLine
 10
24613.02222889797
 20
21146.71947715105
 30
0.0
 11
28191.31631277677
 21
21146.71947715105
 31
0.0
  0
LINE
  5
282
330
22
100
AcDbEntity
  8
_0-4_ハッチ
  6
Continuous
 62
     5
100
AcDbLine
 10
24555.28709508251
 20
21246.71980707081
 30
0.0
 11
28191.31631277677
 21
21246.71980707081
 31
0.0
  0
LINE
  5
283
330
22
100
AcDbEntity
  8
_0-4_ハッチ
  6
Continuous
 62
     5
100
AcDbLine
 10
24661.88911947018
 20
21062.07649982313
 30
0.0
 11
24661.88911947018
 21
22496.72393106785
 31
0.0
  0
LINE
  5
284
330
22
100
AcDbEntity
  8
_0-4_ハッチ
  6
Continuous
 62
     5
100
AcDbLine
 10
24761.88944938994
 20
20888.87109837677
 30
0.0
 11
24761.88944938994
 21
22496.72393106785
 31
0.0
  0
LINE
  5
285
330
22
100
AcDbEntity
  8
_0-4_ハッチ
  6
Continuous
 62
     5
100
AcDbLine
 10
24961.89010922948
 20
21196.71964211093
 30
0.0
 11
24961.89010922948
 21
22496.72393106785
 31
0.0
  0
LINE
  5
286
330
22
100
AcDbEntity
  8
_0-4_ハッチ
  6
Continuous
 62
     5
100
AcDbLine
 10
25061.89043914923
 20
21196.71964211093
 30
0.0
 11
25061.89043914923
 21
22496.72393106785
 31
0.0
  0
LINE
  5
287
330
22
100
AcDbEntity
  8
_0-4_ハッチ
  6
Continuous
 62
     5
100
AcDbLine
 10
25161.890769069
 20
21196.71964211093
 30
0.0
 11
25161.890769069
 21
22496.72393106785
 31
0.0
  0
LINE
  5
288
330
22
100
AcDbEntity
  8
_0-4_ハッチ
  6
Continuous
 62
     5
100
AcDbLine
 10
25261.89109898876
 20
21196.71964211093
 30
0.0
 11
25261.89109898876
 21
22496.72393106785
 31
0.0
  0
LINE
  5
289
330
22
100
AcDbEntity
  8
_0-4_ハッチ
  6
Continuous
 62
     5
100
AcDbLine
 10
25361.89142890852
 20
21196.71964211093
 30
0.0
 11
25361.89142890852
 21
22496.72393106785
 31
0.0
  0
LINE
  5
28A
330
22
100
AcDbEntity
  8
_0-4_ハッチ
  6
Continuous
 62
     5
100
AcDbLine
 10
25461.89175882829
 20
21196.71964211093
 30
0.0
 11
25461.89175882829
 21
22496.72393106785
 31
0.0
  0
LINE
  5
28B
330
22
100
AcDbEntity
  8
_0-4_ハッチ
  6
Continuous
 62
     5
100
AcDbLine
 10
25561.89208874805
 20
21196.71964211093
 30
0.0
 11
25561.89208874805
 21
22496.72393106785
 31
0.0
  0
LINE
  5
28C
330
22
100
AcDbEntity
  8
_0-4_ハッチ
  6
Continuous
 62
     5
100
AcDbLine
 10
25661.89241866782
 20
21196.71964211093
 30
0.0
 11
25661.89241866782
 21
22496.72393106785
 31
0.0
  0
LINE
  5
28D
330
22
100
AcDbEntity
  8
_0-4_ハッチ
  6
Continuous
 62
     5
100
AcDbLine
 10
25761.89274858758
 20
21196.71964211093
 30
0.0
 11
25761.89274858758
 21
22496.72393106785
 31
0.0
  0
LINE
  5
28E
330
22
100
AcDbEntity
  8
_0-4_ハッチ
  6
Continuous
 62
     5
100
AcDbLine
 10
25861.89307850734
 20
21196.71964211093
 30
0.0
 11
25861.89307850734
 21
22496.72393106785
 31
0.0
  0
LINE
  5
28F
330
22
100
AcDbEntity
  8
_0-4_ハッチ
  6
Continuous
 62
     5
100
AcDbLine
 10
25961.89340842711
 20
21196.71964211093
 30
0.0
 11
25961.89340842711
 21
22496.72393106785
 31
0.0
  0
LINE
  5
290
330
22
100
AcDbEntity
  8
_0-4_ハッチ
  6
Continuous
 62
     5
100
AcDbLine
 10
26061.89373834687
 20
21196.71964211093
 30
0.0
 11
26061.89373834687
 21
22496.72393106785
 31
0.0
  0
LINE
  5
291
330
22
100
AcDbEntity
  8
_0-4_ハッチ
  6
Continuous
 62
     5
100
AcDbLine
 10
26161.89406826664
 20
21196.71964211093
 30
0.0
 11
26161.89406826664
 21
22496.72393106785
 31
0.0
  0
LINE
  5
292
330
22
100
AcDbEntity
  8
_0-4_ハッチ
  6
Continuous
 62
     5
100
AcDbLine
 10
26261.89439818639
 20
21196.71964211093
 30
0.0
 11
26261.89439818639
 21
22496.72393106785
 31
0.0
  0
LINE
  5
293
330
22
100
AcDbEntity
  8
_0-4_ハッチ
  6
Continuous
 62
     5
100
AcDbLine
 10
26361.89472810616
 20
21196.71964211093
 30
0.0
 11
26361.89472810616
 21
22496.72393106785
 31
0.0
  0
LINE
  5
294
330
22
100
AcDbEntity
  8
_0-4_ハッチ
  6
Continuous
 62
     5
100
AcDbLine
 10
26461.89505802593
 20
21196.71964211093
 30
0.0
 11
26461.89505802593
 21
22496.72393106785
 31
0.0
  0
LINE
  5
295
330
22
100
AcDbEntity
  8
_0-4_ハッチ
  6
Continuous
 62
     5
100
AcDbLine
 10
26561.89538794569
 20
21196.71964211093
 30
0.0
 11
26561.89538794569
 21
22496.72393106785
 31
0.0
  0
LINE
  5
296
330
22
100
AcDbEntity
  8
_0-4_ハッチ
  6
Continuous
 62
     5
100
AcDbLine
 10
26661.89571786545
 20
21196.71964211093
 30
0.0
 11
26661.89571786545
 21
22496.72393106785
 31
0.0
  0
LINE
  5
297
330
22
100
AcDbEntity
  8
_0-4_ハッチ
  6
Continuous
 62
     5
100
AcDbLine
 10
26761.89604778521
 20
21196.71964211093
 30
0.0
 11
26761.89604778521
 21
22496.72393106785
 31
0.0
  0
LINE
  5
298
330
22
100
AcDbEntity
  8
_0-4_ハッチ
  6
Continuous
 62
     5
100
AcDbLine
 10
26861.89637770498
 20
21196.71964211093
 30
0.0
 11
26861.89637770498
 21
22496.72393106785
 31
0.0
  0
LINE
  5
299
330
22
100
AcDbEntity
  8
_0-4_ハッチ
  6
Continuous
 62
     5
100
AcDbLine
 10
26961.89670762475
 20
21196.71964211093
 30
0.0
 11
26961.89670762475
 21
22496.72393106785
 31
0.0
  0
LINE
  5
29A
330
22
100
AcDbEntity
  8
_0-4_ハッチ
  6
Continuous
 62
     5
100
AcDbLine
 10
27061.8970375445
 20
21196.71964211093
 30
0.0
 11
27061.8970375445
 21
22496.72393106785
 31
0.0
  0
LINE
  5
29B
330
22
100
AcDbEntity
  8
_0-4_ハッチ
  6
Continuous
 62
     5
100
AcDbLine
 10
27161.89736746427
 20
21196.71964211093
 30
0.0
 11
27161.89736746427
 21
22496.72393106785
 31
0.0
  0
LINE
  5
29C
330
22
100
AcDbEntity
  8
_0-4_ハッチ
  6
Continuous
 62
     5
100
AcDbLine
 10
27261.89769738403
 20
21196.71964211093
 30
0.0
 11
27261.89769738403
 21
22496.72393106785
 31
0.0
  0
LINE
  5
29D
330
22
100
AcDbEntity
  8
_0-4_ハッチ
  6
Continuous
 62
     5
100
AcDbLine
 10
27361.8980273038
 20
21196.71964211093
 30
0.0
 11
27361.8980273038
 21
22496.72393106785
 31
0.0
  0
LINE
  5
29E
330
22
100
AcDbEntity
  8
_0-4_ハッチ
  6
Continuous
 62
     5
100
AcDbLine
 10
27461.89835722356
 20
21196.71964211093
 30
0.0
 11
27461.89835722356
 21
22496.72393106785
 31
0.0
  0
LINE
  5
29F
330
22
100
AcDbEntity
  8
_0-4_ハッチ
  6
Continuous
 62
     5
100
AcDbLine
 10
27561.89868714333
 20
21196.71964211093
 30
0.0
 11
27561.89868714333
 21
22496.72393106785
 31
0.0
  0
LINE
  5
2A0
330
22
100
AcDbEntity
  8
_0-4_ハッチ
  6
Continuous
 62
     5
100
AcDbLine
 10
27661.89901706308
 20
21196.71964211093
 30
0.0
 11
27661.89901706308
 21
22496.72393106785
 31
0.0
  0
LINE
  5
2A1
330
22
100
AcDbEntity
  8
_0-4_ハッチ
  6
Continuous
 62
     5
100
AcDbLine
 10
27761.89934698285
 20
21196.71964211093
 30
0.0
 11
27761.89934698285
 21
22496.72393106785
 31
0.0
  0
LINE
  5
2A2
330
22
100
AcDbEntity
  8
_0-4_ハッチ
  6
Continuous
 62
     5
100
AcDbLine
 10
27861.89967690261
 20
21196.71964211093
 30
0.0
 11
27861.89967690261
 21
22496.72393106785
 31
0.0
  0
LINE
  5
2A3
330
22
100
AcDbEntity
  8
_0-4_ハッチ
  6
Continuous
 62
     5
100
AcDbLine
 10
27961.90000682237
 20
21196.71964211093
 30
0.0
 11
27961.90000682237
 21
22496.72393106785
 31
0.0
  0
LINE
  5
2A4
330
22
100
AcDbEntity
  8
_0-4_ハッチ
  6
Continuous
 62
     5
100
AcDbLine
 10
28061.90033674214
 20
21196.71964211093
 30
0.0
 11
28061.90033674214
 21
22496.72393106785
 31
0.0
  0
LINE
  5
2A5
330
22
100
AcDbEntity
  8
_0-4_ハッチ
  6
Continuous
 62
     5
100
AcDbLine
 10
24497.55196126705
 20
21346.72013699057
 30
0.0
 11
28191.31631277677
 21
21346.72013699057
 31
0.0
  0
LINE
  5
2A6
330
22
100
AcDbEntity
  8
_0-4_ハッチ
  6
Continuous
 62
     5
100
AcDbLine
 10
24561.88878955042
 20
21235.2819012695
 30
0.0
 11
24561.88878955042
 21
22496.72393106785
 31
0.0
  0
LINE
  5
2A7
330
22
100
AcDbEntity
  8
_0-4_ハッチ
  6
Continuous
 62
     5
100
AcDbLine
 10
24861.8897793097
 20
20715.6656969304
 30
0.0
 11
24861.8897793097
 21
22496.72393106785
 31
0.0
  0
LINE
  5
2A8
330
22
100
AcDbEntity
  8
_0-4_ハッチ
  6
Continuous
 62
     5
100
AcDbLine
 10
24439.81435305337
 20
21446.72046691034
 30
0.0
 11
28191.31631277677
 21
21446.72046691034
 31
0.0
  0
LINE
  5
2A9
330
22
100
AcDbEntity
  8
_0-4_ハッチ
  6
Continuous
 62
     5
100
AcDbLine
 10
24382.07921923792
 20
21546.7207968301
 30
0.0
 11
28191.31631277677
 21
21546.7207968301
 31
0.0
  0
LINE
  5
2AA
330
22
100
AcDbEntity
  8
_0-4_ハッチ
  6
Continuous
 62
     5
100
AcDbLine
 10
24461.88845963065
 20
21408.48853991498
 30
0.0
 11
24461.88845963065
 21
22496.72393106785
 31
0.0
  0
LINE
  5
2AB
330
22
100
AcDbEntity
  8
_0-4_ハッチ
  6
Continuous
 62
     5
100
AcDbLine
 10
24324.34408542246
 20
21646.72112674987
 30
0.0
 11
28191.31631277677
 21
21646.72112674987
 31
0.0
  0
LINE
  5
2AC
330
22
100
AcDbEntity
  8
_0-4_ハッチ
  6
Continuous
 62
     5
100
AcDbLine
 10
24266.608951607
 20
21746.72145666963
 30
0.0
 11
28191.31631277677
 21
21746.72145666963
 31
0.0
  0
LINE
  5
2AD
330
22
100
AcDbEntity
  8
_0-4_ハッチ
  6
Continuous
 62
     5
100
AcDbLine
 10
24361.88812971089
 20
21581.69394136135
 30
0.0
 11
24361.88812971089
 21
22496.72393106785
 31
0.0
  0
LINE
  5
2AE
330
22
100
AcDbEntity
  8
_0-4_ハッチ
  6
Continuous
 62
     5
100
AcDbLine
 10
24208.87381779155
 20
21846.7217865894
 30
0.0
 11
28191.31631277677
 21
21846.7217865894
 31
0.0
  0
LINE
  5
2AF
330
22
100
AcDbEntity
  8
_0-4_ハッチ
  6
Continuous
 62
     5
100
AcDbLine
 10
24261.88779979112
 20
21754.89934280772
 30
0.0
 11
24261.88779979112
 21
22496.72393106785
 31
0.0
  0
LINE
  5
2B0
330
22
100
AcDbEntity
  8
_0-4_ハッチ
  6
Continuous
 62
     5
100
AcDbLine
 10
24151.13868397609
 20
21946.72211650916
 30
0.0
 11
28191.31631277677
 21
21946.72211650916
 31
0.0
  0
LINE
  5
2B1
330
22
100
AcDbEntity
  8
_0-4_ハッチ
  6
Continuous
 62
     5
100
AcDbLine
 10
24093.40355016063
 20
22046.72244642892
 30
0.0
 11
28191.31631277677
 21
22046.72244642892
 31
0.0
  0
LINE
  5
2B2
330
22
100
AcDbEntity
  8
_0-4_ハッチ
  6
Continuous
 62
     5
100
AcDbLine
 10
24161.88746987137
 20
21996.72228146904
 30
0.0
 11
24161.88746987137
 21
22496.72393106785
 31
0.0
  0
LINE
  5
2B3
330
22
100
AcDbEntity
  8
_0-4_ハッチ
  6
Continuous
 62
     5
100
AcDbLine
 10
24035.66841634518
 20
22146.72277634868
 30
0.0
 11
28191.31631277677
 21
22146.72277634868
 31
0.0
  0
LINE
  5
2B4
330
22
100
AcDbEntity
  8
_0-4_ハッチ
  6
Continuous
 62
     5
100
AcDbLine
 10
23977.93328252972
 20
22246.72310626845
 30
0.0
 11
28191.31631277677
 21
22246.72310626845
 31
0.0
  0
LINE
  5
2B5
330
22
100
AcDbEntity
  8
_0-4_ハッチ
  6
Continuous
 62
     5
100
AcDbLine
 10
24061.8871399516
 20
22196.72294130857
 30
0.0
 11
24061.8871399516
 21
22496.72393106785
 31
0.0
  0
LINE
  5
2B6
330
22
100
AcDbEntity
  8
_0-4_ハッチ
  6
Continuous
 62
     5
100
AcDbLine
 10
23920.19814871427
 20
22346.72343618821
 30
0.0
 11
28191.31631277677
 21
22346.72343618821
 31
0.0
  0
LINE
  5
2B7
330
22
100
AcDbEntity
  8
_0-4_ハッチ
  6
Continuous
 62
     5
100
AcDbLine
 10
23862.46301489881
 20
22446.72129170975
 30
0.0
 11
28191.31631277677
 21
22446.72129170975
 31
0.0
  0
LINE
  5
2B8
330
22
100
AcDbEntity
  8
_0-4_ハッチ
  6
Continuous
 62
     5
100
AcDbLine
 10
23961.88681003184
 20
22396.72360114809
 30
0.0
 11
23961.88681003184
 21
22496.72393106785
 31
0.0
  0
LINE
  5
2B9
330
22
100
AcDbEntity
  8
_0-4_ハッチ
  6
Continuous
 62
     5
100
AcDbLine
 10
23804.72788108335
 20
22546.72162162951
 30
0.0
 11
28191.31631277677
 21
22546.72162162951
 31
0.0
  0
LINE
  5
2BA
330
22
100
AcDbEntity
  8
_0-4_ハッチ
  6
Continuous
 62
     5
100
AcDbLine
 10
23861.8889545103
 20
22447.71599979674
 30
0.0
 11
23861.8889545103
 21
23518.92753115232
 31
0.0
  0
LINE
  5
2BB
330
22
100
AcDbEntity
  8
_0-4_ハッチ
  6
Continuous
 62
     5
100
AcDbLine
 10
24061.88961434983
 20
22101.30767130223
 30
0.0
 11
24061.88961434983
 21
23518.92753115232
 31
0.0
  0
LINE
  5
2BC
330
22
100
AcDbEntity
  8
_0-4_ハッチ
  6
Continuous
 62
     5
100
AcDbLine
 10
24161.88994426959
 20
21928.09979545764
 30
0.0
 11
24161.88994426959
 21
23518.92753115232
 31
0.0
  0
LINE
  5
2BD
330
22
100
AcDbEntity
  8
_0-4_ハッチ
  6
Continuous
 62
     5
100
AcDbLine
 10
24261.89027418935
 20
22496.72393106785
 30
0.0
 11
24261.89027418935
 21
23518.92753115232
 31
0.0
  0
LINE
  5
2BE
330
22
100
AcDbEntity
  8
_0-4_ハッチ
  6
Continuous
 62
     5
100
AcDbLine
 10
24361.89060410911
 20
22496.72393106785
 30
0.0
 11
24361.89060410911
 21
23518.92753115232
 31
0.0
  0
LINE
  5
2BF
330
22
100
AcDbEntity
  8
_0-4_ハッチ
  6
Continuous
 62
     5
100
AcDbLine
 10
24461.89093402888
 20
22496.72393106785
 30
0.0
 11
24461.89093402888
 21
23518.92753115232
 31
0.0
  0
LINE
  5
2C0
330
22
100
AcDbEntity
  8
_0-4_ハッチ
  6
Continuous
 62
     5
100
AcDbLine
 10
24561.89126394864
 20
22496.72393106785
 30
0.0
 11
24561.89126394864
 21
23518.92753115232
 31
0.0
  0
LINE
  5
2C1
330
22
100
AcDbEntity
  8
_0-4_ハッチ
  6
Continuous
 62
     5
100
AcDbLine
 10
24661.89159386841
 20
22496.72393106785
 30
0.0
 11
24661.89159386841
 21
23518.92753115232
 31
0.0
  0
LINE
  5
2C2
330
22
100
AcDbEntity
  8
_0-4_ハッチ
  6
Continuous
 62
     5
100
AcDbLine
 10
24761.89192378817
 20
22496.72393106785
 30
0.0
 11
24761.89192378817
 21
23518.92753115232
 31
0.0
  0
LINE
  5
2C3
330
22
100
AcDbEntity
  8
_0-4_ハッチ
  6
Continuous
 62
     5
100
AcDbLine
 10
24861.89225370793
 20
22496.72393106785
 30
0.0
 11
24861.89225370793
 21
23518.92753115232
 31
0.0
  0
LINE
  5
2C4
330
22
100
AcDbEntity
  8
_0-4_ハッチ
  6
Continuous
 62
     5
100
AcDbLine
 10
24961.8925836277
 20
22496.72393106785
 30
0.0
 11
24961.8925836277
 21
23518.92753115232
 31
0.0
  0
LINE
  5
2C5
330
22
100
AcDbEntity
  8
_0-4_ハッチ
  6
Continuous
 62
     5
100
AcDbLine
 10
25061.89291354746
 20
22496.72393106785
 30
0.0
 11
25061.89291354746
 21
23518.92753115232
 31
0.0
  0
LINE
  5
2C6
330
22
100
AcDbEntity
  8
_0-4_ハッチ
  6
Continuous
 62
     5
100
AcDbLine
 10
25161.89324346722
 20
22496.72393106785
 30
0.0
 11
25161.89324346722
 21
23518.92753115232
 31
0.0
  0
LINE
  5
2C7
330
22
100
AcDbEntity
  8
_0-4_ハッチ
  6
Continuous
 62
     5
100
AcDbLine
 10
25261.89357338699
 20
22496.72393106785
 30
0.0
 11
25261.89357338699
 21
23518.92753115232
 31
0.0
  0
LINE
  5
2C8
330
22
100
AcDbEntity
  8
_0-4_ハッチ
  6
Continuous
 62
     5
100
AcDbLine
 10
25361.89390330675
 20
22496.72393106785
 30
0.0
 11
25361.89390330675
 21
23518.92753115232
 31
0.0
  0
LINE
  5
2C9
330
22
100
AcDbEntity
  8
_0-4_ハッチ
  6
Continuous
 62
     5
100
AcDbLine
 10
25461.89423322652
 20
22496.72393106785
 30
0.0
 11
25461.89423322652
 21
23518.92753115232
 31
0.0
  0
LINE
  5
2CA
330
22
100
AcDbEntity
  8
_0-4_ハッチ
  6
Continuous
 62
     5
100
AcDbLine
 10
25561.89456314628
 20
22496.72393106785
 30
0.0
 11
25561.89456314628
 21
23518.92753115232
 31
0.0
  0
LINE
  5
2CB
330
22
100
AcDbEntity
  8
_0-4_ハッチ
  6
Continuous
 62
     5
100
AcDbLine
 10
25661.89489306604
 20
22496.72393106785
 30
0.0
 11
25661.89489306604
 21
23518.92753115232
 31
0.0
  0
LINE
  5
2CC
330
22
100
AcDbEntity
  8
_0-4_ハッチ
  6
Continuous
 62
     5
100
AcDbLine
 10
25761.89522298581
 20
22496.72393106785
 30
0.0
 11
25761.89522298581
 21
23518.92753115232
 31
0.0
  0
LINE
  5
2CD
330
22
100
AcDbEntity
  8
_0-4_ハッチ
  6
Continuous
 62
     5
100
AcDbLine
 10
25861.89555290557
 20
22496.72393106785
 30
0.0
 11
25861.89555290557
 21
23518.92753115232
 31
0.0
  0
LINE
  5
2CE
330
22
100
AcDbEntity
  8
_0-4_ハッチ
  6
Continuous
 62
     5
100
AcDbLine
 10
25961.89588282533
 20
22496.72393106785
 30
0.0
 11
25961.89588282533
 21
23518.92753115232
 31
0.0
  0
LINE
  5
2CF
330
22
100
AcDbEntity
  8
_0-4_ハッチ
  6
Continuous
 62
     5
100
AcDbLine
 10
26061.8962127451
 20
22496.72393106785
 30
0.0
 11
26061.8962127451
 21
23518.92753115232
 31
0.0
  0
LINE
  5
2D0
330
22
100
AcDbEntity
  8
_0-4_ハッチ
  6
Continuous
 62
     5
100
AcDbLine
 10
26161.89654266486
 20
22496.72393106785
 30
0.0
 11
26161.89654266486
 21
23518.92753115232
 31
0.0
  0
LINE
  5
2D1
330
22
100
AcDbEntity
  8
_0-4_ハッチ
  6
Continuous
 62
     5
100
AcDbLine
 10
26261.89687258463
 20
22496.72393106785
 30
0.0
 11
26261.89687258463
 21
23518.92753115232
 31
0.0
  0
LINE
  5
2D2
330
22
100
AcDbEntity
  8
_0-4_ハッチ
  6
Continuous
 62
     5
100
AcDbLine
 10
26361.89720250439
 20
22496.72393106785
 30
0.0
 11
26361.89720250439
 21
23518.92753115232
 31
0.0
  0
LINE
  5
2D3
330
22
100
AcDbEntity
  8
_0-4_ハッチ
  6
Continuous
 62
     5
100
AcDbLine
 10
26461.89753242415
 20
22496.72393106785
 30
0.0
 11
26461.89753242415
 21
23518.92753115232
 31
0.0
  0
LINE
  5
2D4
330
22
100
AcDbEntity
  8
_0-4_ハッチ
  6
Continuous
 62
     5
100
AcDbLine
 10
26561.89786234392
 20
22496.72393106785
 30
0.0
 11
26561.89786234392
 21
23518.92753115232
 31
0.0
  0
LINE
  5
2D5
330
22
100
AcDbEntity
  8
_0-4_ハッチ
  6
Continuous
 62
     5
100
AcDbLine
 10
26661.89819226368
 20
22496.72393106785
 30
0.0
 11
26661.89819226368
 21
23518.92753115232
 31
0.0
  0
LINE
  5
2D6
330
22
100
AcDbEntity
  8
_0-4_ハッチ
  6
Continuous
 62
     5
100
AcDbLine
 10
26761.89852218344
 20
22496.72393106785
 30
0.0
 11
26761.89852218344
 21
23518.92753115232
 31
0.0
  0
LINE
  5
2D7
330
22
100
AcDbEntity
  8
_0-4_ハッチ
  6
Continuous
 62
     5
100
AcDbLine
 10
26861.8988521032
 20
22496.72393106785
 30
0.0
 11
26861.8988521032
 21
23518.92753115232
 31
0.0
  0
LINE
  5
2D8
330
22
100
AcDbEntity
  8
_0-4_ハッチ
  6
Continuous
 62
     5
100
AcDbLine
 10
26961.89918202297
 20
22496.72393106785
 30
0.0
 11
26961.89918202297
 21
23518.92753115232
 31
0.0
  0
LINE
  5
2D9
330
22
100
AcDbEntity
  8
_0-4_ハッチ
  6
Continuous
 62
     5
100
AcDbLine
 10
27061.89951194273
 20
22496.72393106785
 30
0.0
 11
27061.89951194273
 21
23518.92753115232
 31
0.0
  0
LINE
  5
2DA
330
22
100
AcDbEntity
  8
_0-4_ハッチ
  6
Continuous
 62
     5
100
AcDbLine
 10
27161.89984186249
 20
22496.72393106785
 30
0.0
 11
27161.89984186249
 21
23518.92753115232
 31
0.0
  0
LINE
  5
2DB
330
22
100
AcDbEntity
  8
_0-4_ハッチ
  6
Continuous
 62
     5
100
AcDbLine
 10
27261.90017178226
 20
22496.72393106785
 30
0.0
 11
27261.90017178226
 21
23518.92753115232
 31
0.0
  0
LINE
  5
2DC
330
22
100
AcDbEntity
  8
_0-4_ハッチ
  6
Continuous
 62
     5
100
AcDbLine
 10
27361.90050170202
 20
22496.72393106785
 30
0.0
 11
27361.90050170202
 21
23518.92753115232
 31
0.0
  0
LINE
  5
2DD
330
22
100
AcDbEntity
  8
_0-4_ハッチ
  6
Continuous
 62
     5
100
AcDbLine
 10
27461.90083162178
 20
22496.72393106785
 30
0.0
 11
27461.90083162178
 21
23518.92753115232
 31
0.0
  0
LINE
  5
2DE
330
22
100
AcDbEntity
  8
_0-4_ハッチ
  6
Continuous
 62
     5
100
AcDbLine
 10
27561.90116154155
 20
22496.72393106785
 30
0.0
 11
27561.90116154155
 21
23518.92753115232
 31
0.0
  0
LINE
  5
2DF
330
22
100
AcDbEntity
  8
_0-4_ハッチ
  6
Continuous
 62
     5
100
AcDbLine
 10
27661.90149146131
 20
22496.72393106785
 30
0.0
 11
27661.90149146131
 21
23518.92753115232
 31
0.0
  0
LINE
  5
2E0
330
22
100
AcDbEntity
  8
_0-4_ハッチ
  6
Continuous
 62
     5
100
AcDbLine
 10
27761.90182138108
 20
22496.72393106785
 30
0.0
 11
27761.90182138108
 21
23518.92753115232
 31
0.0
  0
LINE
  5
2E1
330
22
100
AcDbEntity
  8
_0-4_ハッチ
  6
Continuous
 62
     5
100
AcDbLine
 10
27861.90215130084
 20
22496.72393106785
 30
0.0
 11
27861.90215130084
 21
23518.92753115232
 31
0.0
  0
LINE
  5
2E2
330
22
100
AcDbEntity
  8
_0-4_ハッチ
  6
Continuous
 62
     5
100
AcDbLine
 10
27961.9024812206
 20
22496.72393106785
 30
0.0
 11
27961.9024812206
 21
23518.92753115232
 31
0.0
  0
LINE
  5
2E3
330
22
100
AcDbEntity
  8
_0-4_ハッチ
  6
Continuous
 62
     5
100
AcDbLine
 10
28061.90281114037
 20
22496.72393106785
 30
0.0
 11
28061.90281114037
 21
23518.92753115232
 31
0.0
  0
LINE
  5
2E4
330
22
100
AcDbEntity
  8
_0-4_ハッチ
  6
Continuous
 62
     5
100
AcDbLine
 10
23746.99274726789
 20
22646.72195154927
 30
0.0
 11
28191.31631277677
 21
22646.72195154927
 31
0.0
  0
LINE
  5
2E5
330
22
100
AcDbEntity
  8
_0-4_ハッチ
  6
Continuous
 62
     5
100
AcDbLine
 10
23961.88928443006
 20
22274.5130727486
 30
0.0
 11
23961.88928443006
 21
23518.92753115232
 31
0.0
  0
LINE
  5
2E6
330
22
100
AcDbEntity
  8
_0-4_ハッチ
  6
Continuous
 62
     5
100
AcDbLine
 10
23689.25761345245
 20
22746.72228146904
 30
0.0
 11
28191.31631277677
 21
22746.72228146904
 31
0.0
  0
LINE
  5
2E7
330
22
100
AcDbEntity
  8
_0-4_ハッチ
  6
Continuous
 62
     5
100
AcDbLine
 10
23761.88862459053
 20
22620.92387564133
 30
0.0
 11
23761.88862459053
 21
23518.92753115232
 31
0.0
  0
LINE
  5
2E8
330
22
100
AcDbEntity
  8
_0-4_ハッチ
  6
Continuous
 62
     5
100
AcDbLine
 10
23631.52247963699
 20
22846.7226113888
 30
0.0
 11
28191.31631277677
 21
22846.7226113888
 31
0.0
  0
LINE
  5
2E9
330
22
100
AcDbEntity
  8
_0-4_ハッチ
  6
Continuous
 62
     5
100
AcDbLine
 10
23661.88829467077
 20
22794.12680268948
 30
0.0
 11
23661.88829467077
 21
23518.92753115232
 31
0.0
  0
LINE
  5
2EA
330
22
100
AcDbEntity
  8
_0-4_ハッチ
  6
Continuous
 62
     5
100
AcDbLine
 10
23573.78734582153
 20
22946.72294130857
 30
0.0
 11
28191.31631277677
 21
22946.72294130857
 31
0.0
  0
LINE
  5
2EB
330
22
100
AcDbEntity
  8
_0-4_ハッチ
  6
Continuous
 62
     5
100
AcDbLine
 10
23516.05221200607
 20
23046.72327122833
 30
0.0
 11
28191.31631277677
 21
23046.72327122833
 31
0.0
  0
LINE
  5
2EC
330
22
100
AcDbEntity
  8
_0-4_ハッチ
  6
Continuous
 62
     5
100
AcDbLine
 10
23458.31707819062
 20
23146.72360114808
 30
0.0
 11
28191.31631277677
 21
23146.72360114808
 31
0.0
  0
LINE
  5
2ED
330
22
100
AcDbEntity
  8
_0-4_ハッチ
  6
Continuous
 62
     5
100
AcDbLine
 10
23400.58194437516
 20
23246.72393106784
 30
0.0
 11
28191.31631277677
 21
23246.72393106784
 31
0.0
  0
LINE
  5
2EE
330
22
100
AcDbEntity
  8
_0-4_ハッチ
  6
Continuous
 62
     5
100
AcDbLine
 10
23461.88763483124
 20
23140.54255437866
 30
0.0
 11
23461.88763483124
 21
23518.92753115232
 31
0.0
  0
LINE
  5
2EF
330
22
100
AcDbEntity
  8
_0-4_ハッチ
  6
Continuous
 62
     5
100
AcDbLine
 10
23561.88796475101
 20
22967.33467853407
 30
0.0
 11
23561.88796475101
 21
23518.92753115232
 31
0.0
  0
LINE
  5
2F0
330
22
100
AcDbEntity
  8
_0-4_ハッチ
  6
Continuous
 62
     5
100
AcDbLine
 10
23342.8468105597
 20
23346.72426098761
 30
0.0
 11
28191.31631277677
 21
23346.72426098761
 31
0.0
  0
LINE
  5
2F1
330
22
100
AcDbEntity
  8
_0-4_ハッチ
  6
Continuous
 62
     5
100
AcDbLine
 10
23285.11167674425
 20
23446.72459090738
 30
0.0
 11
28191.31631277677
 21
23446.72459090738
 31
0.0
  0
LINE
  5
2F2
330
22
100
AcDbEntity
  8
_0-4_ハッチ
  6
Continuous
 62
     5
100
AcDbLine
 10
8191.317137576174
 20
18746.71155907672
 30
0.0
 11
8456.983377546611
 21
18746.71155907672
 31
0.0
  0
LINE
  5
2F3
330
22
100
AcDbEntity
  8
_0-4_ハッチ
  6
Continuous
 62
     5
100
AcDbLine
 10
10461.87938683715
 20
14948.92969212676
 30
0.0
 11
10461.87938683715
 21
15274.1287162241
 31
0.0
  0
LINE
  5
2F4
330
22
100
AcDbEntity
  8
_0-4_ハッチ
  6
Continuous
 62
     5
100
AcDbLine
 10
10561.87971675692
 20
14948.92969212676
 30
0.0
 11
10561.87971675692
 21
15100.92331477774
 31
0.0
  0
LINE
  5
2F5
330
22
100
AcDbEntity
  8
_0-4_ハッチ
  6
Continuous
 62
     5
100
AcDbLine
 10
8191.317137576174
 20
18846.71188899648
 30
0.0
 11
8399.248243731157
 21
18846.71188899648
 31
0.0
  0
LINE
  5
2F6
330
22
100
AcDbEntity
  8
_0-4_ハッチ
  6
Continuous
 62
     5
100
AcDbLine
 10
8191.317137576174
 20
18946.71221891625
 30
0.0
 11
8341.5131099157
 21
18946.71221891625
 31
0.0
  0
LINE
  5
2F7
330
22
100
AcDbEntity
  8
_0-4_ハッチ
  6
Continuous
 62
     5
100
AcDbLine
 10
8191.317137576174
 20
19046.71254883601
 30
0.0
 11
8283.777976100246
 21
19046.71254883601
 31
0.0
  0
LINE
  5
2F8
330
22
100
AcDbEntity
  8
_0-4_ハッチ
  6
Continuous
 62
     5
100
AcDbLine
 10
8191.317137576174
 20
19146.71287875577
 30
0.0
 11
8226.042842284789
 21
19146.71287875577
 31
0.0
  0
LINE
  5
2F9
330
22
100
AcDbEntity
  8
_0-4_ハッチ
  6
Continuous
 62
     5
100
AcDbLine
 10
27903.92733077719
 20
15446.70067172452
 30
0.0
 11
28191.31631277677
 21
15446.70067172452
 31
0.0
  0
LINE
  5
2FA
330
22
100
AcDbEntity
  8
_0-4_ハッチ
  6
Continuous
 62
     5
100
AcDbLine
 10
27846.19219696173
 20
15546.70100164428
 30
0.0
 11
28191.31631277677
 21
15546.70100164428
 31
0.0
  0
LINE
  5
2FB
330
22
100
AcDbEntity
  8
_0-4_ハッチ
  6
Continuous
 62
     5
100
AcDbLine
 10
28134.86786603902
 20
15046.69935204547
 30
0.0
 11
28191.31631277677
 21
15046.69935204547
 31
0.0
  0
LINE
  5
2FC
330
22
100
AcDbEntity
  8
_0-4_ハッチ
  6
Continuous
 62
     5
100
AcDbLine
 10
28161.90314106013
 20
23518.92753115232
 30
0.0
 11
28161.90314106013
 21
14999.87507720911
 31
0.0
  0
LINE
  5
2FD
330
22
100
AcDbEntity
  8
_0-4_ハッチ
  6
Continuous
 62
     5
100
AcDbLine
 10
23358.96504060616
 20
23518.92753115232
 30
0.0
 11
23358.96504060616
 21
23463.2436734665
 31
0.0
  0
LINE
  5
2FE
330
22
100
AcDbEntity
  8
_0-4_ハッチ
  6
Continuous
 62
     5
100
AcDbLine
 10
23361.88730491148
 20
23313.74548142681
 30
0.0
 11
23361.88730491148
 21
23518.92753115232
 31
0.0
  0
LINE
  5
2FF
330
22
100
AcDbEntity
  8
_0-4_ハッチ
  6
Continuous
 62
     5
100
AcDbLine
 10
27961.66246459264
 20
15346.70034180476
 30
0.0
 11
28191.31631277677
 21
15346.70034180476
 31
0.0
  0
LINE
  5
300
330
22
100
AcDbEntity
  8
_0-4_ハッチ
  6
Continuous
 62
     5
100
AcDbLine
 10
28019.3975984081
 20
15246.700011885
 30
0.0
 11
28191.31631277677
 21
15246.700011885
 31
0.0
  0
LINE
  5
301
330
22
100
AcDbEntity
  8
_0-4_ハッチ
  6
Continuous
 62
     5
100
AcDbLine
 10
28077.13273222356
 20
15146.69968196524
 30
0.0
 11
28191.31631277677
 21
15146.69968196524
 31
0.0
  0
LINE
  5
302
330
22
100
AcDbEntity
  8
ADD_LINE
  6
DOT
 62
     7
100
AcDbLine
 10
6326.452272711307
 20
12848.92894980729
 30
0.0
 11
7691.317962375584
 21
12848.92894980729
 31
0.0
  0
LINE
  5
303
330
22
100
AcDbEntity
  8
_0-3_寸法
  6
Continuous
 62
     4
100
AcDbLine
 10
7691.317962375584
 20
19233.93046743821
 30
0.0
 11
4691.317962375584
 21
19233.93046743821
 31
0.0
  0
LINE
  5
304
330
22
100
AcDbEntity
  8
_0-3_寸法
  6
Continuous
 62
     4
100
AcDbLine
 10
26191.31713757617
 20
10848.92853740759
 30
0.0
 11
26191.31713757617
 21
10348.92874360744
 31
0.0
  0
CIRCLE
  5
305
330
22
100
AcDbEntity
  8
_0-0_パイプ
  6
Continuous
 62
     7
100
AcDbCircle
 10
8191.317137576174
 20
23623.9261454893
 30
0.0
 40
10.00000012887491
  0
CIRCLE
  5
306
330
22
100
AcDbEntity
  8
_0-0_パイプ
  6
Continuous
 62
     7
100
AcDbCircle
 10
8190.787616355734
 20
23572.48340636346
 30
0.0
 40
10.00000012887491
  0
CIRCLE
  5
307
330
22
100
AcDbEntity
  8
_0-0_パイプ
  6
Continuous
 62
     7
100
AcDbCircle
 10
8316.096091334621
 20
23624.14389253322
 30
0.0
 40
10.00000012887491
  0
CIRCLE
  5
308
330
22
100
AcDbEntity
  8
_0-0_パイプ
  6
Continuous
 62
     7
100
AcDbCircle
 10
8316.096091334621
 20
23574.18084354674
 30
0.0
 40
10.00000012887491
  0
CIRCLE
  5
309
330
22
100
AcDbEntity
  8
_0-0_パイプ
  6
Continuous
 62
     7
100
AcDbCircle
 10
8061.893738346864
 20
23624.14389253322
 30
0.0
 40
10.00000012887491
  0
CIRCLE
  5
30A
330
22
100
AcDbEntity
  8
_0-0_パイプ
  6
Continuous
 62
     7
100
AcDbCircle
 10
8061.893738346864
 20
23572.42896960249
 30
0.0
 40
10.00000012887491
  0
CIRCLE
  5
30B
330
22
100
AcDbEntity
  8
_0-0_パイプ
  6
Continuous
 62
     7
100
AcDbCircle
 10
8191.317137576174
 20
23518.56626901127
 30
0.0
 40
10.00000012887491
  0
CIRCLE
  5
30C
330
22
100
AcDbEntity
  8
_0-0_パイプ
  6
Continuous
 62
     7
100
AcDbCircle
 10
8021.820859071103
 20
19329.87402146587
 30
0.0
 40
15.00000019331236
  0
CIRCLE
  5
30D
330
22
100
AcDbEntity
  8
_0-0_パイプ
  6
Continuous
 62
     7
100
AcDbCircle
 10
8360.729286541541
 20
19329.87402146587
 30
0.0
 40
15.00000019331236
  0
CIRCLE
  5
30E
330
22
100
AcDbEntity
  8
_0-0_パイプ
  6
Continuous
 62
     7
100
AcDbCircle
 10
8191.31466317795
 20
19328.93251294074
 30
0.0
 40
15.00000019331236
  0
CIRCLE
  5
30F
330
22
100
AcDbEntity
  8
_0-0_パイプ
  6
Continuous
 62
     7
100
AcDbCircle
 10
8191.31466317795
 20
19233.93046743821
 30
0.0
 40
15.00000019331236
  0
CIRCLE
  5
310
330
22
100
AcDbEntity
  8
_0-0_パイプ
  6
Continuous
 62
     7
100
AcDbCircle
 10
7985.778774506075
 20
15046.31458312128
 30
0.0
 40
15.00000019331236
  0
CIRCLE
  5
311
330
22
100
AcDbEntity
  8
_0-0_パイプ
  6
Continuous
 62
     7
100
AcDbCircle
 10
8398.213945272543
 20
15044.87324615442
 30
0.0
 40
15.00000019331236
  0
CIRCLE
  5
312
330
22
100
AcDbEntity
  8
_0-0_パイプ
  6
Continuous
 62
     7
100
AcDbCircle
 10
8191.317137576174
 20
15043.93173762929
 30
0.0
 40
15.00000019331236
  0
CIRCLE
  5
313
330
22
100
AcDbEntity
  8
_0-0_パイプ
  6
Continuous
 62
     7
100
AcDbCircle
 10
8191.317137576174
 20
14948.92969212676
 30
0.0
 40
15.00000019331236
  0
CIRCLE
  5
314
330
22
100
AcDbEntity
  8
_0-0_パイプ
  6
Continuous
 62
     7
100
AcDbCircle
 10
8491.318127335464
 20
23623.9261454893
 30
0.0
 40
15.00000019331236
  0
ARC
  5
315
330
22
100
AcDbEntity
  8
_0-2_メッセン
  6
Continuous
 62
     6
100
AcDbCircle
 10
8226.884137681748
 20
23489.68014411684
 30
0.0
 40
60.5918797286781
100
AcDbArc
 50
180.7089691162109
 51
234.0557556152344
  0
ARC
  5
316
330
22
100
AcDbEntity
  8
_0-2_メッセン
  6
Continuous
 62
     6
100
AcDbCircle
 10
8155.750137470601
 20
23489.68014411684
 30
0.0
 40
60.5918797286781
100
AcDbArc
 50
305.9442443847656
 51
359.2910308837891
  0
CIRCLE
  5
317
330
22
100
AcDbEntity
  8
_0-0_パイプ
  6
Continuous
 62
     7
100
AcDbCircle
 10
14191.31713757617
 20
23623.9261454893
 30
0.0
 40
10.00000012887491
  0
CIRCLE
  5
318
330
22
100
AcDbEntity
  8
_0-0_パイプ
  6
Continuous
 62
     7
100
AcDbCircle
 10
14190.78761635574
 20
23572.48340636346
 30
0.0
 40
10.00000012887491
  0
CIRCLE
  5
319
330
22
100
AcDbEntity
  8
_0-0_パイプ
  6
Continuous
 62
     7
100
AcDbCircle
 10
14316.09609133461
 20
23624.14389253322
 30
0.0
 40
10.00000012887491
  0
CIRCLE
  5
31A
330
22
100
AcDbEntity
  8
_0-0_パイプ
  6
Continuous
 62
     7
100
AcDbCircle
 10
14316.09609133461
 20
23574.18084354674
 30
0.0
 40
10.00000012887491
  0
CIRCLE
  5
31B
330
22
100
AcDbEntity
  8
_0-0_パイプ
  6
Continuous
 62
     7
100
AcDbCircle
 10
14061.89373834687
 20
23624.14389253322
 30
0.0
 40
10.00000012887491
  0
CIRCLE
  5
31C
330
22
100
AcDbEntity
  8
_0-0_パイプ
  6
Continuous
 62
     7
100
AcDbCircle
 10
14061.89373834687
 20
23572.42896960249
 30
0.0
 40
10.00000012887491
  0
CIRCLE
  5
31D
330
22
100
AcDbEntity
  8
_0-0_パイプ
  6
Continuous
 62
     7
100
AcDbCircle
 10
14191.31713757617
 20
23518.56626901127
 30
0.0
 40
10.00000012887491
  0
CIRCLE
  5
31E
330
22
100
AcDbEntity
  8
_0-0_パイプ
  6
Continuous
 62
     7
100
AcDbCircle
 10
13891.31614781688
 20
23623.9261454893
 30
0.0
 40
15.00000019331236
  0
ARC
  5
31F
330
22
100
AcDbEntity
  8
_0-2_メッセン
  6
Continuous
 62
     6
100
AcDbCircle
 10
14226.88413768175
 20
23489.68014411684
 30
0.0
 40
60.5918797286781
100
AcDbArc
 50
180.7089691162109
 51
234.0557556152344
  0
ARC
  5
320
330
22
100
AcDbEntity
  8
_0-2_メッセン
  6
Continuous
 62
     6
100
AcDbCircle
 10
14155.7501374706
 20
23489.68014411684
 30
0.0
 40
60.5918797286781
100
AcDbArc
 50
305.9442443847656
 51
359.2910308837891
  0
CIRCLE
  5
321
330
22
100
AcDbEntity
  8
_0-0_パイプ
  6
Continuous
 62
     7
100
AcDbCircle
 10
20190.78761635574
 20
23572.48340636346
 30
0.0
 40
10.00000012887491
  0
CIRCLE
  5
322
330
22
100
AcDbEntity
  8
_0-0_パイプ
  6
Continuous
 62
     7
100
AcDbCircle
 10
20316.09609133462
 20
23574.17589475029
 30
0.0
 40
10.00000012887491
  0
CIRCLE
  5
323
330
22
100
AcDbEntity
  8
_0-0_パイプ
  6
Continuous
 62
     7
100
AcDbCircle
 10
20061.89373834687
 20
23572.42402080603
 30
0.0
 40
10.00000012887491
  0
CIRCLE
  5
324
330
22
100
AcDbEntity
  8
_0-0_パイプ
  6
Continuous
 62
     7
100
AcDbCircle
 10
20191.31713757617
 20
23518.56132021482
 30
0.0
 40
10.00000012887491
  0
CIRCLE
  5
325
330
22
100
AcDbEntity
  8
_0-0_パイプ
  6
Continuous
 62
     7
100
AcDbCircle
 10
26190.78514195751
 20
23572.48340636346
 30
0.0
 40
10.00000012887491
  0
CIRCLE
  5
326
330
22
100
AcDbEntity
  8
_0-0_パイプ
  6
Continuous
 62
     7
100
AcDbCircle
 10
26316.09361693639
 20
23574.17589475029
 30
0.0
 40
10.00000012887491
  0
CIRCLE
  5
327
330
22
100
AcDbEntity
  8
_0-0_パイプ
  6
Continuous
 62
     7
100
AcDbCircle
 10
26061.89373834687
 20
23572.42402080603
 30
0.0
 40
10.00000012887491
  0
CIRCLE
  5
328
330
22
100
AcDbEntity
  8
_0-0_パイプ
  6
Continuous
 62
     7
100
AcDbCircle
 10
26191.31466317795
 20
23518.56132021482
 30
0.0
 40
10.00000012887491
  0
CIRCLE
  5
329
330
22
100
AcDbEntity
  8
_0-0_パイプ
  6
Continuous
 62
     7
100
AcDbCircle
 10
13985.77877450607
 20
15046.31458312128
 30
0.0
 40
15.00000019331236
  0
CIRCLE
  5
32A
330
22
100
AcDbEntity
  8
_0-0_パイプ
  6
Continuous
 62
     7
100
AcDbCircle
 10
14398.21147087431
 20
15044.87324615442
 30
0.0
 40
15.00000019331236
  0
CIRCLE
  5
32B
330
22
100
AcDbEntity
  8
_0-0_パイプ
  6
Continuous
 62
     7
100
AcDbCircle
 10
14191.31713757617
 20
15043.93173762929
 30
0.0
 40
15.00000019331236
  0
CIRCLE
  5
32C
330
22
100
AcDbEntity
  8
_0-0_パイプ
  6
Continuous
 62
     7
100
AcDbCircle
 10
14191.31713757617
 20
14948.92969212676
 30
0.0
 40
15.00000019331236
  0
CIRCLE
  5
32D
330
22
100
AcDbEntity
  8
_0-0_パイプ
  6
Continuous
 62
     7
100
AcDbCircle
 10
19985.77877450607
 20
15046.31458312128
 30
0.0
 40
15.00000019331236
  0
CIRCLE
  5
32E
330
22
100
AcDbEntity
  8
_0-0_パイプ
  6
Continuous
 62
     7
100
AcDbCircle
 10
20398.21394527254
 20
15044.87324615442
 30
0.0
 40
15.00000019331236
  0
CIRCLE
  5
32F
330
22
100
AcDbEntity
  8
_0-0_パイプ
  6
Continuous
 62
     7
100
AcDbCircle
 10
20191.31713757617
 20
15043.93173762929
 30
0.0
 40
15.00000019331236
  0
CIRCLE
  5
330
330
22
100
AcDbEntity
  8
_0-0_パイプ
  6
Continuous
 62
     7
100
AcDbCircle
 10
20191.31713757617
 20
14948.92969212676
 30
0.0
 40
15.00000019331236
  0
CIRCLE
  5
331
330
22
100
AcDbEntity
  8
_0-0_パイプ
  6
Continuous
 62
     7
100
AcDbCircle
 10
25985.77630010785
 20
15046.31458312128
 30
0.0
 40
15.00000019331236
  0
CIRCLE
  5
332
330
22
100
AcDbEntity
  8
_0-0_パイプ
  6
Continuous
 62
     7
100
AcDbCircle
 10
26398.21394527254
 20
15044.87324615442
 30
0.0
 40
15.00000019331236
  0
CIRCLE
  5
333
330
22
100
AcDbEntity
  8
_0-0_パイプ
  6
Continuous
 62
     7
100
AcDbCircle
 10
26191.31466317795
 20
15043.93173762929
 30
0.0
 40
15.00000019331236
  0
CIRCLE
  5
334
330
22
100
AcDbEntity
  8
_0-0_パイプ
  6
Continuous
 62
     7
100
AcDbCircle
 10
26191.31466317795
 20
14948.92969212676
 30
0.0
 40
15.00000019331236
  0
ARC
  5
335
330
22
100
AcDbEntity
  8
_0-2_メッセン
  6
Continuous
 62
     6
100
AcDbCircle
 10
20155.74766307237
 20
23489.68014411684
 30
0.0
 40
60.5918797286781
100
AcDbArc
 50
305.9442443847656
 51
359.2910308837891
  0
ARC
  5
336
330
22
100
AcDbEntity
  8
_0-2_メッセン
  6
Continuous
 62
     6
100
AcDbCircle
 10
20226.88413768175
 20
23489.68014411684
 30
0.0
 40
60.5918797286781
100
AcDbArc
 50
180.7089691162109
 51
234.0557556152344
  0
ARC
  5
337
330
22
100
AcDbEntity
  8
_0-2_メッセン
  6
Continuous
 62
     6
100
AcDbCircle
 10
26155.74766307237
 20
23489.68014411684
 30
0.0
 40
60.5918797286781
100
AcDbArc
 50
305.9442443847656
 51
359.2910308837891
  0
ARC
  5
338
330
22
100
AcDbEntity
  8
_0-2_メッセン
  6
Continuous
 62
     6
100
AcDbCircle
 10
26226.88166328352
 20
23489.68014411684
 30
0.0
 40
60.5918797286781
100
AcDbArc
 50
180.7089691162109
 51
234.0557556152344
  0
ARC
  5
339
330
22
100
AcDbEntity
  8
_0-2_メッセン
  6
Continuous
 62
     6
100
AcDbCircle
 10
20226.88166328352
 20
23489.68014411684
 30
0.0
 40
60.5918797286781
100
AcDbArc
 50
180.7089691162109
 51
234.0557556152344
  0
CIRCLE
  5
33A
330
22
100
AcDbEntity
  8
_0-0_パイプ
  6
Continuous
 62
     7
100
AcDbCircle
 10
14021.82085907111
 20
19329.87402146587
 30
0.0
 40
15.00000019331236
  0
CIRCLE
  5
33B
330
22
100
AcDbEntity
  8
_0-0_パイプ
  6
Continuous
 62
     7
100
AcDbCircle
 10
14360.72928654154
 20
19329.87402146587
 30
0.0
 40
15.00000019331236
  0
CIRCLE
  5
33C
330
22
100
AcDbEntity
  8
_0-0_パイプ
  6
Continuous
 62
     7
100
AcDbCircle
 10
14191.31218877972
 20
19328.93251294074
 30
0.0
 40
15.00000019331236
  0
CIRCLE
  5
33D
330
22
100
AcDbEntity
  8
_0-0_パイプ
  6
Continuous
 62
     7
100
AcDbCircle
 10
14191.31218877972
 20
19233.93046743821
 30
0.0
 40
15.00000019331236
  0
CIRCLE
  5
33E
330
22
100
AcDbEntity
  8
_0-0_パイプ
  6
Continuous
 62
     7
100
AcDbCircle
 10
20021.82085907111
 20
19329.87402146587
 30
0.0
 40
15.00000019331236
  0
CIRCLE
  5
33F
330
22
100
AcDbEntity
  8
_0-0_パイプ
  6
Continuous
 62
     7
100
AcDbCircle
 10
20360.72928654154
 20
19329.87402146587
 30
0.0
 40
15.00000019331236
  0
CIRCLE
  5
340
330
22
100
AcDbEntity
  8
_0-0_パイプ
  6
Continuous
 62
     7
100
AcDbCircle
 10
20191.31466317795
 20
19328.93251294074
 30
0.0
 40
15.00000019331236
  0
CIRCLE
  5
341
330
22
100
AcDbEntity
  8
_0-0_パイプ
  6
Continuous
 62
     7
100
AcDbCircle
 10
20191.31466317795
 20
19233.93046743821
 30
0.0
 40
15.00000019331236
  0
CIRCLE
  5
342
330
22
100
AcDbEntity
  8
_0-0_パイプ
  6
Continuous
 62
     7
100
AcDbCircle
 10
26021.82085907111
 20
19329.87402146587
 30
0.0
 40
15.00000019331236
  0
CIRCLE
  5
343
330
22
100
AcDbEntity
  8
_0-0_パイプ
  6
Continuous
 62
     7
100
AcDbCircle
 10
26360.72681214333
 20
19329.87402146587
 30
0.0
 40
15.00000019331236
  0
CIRCLE
  5
344
330
22
100
AcDbEntity
  8
_0-0_パイプ
  6
Continuous
 62
     7
100
AcDbCircle
 10
26191.31218877972
 20
19328.93251294074
 30
0.0
 40
15.00000019331236
  0
CIRCLE
  5
345
330
22
100
AcDbEntity
  8
_0-0_パイプ
  6
Continuous
 62
     7
100
AcDbCircle
 10
26191.31218877972
 20
19233.93046743821
 30
0.0
 40
15.00000019331236
  0
ARC
  5
346
330
22
100
AcDbEntity
  8
_0-2_メッセン
  6
Continuous
 62
     6
100
AcDbCircle
 10
8159.795778570682
 20
15412.40674950641
 30
0.0
 40
87.40532398223876
100
AcDbArc
 50
21.1426696777344
 51
68.86027526855471
  0
ARC
  5
347
330
22
100
AcDbEntity
  8
_0-2_メッセン
  6
Continuous
 62
     6
100
AcDbCircle
 10
8222.840970979891
 20
15412.40674950641
 30
0.0
 40
87.40532398223876
100
AcDbArc
 50
111.1397247314453
 51
158.859130859375
  0
ARC
  5
348
330
22
100
AcDbEntity
  8
_0-2_メッセン
  6
Continuous
 62
     6
100
AcDbCircle
 10
8222.840970979891
 20
15275.45375647432
 30
0.0
 40
87.40532398223876
100
AcDbArc
 50
201.140869140625
 51
248.8602752685546
  0
ARC
  5
349
330
22
100
AcDbEntity
  8
_0-2_メッセン
  6
Continuous
 62
     6
100
AcDbCircle
 10
8159.795778570682
 20
15275.45375647432
 30
0.0
 40
87.40532398223876
100
AcDbArc
 50
291.1397247314452
 51
338.8573303222656
  0
ARC
  5
34A
330
22
100
AcDbEntity
  8
_0-2_メッセン
  6
Continuous
 62
     6
100
AcDbCircle
 10
8543.55267389374
 20
15219.98888303153
 30
0.0
 40
67.46114750166198
100
AcDbArc
 50
159.8763122558594
 51
223.0882568359376
  0
ARC
  5
34B
330
22
100
AcDbEntity
  8
_0-2_メッセン
  6
Continuous
 62
     6
100
AcDbCircle
 10
8517.497260570259
 20
15237.24657346122
 30
0.0
 40
67.46114750166198
100
AcDbArc
 50
249.8757781982423
 51
313.0856475830078
  0
ARC
  5
34C
330
22
100
AcDbEntity
  8
_0-2_メッセン
  6
Continuous
 62
     6
100
AcDbCircle
 10
8636.731087903454
 20
15360.67450578808
 30
0.0
 40
67.46114750166198
100
AcDbArc
 50
69.87673950195314
 51
133.0875244140625
  0
ARC
  5
34D
330
22
100
AcDbEntity
  8
_0-2_メッセン
  6
Continuous
 62
     6
100
AcDbCircle
 10
8610.675674579974
 20
15377.93219621777
 30
0.0
 40
67.46114750166198
100
AcDbArc
 50
339.8751373291016
 51
43.08930969238281
  0
ARC
  5
34E
330
22
100
AcDbEntity
  8
_0-2_メッセン
  6
Continuous
 62
     6
100
AcDbCircle
 10
8558.022954721442
 20
14936.69626729568
 30
0.0
 40
63.4238526627824
100
AcDbArc
 50
101.1177062988281
 51
168.87890625
  0
ARC
  5
34F
330
22
100
AcDbEntity
  8
_0-2_メッセン
  6
Continuous
 62
     6
100
AcDbCircle
 10
8558.022954721442
 20
14961.16311695785
 30
0.0
 40
63.4238526627824
100
AcDbArc
 50
191.12109375
 51
258.8822937011719
  0
ARC
  5
350
330
22
100
AcDbEntity
  8
_0-2_メッセン
  6
Continuous
 62
     6
100
AcDbCircle
 10
8733.630996845601
 20
14937.28269967532
 30
0.0
 40
63.4238526627824
100
AcDbArc
 50
11.50445556640625
 51
76.40614318847656
  0
ARC
  5
351
330
22
100
AcDbEntity
  8
_0-2_メッセン
  6
Continuous
 62
     6
100
AcDbCircle
 10
8733.467686562663
 20
14961.74954933749
 30
0.0
 40
63.4238526627824
100
AcDbArc
 50
277.9124450683594
 51
349.2622680664063
  0
CIRCLE
  5
352
330
22
100
AcDbEntity
  8
_0-2_メッセン
  6
Continuous
 62
     6
100
AcDbCircle
 10
8191.317137576174
 20
15593.93107778977
 30
0.0
 40
50.00000064437454
  0
CIRCLE
  5
353
330
22
100
AcDbEntity
  8
_0-2_メッセン
  6
Continuous
 62
     6
100
AcDbCircle
 10
8715.162088484111
 20
15507.38899982313
 30
0.0
 40
50.00000064437454
  0
CIRCLE
  5
354
330
22
100
AcDbEntity
  8
_0-2_メッセン
  6
Continuous
 62
     6
100
AcDbCircle
 10
8895.788210211309
 20
14948.92969212676
 30
0.0
 40
50.00000064437454
  0
ARC
  5
355
330
22
100
AcDbEntity
  8
_0-2_メッセン
  6
Continuous
 62
     6
100
AcDbCircle
 10
14222.83602218343
 20
15412.40674950641
 30
0.0
 40
87.40532398223876
100
AcDbArc
 50
111.1397247314453
 51
158.8573303222656
  0
ARC
  5
356
330
22
100
AcDbEntity
  8
_0-2_メッセン
  6
Continuous
 62
     6
100
AcDbCircle
 10
14159.79330417245
 20
15412.40674950641
 30
0.0
 40
87.40532398223876
100
AcDbArc
 50
21.140869140625
 51
68.8602752685547
  0
ARC
  5
357
330
22
100
AcDbEntity
  8
_0-2_メッセン
  6
Continuous
 62
     6
100
AcDbCircle
 10
14159.79330417245
 20
15275.45375647432
 30
0.0
 40
87.40532398223876
100
AcDbArc
 50
291.1397247314452
 51
338.859130859375
  0
ARC
  5
358
330
22
100
AcDbEntity
  8
_0-2_メッセン
  6
Continuous
 62
     6
100
AcDbCircle
 10
14222.83602218343
 20
15275.45375647432
 30
0.0
 40
87.40532398223876
100
AcDbArc
 50
201.1426696777344
 51
248.8602752685547
  0
ARC
  5
359
330
22
100
AcDbEntity
  8
_0-2_メッセン
  6
Continuous
 62
     6
100
AcDbCircle
 10
13839.08160125861
 20
15219.98888303153
 30
0.0
 40
67.46114750166198
100
AcDbArc
 50
316.9117431640625
 51
20.12368774414063
  0
ARC
  5
35A
330
22
100
AcDbEntity
  8
_0-2_メッセン
  6
Continuous
 62
     6
100
AcDbCircle
 10
13865.13701458208
 20
15237.24657346122
 30
0.0
 40
67.46114750166198
100
AcDbArc
 50
226.9143524169922
 51
290.1242218017578
  0
ARC
  5
35B
330
22
100
AcDbEntity
  8
_0-2_メッセン
  6
Continuous
 62
     6
100
AcDbCircle
 10
13745.90071285067
 20
15360.67450578808
 30
0.0
 40
67.46114750166198
100
AcDbArc
 50
46.9124755859375
 51
110.1232604980469
  0
ARC
  5
35C
330
22
100
AcDbEntity
  8
_0-2_メッセン
  6
Continuous
 62
     6
100
AcDbCircle
 10
13771.95860057237
 20
15377.93219621777
 30
0.0
 40
67.46114750166198
100
AcDbArc
 50
136.9106903076172
 51
200.1248626708985
  0
CIRCLE
  5
35D
330
22
100
AcDbEntity
  8
_0-2_メッセン
  6
Continuous
 62
     6
100
AcDbCircle
 10
14191.31466317794
 20
15593.93107778977
 30
0.0
 40
50.00000064437454
  0
CIRCLE
  5
35E
330
22
100
AcDbEntity
  8
_0-2_メッセン
  6
Continuous
 62
     6
100
AcDbCircle
 10
13667.47218666823
 20
15507.38899982313
 30
0.0
 40
50.00000064437454
  0
ARC
  5
35F
330
22
100
AcDbEntity
  8
_0-2_メッセン
  6
Continuous
 62
     6
100
AcDbCircle
 10
14543.55267389374
 20
15219.98888303153
 30
0.0
 40
67.46114750166198
100
AcDbArc
 50
159.8763122558594
 51
223.0882568359376
  0
ARC
  5
360
330
22
100
AcDbEntity
  8
_0-2_メッセン
  6
Continuous
 62
     6
100
AcDbCircle
 10
14517.49726057026
 20
15237.24657346122
 30
0.0
 40
67.46114750166198
100
AcDbArc
 50
249.8757781982423
 51
313.0856475830078
  0
ARC
  5
361
330
22
100
AcDbEntity
  8
_0-2_メッセン
  6
Continuous
 62
     6
100
AcDbCircle
 10
14636.73108790346
 20
15360.67450578808
 30
0.0
 40
67.46114750166198
100
AcDbArc
 50
69.87673950195314
 51
133.0875244140625
  0
ARC
  5
362
330
22
100
AcDbEntity
  8
_0-2_メッセン
  6
Continuous
 62
     6
100
AcDbCircle
 10
14610.67320018174
 20
15377.93219621777
 30
0.0
 40
67.46114750166198
100
AcDbArc
 50
339.8761901855469
 51
43.09036254882815
  0
CIRCLE
  5
363
330
22
100
AcDbEntity
  8
_0-2_メッセン
  6
Continuous
 62
     6
100
AcDbCircle
 10
14715.16208848411
 20
15507.38899982313
 30
0.0
 40
50.00000064437454
  0
ARC
  5
364
330
22
100
AcDbEntity
  8
_0-2_メッセン
  6
Continuous
 62
     6
100
AcDbCircle
 10
20222.83849658167
 20
15412.40798670552
 30
0.0
 40
87.40532398223876
100
AcDbArc
 50
111.1397247314453
 51
158.8573303222656
  0
ARC
  5
365
330
22
100
AcDbEntity
  8
_0-2_メッセン
  6
Continuous
 62
     6
100
AcDbCircle
 10
20159.79330417246
 20
15412.40798670552
 30
0.0
 40
87.40532398223876
100
AcDbArc
 50
21.140869140625
 51
68.8602752685547
  0
ARC
  5
366
330
22
100
AcDbEntity
  8
_0-2_メッセン
  6
Continuous
 62
     6
100
AcDbCircle
 10
20159.79330417246
 20
15275.45499367342
 30
0.0
 40
87.40532398223876
100
AcDbArc
 50
291.1397247314452
 51
338.859130859375
  0
ARC
  5
367
330
22
100
AcDbEntity
  8
_0-2_メッセン
  6
Continuous
 62
     6
100
AcDbCircle
 10
20222.83849658167
 20
15275.45499367342
 30
0.0
 40
87.40532398223876
100
AcDbArc
 50
201.1426696777344
 51
248.8602752685547
  0
ARC
  5
368
330
22
100
AcDbEntity
  8
_0-2_メッセン
  6
Continuous
 62
     6
100
AcDbCircle
 10
19839.0816012586
 20
15219.99012023065
 30
0.0
 40
67.46114750166198
100
AcDbArc
 50
316.9117431640625
 51
20.12368774414063
  0
ARC
  5
369
330
22
100
AcDbEntity
  8
_0-2_メッセン
  6
Continuous
 62
     6
100
AcDbCircle
 10
19865.13701458209
 20
15237.24781066034
 30
0.0
 40
67.46114750166198
100
AcDbArc
 50
226.9143524169922
 51
290.1242218017578
  0
ARC
  5
36A
330
22
100
AcDbEntity
  8
_0-2_メッセン
  6
Continuous
 62
     6
100
AcDbCircle
 10
19745.90071285067
 20
15360.67574298719
 30
0.0
 40
67.46114750166198
100
AcDbArc
 50
46.9124755859375
 51
110.1232604980469
  0
ARC
  5
36B
330
22
100
AcDbEntity
  8
_0-2_メッセン
  6
Continuous
 62
     6
100
AcDbCircle
 10
19771.95860057237
 20
15377.93343341688
 30
0.0
 40
67.46114750166198
100
AcDbArc
 50
136.9106903076172
 51
200.1248626708985
  0
CIRCLE
  5
36C
330
22
100
AcDbEntity
  8
_0-2_メッセン
  6
Continuous
 62
     6
100
AcDbCircle
 10
20191.31466317795
 20
15593.93231498888
 30
0.0
 40
50.00000064437454
  0
CIRCLE
  5
36D
330
22
100
AcDbEntity
  8
_0-2_メッセン
  6
Continuous
 62
     6
100
AcDbCircle
 10
19667.46971227001
 20
15507.39023702225
 30
0.0
 40
50.00000064437454
  0
ARC
  5
36E
330
22
100
AcDbEntity
  8
_0-2_メッセン
  6
Continuous
 62
     6
100
AcDbCircle
 10
20543.55267389374
 20
15219.99012023065
 30
0.0
 40
67.46114750166198
100
AcDbArc
 50
159.8763122558594
 51
223.0882568359376
  0
ARC
  5
36F
330
22
100
AcDbEntity
  8
_0-2_メッセン
  6
Continuous
 62
     6
100
AcDbCircle
 10
20517.49726057026
 20
15237.24781066034
 30
0.0
 40
67.46114750166198
100
AcDbArc
 50
249.8757781982423
 51
313.0856475830078
  0
ARC
  5
370
330
22
100
AcDbEntity
  8
_0-2_メッセン
  6
Continuous
 62
     6
100
AcDbCircle
 10
20636.73108790346
 20
15360.67574298719
 30
0.0
 40
67.46114750166198
100
AcDbArc
 50
69.87673950195314
 51
133.0875244140625
  0
ARC
  5
371
330
22
100
AcDbEntity
  8
_0-2_メッセン
  6
Continuous
 62
     6
100
AcDbCircle
 10
20610.67567457997
 20
15377.93343341688
 30
0.0
 40
67.46114750166198
100
AcDbArc
 50
339.8761901855469
 51
43.09036254882815
  0
CIRCLE
  5
372
330
22
100
AcDbEntity
  8
_0-2_メッセン
  6
Continuous
 62
     6
100
AcDbCircle
 10
20715.16208848411
 20
15507.39023702225
 30
0.0
 40
50.00000064437454
  0
ARC
  5
373
330
22
100
AcDbEntity
  8
_0-2_メッセン
  6
Continuous
 62
     6
100
AcDbCircle
 10
26222.83849658167
 20
15412.40922390463
 30
0.0
 40
87.40532398223876
100
AcDbArc
 50
111.1397247314453
 51
158.8573303222656
  0
ARC
  5
374
330
22
100
AcDbEntity
  8
_0-2_メッセン
  6
Continuous
 62
     6
100
AcDbCircle
 10
26159.79330417246
 20
15412.40922390463
 30
0.0
 40
87.40532398223876
100
AcDbArc
 50
21.140869140625
 51
68.8602752685547
  0
ARC
  5
375
330
22
100
AcDbEntity
  8
_0-2_メッセン
  6
Continuous
 62
     6
100
AcDbCircle
 10
26159.79330417246
 20
15275.45623087254
 30
0.0
 40
87.40532398223876
100
AcDbArc
 50
291.1397247314452
 51
338.859130859375
  0
ARC
  5
376
330
22
100
AcDbEntity
  8
_0-2_メッセン
  6
Continuous
 62
     6
100
AcDbCircle
 10
26222.83849658167
 20
15275.45623087254
 30
0.0
 40
87.40532398223876
100
AcDbArc
 50
201.1426696777344
 51
248.8602752685547
  0
ARC
  5
377
330
22
100
AcDbEntity
  8
_0-2_メッセン
  6
Continuous
 62
     6
100
AcDbCircle
 10
25839.08160125861
 20
15219.99135742976
 30
0.0
 40
67.46114750166198
100
AcDbArc
 50
316.9117431640625
 51
20.12368774414063
  0
ARC
  5
378
330
22
100
AcDbEntity
  8
_0-2_メッセン
  6
Continuous
 62
     6
100
AcDbCircle
 10
25865.13701458209
 20
15237.24904785945
 30
0.0
 40
67.46114750166198
100
AcDbArc
 50
226.9143524169922
 51
290.1242218017578
  0
ARC
  5
379
330
22
100
AcDbEntity
  8
_0-2_メッセン
  6
Continuous
 62
     6
100
AcDbCircle
 10
25745.90318724888
 20
15360.67698018631
 30
0.0
 40
67.46114750166198
100
AcDbArc
 50
46.9124755859375
 51
110.1232604980469
  0
ARC
  5
37A
330
22
100
AcDbEntity
  8
_0-2_メッセン
  6
Continuous
 62
     6
100
AcDbCircle
 10
25771.95860057237
 20
15377.93467061599
 30
0.0
 40
67.46114750166198
100
AcDbArc
 50
136.9106903076172
 51
200.1248626708985
  0
CIRCLE
  5
37B
330
22
100
AcDbEntity
  8
_0-2_メッセン
  6
Continuous
 62
     6
100
AcDbCircle
 10
26191.31466317795
 20
15593.93355218799
 30
0.0
 40
50.00000064437454
  0
CIRCLE
  5
37C
330
22
100
AcDbEntity
  8
_0-2_メッセン
  6
Continuous
 62
     6
100
AcDbCircle
 10
25667.46971227001
 20
15507.39147422136
 30
0.0
 40
50.00000064437454
  0
ARC
  5
37D
330
22
100
AcDbEntity
  8
_0-2_メッセン
  6
Continuous
 62
     6
100
AcDbCircle
 10
26543.55267389374
 20
15219.99135742976
 30
0.0
 40
67.46114750166198
100
AcDbArc
 50
159.8763122558594
 51
223.0882568359376
  0
ARC
  5
37E
330
22
100
AcDbEntity
  8
_0-2_メッセン
  6
Continuous
 62
     6
100
AcDbCircle
 10
26517.49726057027
 20
15237.24904785945
 30
0.0
 40
67.46114750166198
100
AcDbArc
 50
249.8757781982423
 51
313.0856475830078
  0
ARC
  5
37F
330
22
100
AcDbEntity
  8
_0-2_メッセン
  6
Continuous
 62
     6
100
AcDbCircle
 10
26636.73108790346
 20
15360.67698018631
 30
0.0
 40
67.46114750166198
100
AcDbArc
 50
69.87673950195314
 51
133.0875244140625
  0
ARC
  5
380
330
22
100
AcDbEntity
  8
_0-2_メッセン
  6
Continuous
 62
     6
100
AcDbCircle
 10
26610.67567457997
 20
15377.93467061599
 30
0.0
 40
67.46114750166198
100
AcDbArc
 50
339.8761901855469
 51
43.09036254882815
  0
CIRCLE
  5
381
330
22
100
AcDbEntity
  8
_0-2_メッセン
  6
Continuous
 62
     6
100
AcDbCircle
 10
26715.16456288234
 20
15507.39147422136
 30
0.0
 40
50.00000064437454
  0
CIRCLE
  5
382
330
22
100
AcDbEntity
  8
_0-3_寸法
  6
Continuous
 62
     4
100
AcDbCircle
 10
7691.317962375584
 20
24148.92911476718
 30
0.0
 40
300.0000038662473
  0
CIRCLE
  5
383
330
22
100
AcDbEntity
  8
_0-3_寸法
  6
Continuous
 62
     4
100
AcDbCircle
 10
7683.281116936393
 20
19519.57376148909
 30
0.0
 40
300.0000038662473
  0
CIRCLE
  5
384
330
22
100
AcDbEntity
  8
_0-3_寸法
  6
Continuous
 62
     4
100
AcDbCircle
 10
7679.187843670451
 20
15355.00071065506
 30
0.0
 40
300.0000038662473
  0
TEXT
  5
385
330
22
100
AcDbEntity
  8
_0-3_寸法
 62
     4
100
AcDbText
 10
4641.317797415697
 20
14461.42870236747
 30
0.0
 40
250.0
  1
400
 50
90.0
100
AcDbText
  0
TEXT
  5
386
330
22
100
AcDbEntity
  8
_0-3_寸法
 62
     4
100
AcDbText
 10
4641.317797415697
 20
13336.42849616762
 30
0.0
 40
250.0
  1
1,600
 50
90.0
100
AcDbText
  0
TEXT
  5
387
330
22
100
AcDbEntity
  8
_0-3_寸法
 62
     4
100
AcDbText
 10
4141.316147816879
 20
19036.42874360744
 30
0.0
 40
250.0
  1
9,000
 50
90.0
100
AcDbText
  0
TEXT
  5
388
330
22
100
AcDbEntity
  8
_0-3_寸法
 62
     4
100
AcDbText
 10
4141.316147816879
 20
13536.42915600715
 30
0.0
 40
250.0
  1
2,000
 50
90.0
100
AcDbText
  0
TEXT
  5
389
330
22
100
AcDbEntity
  8
_0-3_寸法
 62
     4
100
AcDbText
 10
3641.316972616293
 20
17973.92853740759
 30
0.0
 40
250.0
  1
11,000
 50
90.0
100
AcDbText
  0
TEXT
  5
38A
330
22
100
AcDbEntity
  8
_0-3_寸法
 62
     4
100
AcDbText
 10
4641.317797415697
 20
23496.43030247833
 30
0.0
 40
250.0
  1
200
 50
90.0
100
AcDbText
  0
TEXT
  5
38B
330
22
100
AcDbEntity
  8
_0-3_寸法
 62
     4
100
AcDbText
 10
4641.317797415697
 20
14877.17688615917
 30
0.0
 40
250.0
  1
50
 50
90.0
100
AcDbText
  0
TEXT
  5
38C
330
22
100
AcDbEntity
  8
_0-3_寸法
 62
     4
100
AcDbText
 10
4641.317797415697
 20
16778.93007978249
 30
0.0
 40
250.0
  1
4,400
 50
90.0
100
AcDbText
  0
TEXT
  5
38D
330
22
100
AcDbEntity
  8
_0-3_寸法
 62
     4
100
AcDbText
 10
5814.5189717651
 20
15130.06059109214
 30
0.0
 40
250.0
  1
ＧＬ
100
AcDbText
  0
TEXT
  5
38E
330
22
100
AcDbEntity
  8
_0-6_仕上
 62
     7
100
AcDbText
 10
14841.37990481118
 20
22542.04995777816
 30
0.0
 40
300.0
  1
ﾎﾟﾘﾛｰﾌﾟ6φ押ｴ
100
AcDbText
  0
TEXT
  5
38F
330
22
100
AcDbEntity
  8
_0-6_仕上
 62
     7
100
AcDbText
 10
9354.566591558963
 20
13704.05375845383
 30
0.0
 40
300.0
  1
ﾈｶｾ
100
AcDbText
  0
TEXT
  5
390
330
22
100
AcDbEntity
  8
_0-6_仕上
 62
     7
100
AcDbText
 10
9422.81004100206
 20
24383.80889200535
 30
0.0
 40
300.0
  1
ｼﾞｮｲﾝﾄﾋﾞｰﾑ
100
AcDbText
  0
TEXT
  5
391
330
22
100
AcDbEntity
  8
_0-3_寸法
 62
     4
100
AcDbText
 10
4641.317797415697
 20
21063.93085509393
 30
0.0
 40
250.0
  1
4,350
 50
90.0
100
AcDbText
  0
TEXT
  5
392
330
22
100
AcDbEntity
  8
_0-3_寸法
 62
     7
100
AcDbText
 10
7541.317962375583
 20
23998.92861988754
 30
0.0
 40
300.0
  1
Ａ
100
AcDbText
  0
TEXT
  5
393
330
22
100
AcDbEntity
  8
_0-3_寸法
 62
     7
100
AcDbText
 10
7533.281116936393
 20
19369.57326660945
 30
0.0
 40
300.0
  1
Ｂ
100
AcDbText
  0
TEXT
  5
394
330
22
100
AcDbEntity
  8
_0-3_寸法
 62
     7
100
AcDbText
 10
7529.187843671727
 20
15205.0002157749
 30
0.0
 40
300.0
  1
Ｃ
 50
0.0002362878202341
100
AcDbText
  0
POINT
  5
395
330
22
100
AcDbEntity
  8
_0-3_寸法
 62
     4
100
AcDbPoint
 10
8191.317137576174
 20
10348.92874360744
 30
0.0
  0
POINT
  5
396
330
22
100
AcDbEntity
  8
_0-3_寸法
 62
     4
100
AcDbPoint
 10
14191.31713757617
 20
10348.92874360744
 30
0.0
  0
POINT
  5
397
330
22
100
AcDbEntity
  8
_0-3_寸法
 62
     4
100
AcDbPoint
 10
20191.31713757617
 20
10348.92874360744
 30
0.0
  0
POINT
  5
398
330
22
100
AcDbEntity
  8
_0-3_寸法
 62
     4
100
AcDbPoint
 10
26191.31713757617
 20
10348.92874360744
 30
0.0
  0
POINT
  5
399
330
22
100
AcDbEntity
  8
_0-3_寸法
 62
     4
100
AcDbPoint
 10
4691.317962375584
 20
23848.92812500789
 30
0.0
  0
POINT
  5
39A
330
22
100
AcDbEntity
  8
_0-3_寸法
 62
     4
100
AcDbPoint
 10
4691.317962375584
 20
23518.92753115232
 30
0.0
  0
POINT
  5
39B
330
22
100
AcDbEntity
  8
_0-3_寸法
 62
     4
100
AcDbPoint
 10
4691.317962375584
 20
19233.93046743821
 30
0.0
  0
POINT
  5
39C
330
22
100
AcDbEntity
  8
_0-3_寸法
 62
     4
100
AcDbPoint
 10
4691.317962375584
 20
14948.92969212676
 30
0.0
  0
POINT
  5
39D
330
22
100
AcDbEntity
  8
_0-3_寸法
 62
     4
100
AcDbPoint
 10
4691.317962375584
 20
14848.929362207
 30
0.0
  0
POINT
  5
39E
330
22
100
AcDbEntity
  8
_0-3_寸法
 62
     4
100
AcDbPoint
 10
4691.317962375584
 20
14448.92804252795
 30
0.0
  0
POINT
  5
39F
330
22
100
AcDbEntity
  8
_0-3_寸法
 62
     4
100
AcDbPoint
 10
4691.317962375584
 20
12848.92894980729
 30
0.0
  0
POINT
  5
3A0
330
22
100
AcDbEntity
  8
_0-3_寸法
 62
     4
100
AcDbPoint
 10
4191.316312776765
 20
23848.92812500789
 30
0.0
  0
POINT
  5
3A1
330
22
100
AcDbEntity
  8
_0-3_寸法
 62
     4
100
AcDbPoint
 10
4191.316312776765
 20
14848.929362207
 30
0.0
  0
POINT
  5
3A2
330
22
100
AcDbEntity
  8
_0-3_寸法
 62
     4
100
AcDbPoint
 10
4191.316312776765
 20
12848.92894980729
 30
0.0
  0
POINT
  5
3A3
330
22
100
AcDbEntity
  8
_0-3_寸法
 62
     4
100
AcDbPoint
 10
3691.317137576172
 20
23848.92812500789
 30
0.0
  0
POINT
  5
3A4
330
22
100
AcDbEntity
  8
_0-3_寸法
 62
     4
100
AcDbPoint
 10
3691.317137576172
 20
12848.92894980729
 30
0.0
  0
TEXT
  5
3A5
330
22
100
AcDbEntity
  8
_0-6_仕上
 62
     7
100
AcDbText
 10
7848.500502670566
 20
20505.96084578267
 30
0.0
 40
300.0
  1
11-19-700
 50
90.0
100
AcDbText
  0
TEXT
  5
3A6
330
22
100
AcDbEntity
  8
_0-6_仕上
 62
     7
100
AcDbText
 10
7458.119342350562
 20
20595.42319502266
 30
0.0
 40
300.0
  1
PC　POLE
 50
90.0
100
AcDbText
  0
LINE
  5
3A7
330
22
100
AcDbEntity
  8
_0-0_パイプ
  6
Continuous
 62
     7
100
AcDbLine
 10
34587.12160444357
 20
14423.92424845067
 30
0.0
 11
34587.12160444357
 21
14473.92441341055
 31
0.0
  0
LINE
  5
3A8
330
22
100
AcDbEntity
  8
_0-0_パイプ
  6
Continuous
 62
     7
100
AcDbLine
 10
34662.12556348073
 20
23598.92482581025
 30
0.0
 11
34962.1240788418
 21
23598.92482581025
 31
0.0
  0
LINE
  5
3A9
330
22
100
AcDbEntity
  8
_0-0_パイプ
  6
Continuous
 62
     7
100
AcDbLine
 10
34662.12556348073
 20
23548.9271352486
 30
0.0
 11
34662.12556348073
 21
23598.92482581025
 31
0.0
  0
LINE
  5
3AA
330
22
100
AcDbEntity
  8
_0-0_パイプ
  6
Continuous
 62
     7
100
AcDbLine
 10
34662.12556348073
 20
23548.9271352486
 30
0.0
 11
34962.1240788418
 21
23548.9271352486
 31
0.0
  0
LINE
  5
3AB
330
22
100
AcDbEntity
  8
ADD_LINE
  6
DOT
 62
     7
100
AcDbLine
 10
34812.12358396215
 20
23390.11530828492
 30
0.0
 11
34812.12358396215
 21
23702.09238545974
 31
0.0
  0
LINE
  5
3AC
330
22
100
AcDbEntity
  8
_0-0_パイプ
  6
Continuous
 62
     7
100
AcDbLine
 10
34962.1240788418
 20
23598.92482581025
 30
0.0
 11
34962.1240788418
 21
23548.9271352486
 31
0.0
  0
LINE
  5
3AD
330
22
100
AcDbEntity
  8
_0-0_パイプ
  6
Continuous
 62
     7
100
AcDbLine
 10
34717.12401285784
 20
23848.92317621144
 30
0.0
 11
34907.12562946468
 21
23848.92317621144
 31
0.0
  0
LINE
  5
3AE
330
22
100
AcDbEntity
  8
_0-0_パイプ
  6
Continuous
 62
     7
100
AcDbLine
 10
34812.12358396215
 20
12848.92400101084
 30
0.0
 11
34980.62515438022
 21
12848.92400101084
 31
0.0
  0
LINE
  5
3AF
330
22
100
AcDbEntity
  8
_0-0_パイプ
  6
Continuous
 62
     7
100
AcDbLine
 10
34812.12358396215
 20
12848.92276381173
 30
0.0
 11
34643.6244879423
 21
12848.92276381173
 31
0.0
  0
LINE
  5
3B0
330
22
100
AcDbEntity
  8
_0-0_パイプ
  6
Continuous
 62
     7
100
AcDbLine
 10
34907.12562946468
 20
23848.92317621144
 30
0.0
 11
34980.62515438022
 21
12848.92400101084
 31
0.0
  0
LINE
  5
3B1
330
22
100
AcDbEntity
  8
_0-0_パイプ
  6
Continuous
 62
     7
100
AcDbLine
 10
34643.6244879423
 20
12848.92276381173
 30
0.0
 11
34717.12401285784
 21
23848.92317621144
 31
0.0
  0
LINE
  5
3B2
330
22
100
AcDbEntity
  8
ADD_LINE
  6
DOT
 62
     7
100
AcDbLine
 10
34812.12358396215
 20
14598.637795616
 30
0.0
 11
34812.12358396215
 21
14256.78235985797
 31
0.0
  0
LINE
  5
3B3
330
22
100
AcDbEntity
  8
_0-0_パイプ
  6
Continuous
 62
     7
100
AcDbLine
 10
35062.12440876156
 20
14993.92909827119
 30
0.0
 11
34562.12523356097
 21
14993.92909827119
 31
0.0
  0
LINE
  5
3B4
330
22
100
AcDbEntity
  8
_0-0_パイプ
  6
Continuous
 62
     7
100
AcDbLine
 10
34562.12523356097
 20
15093.92942819095
 30
0.0
 11
35062.12440876156
 21
15093.92942819095
 31
0.0
  0
LINE
  5
3B5
330
22
100
AcDbEntity
  8
_0-0_パイプ
  6
Continuous
 62
     7
100
AcDbLine
 10
35062.12440876156
 20
15093.92942819095
 30
0.0
 11
35062.12440876156
 21
14993.92909827119
 31
0.0
  0
LINE
  5
3B6
330
22
100
AcDbEntity
  8
_0-0_パイプ
  6
Continuous
 62
     7
100
AcDbLine
 10
34612.12539852085
 20
19278.93111078175
 30
0.0
 11
34612.12539852085
 21
19378.93144070151
 31
0.0
  0
LINE
  5
3B7
330
22
100
AcDbEntity
  8
_0-0_パイプ
  6
Continuous
 62
     7
100
AcDbLine
 10
34612.12539852085
 20
19378.93144070151
 30
0.0
 11
35012.12424380167
 21
19378.93144070151
 31
0.0
  0
LINE
  5
3B8
330
22
100
AcDbEntity
  8
_0-0_パイプ
  6
Continuous
 62
     7
100
AcDbLine
 10
35012.12424380167
 20
19378.93144070151
 30
0.0
 11
35012.12424380167
 21
19278.93111078175
 31
0.0
  0
LINE
  5
3B9
330
22
100
AcDbEntity
  8
_0-0_パイプ
  6
Continuous
 62
     7
100
AcDbLine
 10
35012.12424380167
 20
19278.93111078175
 30
0.0
 11
34612.12539852085
 21
19278.93111078175
 31
0.0
  0
LINE
  5
3BA
330
22
100
AcDbEntity
  8
ADD_LINE
  6
DOT
 62
     7
100
AcDbLine
 10
34812.12358396215
 20
19396.40440377688
 30
0.0
 11
34812.12358396215
 21
19206.86055084192
 31
0.0
  0
LINE
  5
3BB
330
22
100
AcDbEntity
  8
_0-1_ＧＬ
  6
Continuous
 62
     3
100
AcDbLine
 10
34012.1258934005
 20
14873.92820748782
 30
0.0
 11
34412.12721307954
 21
14473.92812500789
 31
0.0
  0
LINE
  5
3BC
330
22
100
AcDbEntity
  8
_0-1_ＧＬ
  6
Continuous
 62
     3
100
AcDbLine
 10
34012.1258934005
 20
14873.92820748782
 30
0.0
 11
33612.12704811966
 21
14473.92812500789
 31
0.0
  0
LINE
  5
3BD
330
22
100
AcDbEntity
  8
_0-1_ＧＬ
  6
Continuous
 62
     3
100
AcDbLine
 10
33612.12457372144
 20
14473.92812500789
 30
0.0
 11
33212.12572844061
 21
14873.92820748782
 31
0.0
  0
LINE
  5
3BE
330
22
100
AcDbEntity
  8
_0-1_ＧＬ
  6
Continuous
 62
     3
100
AcDbLine
 10
33296.7377757907
 20
14781.42035539746
 30
0.0
 11
32989.244308202
 21
14473.92812500789
 31
0.0
  0
LINE
  5
3BF
330
22
100
AcDbEntity
  8
_0-1_ＧＬ
  6
Continuous
 62
     3
100
AcDbLine
 10
33400.34577832447
 20
14681.51157821207
 30
0.0
 11
33192.76356231941
 21
14473.92812500789
 31
0.0
  0
LINE
  5
3C0
330
22
100
AcDbEntity
  8
_0-1_ＧＬ
  6
Continuous
 62
     3
100
AcDbLine
 10
33503.95625525649
 20
14581.60280102667
 30
0.0
 11
33396.28281643681
 21
14473.92812500789
 31
0.0
  0
LINE
  5
3C1
330
22
100
AcDbEntity
  8
_0-1_ＧＬ
  6
Continuous
 62
     3
100
AcDbLine
 10
34112.12622332025
 20
14773.92787756806
 30
0.0
 11
33812.12523356097
 21
14473.92812500789
 31
0.0
  0
LINE
  5
3C2
330
22
100
AcDbEntity
  8
_0-1_ＧＬ
  6
Continuous
 62
     3
100
AcDbLine
 10
34212.12655324001
 20
14673.9275476483
 30
0.0
 11
34012.1258934005
 21
14473.92812500789
 31
0.0
  0
LINE
  5
3C3
330
22
100
AcDbEntity
  8
_0-1_ＧＬ
  6
Continuous
 62
     3
100
AcDbLine
 10
34312.12440876156
 20
14573.92845492765
 30
0.0
 11
34212.1240788418
 21
14473.92812500789
 31
0.0
  0
LINE
  5
3C4
330
22
100
AcDbEntity
  8
_0-1_ＧＬ
  6
Continuous
 62
     3
100
AcDbLine
 10
33912.12556348072
 20
14773.92787756806
 30
0.0
 11
33812.12523356097
 21
14873.92820748782
 31
0.0
  0
LINE
  5
3C5
330
22
100
AcDbEntity
  8
_0-1_ＧＬ
  6
Continuous
 62
     3
100
AcDbLine
 10
33812.12523356097
 20
14673.9275476483
 30
0.0
 11
33612.12457372144
 21
14873.92820748782
 31
0.0
  0
LINE
  5
3C6
330
22
100
AcDbEntity
  8
_0-1_ＧＬ
  6
Continuous
 62
     3
100
AcDbLine
 10
33712.12490364121
 20
14573.92845492765
 30
0.0
 11
33412.12638828014
 21
14873.92820748782
 31
0.0
  0
LINE
  5
3C7
330
22
100
AcDbEntity
  8
_0-1_ＧＬ
  6
Continuous
 62
     3
100
AcDbLine
 10
33212.12572844061
 20
14873.92820748782
 30
0.0
 11
32912.12473868132
 21
14573.92845492765
 31
0.0
  0
LINE
  5
3C8
330
22
100
AcDbEntity
  8
_0-1_ＧＬ
  6
Continuous
 62
     3
100
AcDbLine
 10
33012.12506860109
 20
14673.9275476483
 30
0.0
 11
32812.12440876156
 21
14873.92820748782
 31
0.0
  0
LINE
  5
3C9
330
22
100
AcDbEntity
  8
_0-1_ＧＬ
  6
Continuous
 62
     3
100
AcDbLine
 10
33112.12539852085
 20
14773.92787756806
 30
0.0
 11
33012.12506860109
 21
14873.92820748782
 31
0.0
  0
LINE
  5
3CA
330
22
100
AcDbEntity
  8
_0-0_パイプ
  6
Continuous
 62
     7
100
AcDbLine
 10
34587.12160444357
 20
14473.92441341055
 30
0.0
 11
34969.767494963
 21
14473.92441341055
 31
0.0
  0
LINE
  5
3CB
330
22
100
AcDbEntity
  8
_0-0_パイプ
  6
Continuous
 62
     7
100
AcDbLine
 10
34970.10153872355
 20
14423.92424845067
 30
0.0
 11
34587.12160444357
 21
14423.92424845067
 31
0.0
  0
LINE
  5
3CC
330
22
100
AcDbEntity
  8
_0-0_パイプ
  6
Continuous
 62
     7
100
AcDbLine
 10
34969.26519212304
 20
14548.92466085037
 30
0.0
 11
35019.26783148115
 21
14548.92466085037
 31
0.0
  0
LINE
  5
3CD
330
22
100
AcDbEntity
  8
_0-0_パイプ
  6
Continuous
 62
     7
100
AcDbLine
 10
35019.26783148115
 20
14548.92466085037
 30
0.0
 11
35020.26996276283
 21
14398.92416597072
 31
0.0
  0
LINE
  5
3CE
330
22
100
AcDbEntity
  8
_0-0_パイプ
  6
Continuous
 62
     7
100
AcDbLine
 10
35020.26996276283
 20
14398.92416597072
 30
0.0
 11
35170.2729320407
 21
14398.92416597072
 31
0.0
  0
LINE
  5
3CF
330
22
100
AcDbEntity
  8
_0-0_パイプ
  6
Continuous
 62
     7
100
AcDbLine
 10
35170.2729320407
 20
14398.92416597072
 30
0.0
 11
35170.60697580125
 21
14348.92400101084
 31
0.0
  0
LINE
  5
3D0
330
22
100
AcDbEntity
  8
_0-0_パイプ
  6
Continuous
 62
     7
100
AcDbLine
 10
34970.60136716528
 20
14348.92400101084
 30
0.0
 11
35170.60697580125
 21
14348.92400101084
 31
0.0
  0
LINE
  5
3D1
330
22
100
AcDbEntity
  8
_0-0_パイプ
  6
Continuous
 62
     7
100
AcDbLine
 10
34562.12523356097
 20
14993.92909827119
 30
0.0
 11
34562.12523356097
 21
15093.92942819095
 31
0.0
  0
LINE
  5
3D2
330
22
100
AcDbEntity
  8
_0-4_ハッチ
  6
DASHED1
 62
     5
100
AcDbLine
 10
34562.12523356097
 20
15093.92942819095
 30
0.0
 11
34612.12539852085
 21
19278.93111078175
 31
0.0
  0
LINE
  5
3D3
330
22
100
AcDbEntity
  8
_0-4_ハッチ
  6
DASHED1
 62
     5
100
AcDbLine
 10
34612.12539852085
 20
19378.93144070151
 30
0.0
 11
34662.12556348073
 21
23548.9271352486
 31
0.0
  0
LINE
  5
3D4
330
22
100
AcDbEntity
  8
_0-6_仕上
  6
Continuous
 62
     4
100
AcDbLine
 10
34962.1240788418
 20
23598.92482581025
 30
0.0
 11
34962.1240788418
 21
23698.92515573002
 31
0.0
  0
LINE
  5
3D5
330
22
100
AcDbEntity
  8
_0-6_仕上
  6
Continuous
 62
     4
100
AcDbLine
 10
35362.12539852086
 20
24291.74643159573
 30
0.0
 11
36362.12622332025
 21
24291.74643159573
 31
0.0
  0
LINE
  5
3D6
330
22
100
AcDbEntity
  8
_0-6_仕上
  6
Continuous
 62
     4
100
AcDbLine
 10
34962.1240788418
 20
23598.92482581025
 30
0.0
 11
35362.12539852086
 21
24291.74643159573
 31
0.0
  0
LINE
  5
3D7
330
22
100
AcDbEntity
  8
_0-6_仕上
  6
Continuous
 62
     4
100
AcDbLine
 10
35012.12424380167
 20
19378.93144070151
 30
0.0
 11
35012.12424380167
 21
19478.93177062127
 31
0.0
  0
LINE
  5
3D8
330
22
100
AcDbEntity
  8
_0-6_仕上
  6
Continuous
 62
     4
100
AcDbLine
 10
35412.12556348073
 20
20071.74933488965
 30
0.0
 11
36412.12638828014
 21
20071.74933488965
 31
0.0
  0
LINE
  5
3D9
330
22
100
AcDbEntity
  8
_0-6_仕上
  6
Continuous
 62
     4
100
AcDbLine
 10
35012.12424380167
 20
19378.93144070151
 30
0.0
 11
35412.12556348073
 21
20071.74933488965
 31
0.0
  0
LINE
  5
3DA
330
22
100
AcDbEntity
  8
_0-6_仕上
  6
Continuous
 62
     4
100
AcDbLine
 10
35062.12440876156
 20
15093.92942819095
 30
0.0
 11
35062.12440876156
 21
15193.92975811072
 31
0.0
  0
LINE
  5
3DB
330
22
100
AcDbEntity
  8
_0-6_仕上
  6
Continuous
 62
     4
100
AcDbLine
 10
35462.12572844061
 20
15786.74732237909
 30
0.0
 11
36462.12655324001
 21
15786.74732237909
 31
0.0
  0
LINE
  5
3DC
330
22
100
AcDbEntity
  8
_0-6_仕上
  6
Continuous
 62
     4
100
AcDbLine
 10
35062.12440876156
 20
15093.92942819095
 30
0.0
 11
35462.12572844061
 21
15786.74732237909
 31
0.0
  0
LINE
  5
3DD
330
22
100
AcDbEntity
  8
_0-1_ＧＬ
  6
Continuous
 62
     3
100
AcDbLine
 10
32812.12440876156
 20
14873.92820748782
 30
0.0
 11
34657.15449744399
 21
14873.92820748782
 31
0.0
  0
LINE
  5
3DE
330
22
100
AcDbEntity
  8
_0-1_ＧＬ
  6
Continuous
 62
     3
100
AcDbLine
 10
34967.09514487853
 20
14873.92820748782
 30
0.0
 11
36812.12523356097
 21
14873.92820748782
 31
0.0
  0
LINE
  5
3DF
330
22
100
AcDbEntity
  8
_0-0_パイプ
  6
CENTER1
 62
     4
100
AcDbLine
 10
34812.12605836037
 20
24108.4974477486
 30
0.0
 11
34812.12605836037
 21
10848.92853740759
 31
0.0
  0
TEXT
  5
3E0
330
22
100
AcDbEntity
  8
_0-6_仕上
 62
     7
100
AcDbText
 10
35437.80750763191
 20
24357.57532200958
 30
0.0
 40
300.0
  1
ﾊﾞﾝﾄﾞ
100
AcDbText
  0
TEXT
  5
3E1
330
22
100
AcDbEntity
  8
_0-6_仕上
 62
     7
100
AcDbText
 10
35487.8076725918
 20
20137.5782253035
 30
0.0
 40
300.0
  1
ﾊﾞﾝﾄﾞ
100
AcDbText
  0
TEXT
  5
3E2
330
22
100
AcDbEntity
  8
_0-6_仕上
 62
     7
100
AcDbText
 10
35537.80783755167
 20
15852.57621279294
 30
0.0
 40
300.0
  1
ﾊﾞﾝﾄﾞ
100
AcDbText
  0
TEXT
  5
3E3
330
22
100
AcDbEntity
  8
_0-3_寸法
 62
     4
100
AcDbText
 10
10761.10857054968
 20
10027.55699496671
 30
0.0
 40
250.0
  1
(9,500)
100
AcDbText
  0
TEXT
  5
3E4
330
22
100
AcDbEntity
  8
_0-3_寸法
 62
     4
100
AcDbText
 10
10878.8152817775
 20
10398.92890856732
 30
0.0
 40
250.0
  1
7,000
100
AcDbText
  0
TEXT
  5
3E5
330
22
100
AcDbEntity
  8
_0-3_寸法
 62
     4
100
AcDbText
 10
16687.299278296
 20
10027.55699496671
 30
0.0
 40
250.0
  1
(9,500)
100
AcDbText
  0
TEXT
  5
3E6
330
22
100
AcDbEntity
  8
_0-3_寸法
 62
     4
100
AcDbText
 10
16805.00598952383
 20
10398.92890856732
 30
0.0
 40
250.0
  1
7,000
100
AcDbText
  0
TEXT
  5
3E7
330
22
100
AcDbEntity
  8
_0-3_寸法
 62
     4
100
AcDbText
 10
22746.63477988152
 20
10027.55699496671
 30
0.0
 40
250.0
  1
(9,500)
100
AcDbText
  0
TEXT
  5
3E8
330
22
100
AcDbEntity
  8
_0-3_寸法
 62
     4
100
AcDbText
 10
22864.34149110935
 20
10398.92890856732
 30
0.0
 40
250.0
  1
7,000
100
AcDbText
  0
LINE
  5
3E9
330
22
100
AcDbEntity
  8
_0-6_仕上
  6
Continuous
 62
     4
100
AcDbLine
 10
21378.85722631875
 20
23526.3259818491
 30
0.0
 11
21778.8585459978
 21
24219.14263883813
 31
0.0
  0
LINE
  5
3EA
330
22
100
AcDbEntity
  8
_0-6_仕上
  6
Continuous
 62
     4
100
AcDbLine
 10
21378.85722631875
 20
23526.3259818491
 30
0.0
 11
21378.85722631875
 21
23626.32631176886
 31
0.0
  0
TEXT
  5
3EB
330
22
100
AcDbEntity
  8
_0-6_仕上
 62
     7
100
AcDbText
 10
10082.75233803542
 20
22510.74882021482
 30
0.0
 40
300.0
  1
ﾌﾞﾚｰｽﾜｲﾔｰ　55m㎡
100
AcDbText
  0
TEXT
  5
3EC
330
22
100
AcDbEntity
  8
_0-6_仕上
 62
     7
100
AcDbText
 10
16337.28708518491
 20
24117.97439295552
 30
0.0
 40
300.0
  1
横ﾜｲﾔｰ 38m㎡
100
AcDbText
  0
TEXT
  5
3ED
330
22
100
AcDbEntity
  8
_0-6_仕上
 62
     7
100
AcDbText
 10
16337.28708518491
 20
19820.36779587993
 30
0.0
 40
300.0
  1
横ﾜｲﾔｰ 38m㎡
100
AcDbText
  0
TEXT
  5
3EE
330
22
100
AcDbEntity
  8
_0-6_仕上
 62
     7
100
AcDbText
 10
16337.28708518491
 20
15543.41994959615
 30
0.0
 40
300.0
  1
横ﾜｲﾔｰ 38m㎡
100
AcDbText
  0
TEXT
  5
3EF
330
22
100
AcDbEntity
  8
_0-6_仕上
 62
     7
100
AcDbText
 10
14845.1643319385
 20
21123.39827386769
 30
0.0
 40
300.0
  1
縦ﾜｲﾔｰ 38m㎡
100
AcDbText
  0
LINE
  5
3F0
330
22
100
AcDbEntity
  8
_0-6_仕上
  6
Continuous
 62
     4
100
AcDbLine
 10
26765.46660442584
 20
23399.22604255434
 30
0.0
 11
28094.00784887719
 21
25700.33202276774
 31
0.0
  0
LINE
  5
3F1
330
22
100
AcDbEntity
  8
_0-5_枠
  6
Continuous
 62
     4
100
AcDbLine
 10
28781.22989147642
 20
26107.23691349831
 30
0.0
 11
28963.63510552836
 21
26107.23691349831
 31
0.0
  0
LINE
  5
3F2
330
22
100
AcDbEntity
  8
_0-5_枠
  6
Continuous
 62
     4
100
AcDbLine
 10
28781.22989147642
 20
25700.33202276774
 30
0.0
 11
28094.00784887719
 21
25700.33202276774
 31
0.0
  0
TEXT
  5
3F3
330
22
100
AcDbEntity
  8
_0-5_枠
 62
     7
100
AcDbText
 10
29036.86450863753
 20
26217.58517680067
 30
0.0
 40
300.0
  1
NET
100
AcDbText
  0
LINE
  5
3F4
330
22
100
AcDbEntity
  8
_0-5_枠
  6
Continuous
 62
     4
100
AcDbLine
 10
28781.22989147642
 20
26107.23691349831
 30
0.0
 11
28781.22989147642
 21
24891.62561138771
 31
0.0
  0
LINE
  5
3F5
330
22
100
AcDbEntity
  8
_0-5_枠
  6
Continuous
 62
     4
100
AcDbLine
 10
28781.22989147642
 20
24891.62561138771
 30
0.0
 11
28963.63510552836
 21
24891.62561138771
 31
0.0
  0
TEXT
  5
3F6
330
22
100
AcDbEntity
  8
_0-5_枠
 62
     7
100
AcDbText
 10
28847.23014345417
 20
24926.033811553
 30
0.0
 40
300.0
  1
（KSP-24 37.5㎜目 ｽｰﾊﾟｰﾎﾟﾘｴﾁﾚﾝ）
100
AcDbText
  0
TEXT
  5
3F7
330
22
100
AcDbEntity
  8
_0-5_枠
 62
     7
100
AcDbText
 10
29019.75924113858
 20
25770.48616128125
 30
0.0
 40
300.0
  1
ｸﾚﾓﾅ250D/80本×37.5㎜目
100
AcDbText
  0
TEXT
  5
3F8
330
22
100
AcDbEntity
  8
_0-5_枠
 62
     7
100
AcDbText
 10
28847.23014345417
 20
25347.53426357787
 30
0.0
 40
300.0
  1
（KRP-40 1800D/18本×40㎜目 ｴｺﾛﾈｯﾄ）
100
AcDbText
  0
TEXT
  5
3F9
330
22
100
AcDbEntity
  8
_0-5_枠
 62
     7
100
AcDbText
 10
4120.858694772747
 20
8368.361104846064
 30
0.0
 40
400.0
  1
設計条件
100
AcDbText
  0
TEXT
  5
3FA
330
22
100
AcDbEntity
  8
_0-5_枠
 62
     7
100
AcDbText
 10
5120.858694772747
 20
6918.361104846065
 30
0.0
 40
300.0
  1
基準風速・・・３４ｍ／ｓｅｃ
100
AcDbText
  0
TEXT
  5
3FB
330
22
100
AcDbEntity
  8
_0-5_枠
 62
     7
100
AcDbText
 10
5120.858694772747
 20
6418.361104846065
 30
0.0
 40
300.0
  1
地表面粗度区分・・・Ⅲ
100
AcDbText
  0
TEXT
  5
3FC
330
22
100
AcDbEntity
  8
_0-5_枠
 62
     7
100
AcDbText
 10
5120.858694772747
 20
5918.361104846065
 30
0.0
 40
300.0
  1
基礎　普通土質（Ｂ）を選定
100
AcDbText
  0
TEXT
  5
3FD
330
22
100
AcDbEntity
  8
_0-5_枠
 62
     7
100
AcDbText
 10
4620.858694772747
 20
7918.361104846062
 30
0.0
 40
300.0
  1
・設計荷重　建築基準法・同施工令
100
AcDbText
  0
TEXT
  5
3FE
330
22
100
AcDbEntity
  8
_0-5_枠
 62
     7
100
AcDbText
 10
4860.316573295384
 20
7418.361104846062
 30
0.0
 40
300.0
  1
（平成１２年６月）に基づく風圧力による。
100
AcDbText
  0
TEXT
  5
3FF
330
22
100
AcDbEntity
  8
_0-6_仕上
 62
     7
100
AcDbText
 10
21864.87407202187
 20
24268.83845281617
 30
0.0
 40
300.0
  1
ポリロープ4φにてかがりとめ
100
AcDbText
  0
LINE
  5
400
330
22
100
AcDbEntity
  8
_0-6_仕上
  6
Continuous
 62
     4
100
AcDbLine
 10
21778.8585459978
 20
24219.14263883813
 30
0.0
 11
26665.12966464656
 21
24219.14263883813
 31
0.0
  0
ENDSEC
  0
SECTION
  2
OBJECTS
  0
DICTIONARY
  5
C
330
0
100
AcDbDictionary
281
     1
  3
ACAD_COLOR
350
1B
  3
ACAD_GROUP
350
D
  3
ACAD_LAYOUT
350
19
  3
ACAD_MATERIAL
350
1A
  3
ACAD_MLINESTYLE
350
16
  3
ACAD_PLOTSETTINGS
350
18
  3
ACAD_PLOTSTYLENAME
350
E
  3
ACAD_TABLESTYLE
350
1C
  3
ACDBHEADERROUNDTRIPXREC
350
6F1
  3
AcDbVariableDictionary
350
6EC
  3
ADE_QUERY_LIBRARY
350
6EA
  3
AEC_VARS
350
428
  3
ASE_INDEX_DICTIONARY
350
6E6
  3
Autodesk_MAP
350
42A
  3
Root
350
403
1001
ADE
1000
ADE02C004
1000
[Query]
1000
CaseSensitiveMatch=0
1000
SaveCurrQueryInSession=1
1000
MkSelSetWithQryObj=0
1000
ShowBlockAsInsPt=0
1000
CreateAssociativeHatchObjects=0
1000
ReferenceBoundaryForAreaLocation=1
1000
ShowImageAsBoundary=1
1000
DefaultJoinOperator=2
1000
ColorForAdd=red
1000
ColorForRemove=red
1000
BlockLocnForQuery=1
1000
TextLocnForQuery=1
1000
IncludeAllObjectsInGroups=0
1000
AlwaysUseLibraryDefinitions=0
1000
PreviewDefinitionsFrom=2
1000
[Save Back]
1000
RedefineBlockDefinitions=1
1000
RedefineLayerDefinitions=1
1000
RedefineTextStyleDefinitions=1
1000
RemoveUnusedGroups=1
1000
EraseSavedBackObjects=1
1000
RemoveLockAfterSave=1
1000
CreateHistoryFileOfChanges=0
1000
CreateBackupFileOfSourceDwg=1
1000
DontAddObjectsToSaveSet=0
1000
MarkObjectsForEditingWithoutPrompting=0
1000
[Coordinate Transformation]
1000
RestoreLastActiveDwgsOnStartup=1
1000
ActivateDwgsOnAttach=1
1000
AdjustSizesAndScalesForChangesInUnits=1
1000
AdjustRotationsForMapDistortions=1
1000
AdjustSizesAndScalesForMapDistortions=1
1000
AdjustElevations=1
1000
AdjustZeroRotationObjects=1
1000
ReconnectDbOnWSOpen=1
1000
NoOfSQLConditionsInHistory=10
  0
DICTIONARY
  5
1B
102
{ACAD_REACTORS
330
C
102
}
330
C
100
AcDbDictionary
281
     1
  0
DICTIONARY
  5
D
102
{ACAD_REACTORS
330
C
102
}
330
C
100
AcDbDictionary
281
     1
  0
DICTIONARY
  5
19
102
{ACAD_REACTORS
330
C
102
}
330
C
100
AcDbDictionary
281
     1
  3
Model
350
25
  3
レイアウト1
350
21
  0
DICTIONARY
  5
1A
102
{ACAD_REACTORS
330
C
102
}
330
C
100
AcDbDictionary
281
     1
  0
DICTIONARY
  5
16
102
{ACAD_REACTORS
330
C
102
}
330
C
100
AcDbDictionary
281
     1
  3
Standard
350
17
  0
DICTIONARY
  5
18
102
{ACAD_REACTORS
330
C
102
}
330
C
100
AcDbDictionary
281
     1
  0
ACDBDICTIONARYWDFLT
  5
E
102
{ACAD_REACTORS
330
C
102
}
330
C
100
AcDbDictionary
281
     1
  3
Normal
350
F
100
AcDbDictionaryWithDefault
340
F
  0
DICTIONARY
  5
1C
102
{ACAD_REACTORS
330
C
102
}
330
C
100
AcDbDictionary
281
     1
  3
Legend
350
42E
  3
Standard
350
1D
  0
DICTIONARY
  5
6F1
102
{ACAD_REACTORS
330
C
102
}
330
C
100
AcDbDictionary
281
     1
  0
DICTIONARY
  5
6EC
102
{ACAD_REACTORS
330
C
102
}
330
C
100
AcDbDictionary
281
     1
  3
CTABLESTYLE
350
6ED
  3
DIMASSOC
350
6EE
  3
PROJECTNAME
350
6EF
  0
DICTIONARY
  5
6EA
102
{ACAD_REACTORS
330
C
102
}
330
C
100
AcDbDictionary
281
     1
  3
_CurrQry
350
6EB
  0
DICTIONARY
  5
428
102
{ACAD_REACTORS
330
C
102
}
330
C
100
AcDbDictionary
281
     1
  3
AEC_VARS_DWG_SETUP
350
429
  0
DICTIONARY
  5
6E6
102
{ACAD_REACTORS
330
C
102
}
330
C
100
AcDbDictionary
281
     1
  3
ASEBlockHierarchyIndexRecord
350
6E8
1001
DCO15
1040
1621943339.328
  0
DICTIONARY
  5
42A
102
{ACAD_REACTORS
330
C
102
}
330
C
100
AcDbDictionary
281
     1
  3
MAP_DISPLAY_MANAGEMENT_DICTIONARY
350
42B
  3
MAP_DISPLAY_STYLELIBRARY_DICTIONARY
350
42C
  0
LAYOUT
  5
25
102
{ACAD_XDICTIONARY
360
6F4
102
}
102
{ACAD_REACTORS
330
19
102
}
330
19
100
AcDbPlotSettings
  1

  2
DCColor a450_newosk
  4

  6

 40
0.0
 41
0.0
 42
0.0
 43
0.0
 44
0.0
 45
0.0
 46
0.0
 47
0.0
 48
0.0
 49
0.0
140
0.0
141
0.0
142
1.0
143
1.0
 70
  1712
 72
     0
 73
     0
 74
     0
  7

 75
     0
147
1.0
148
0.0
149
0.0
100
AcDbLayout
  1
Model
 70
     1
 71
     0
 10
0.0
 20
0.0
 11
12.0
 21
9.0
 12
0.0
 22
0.0
 32
0.0
 14
0.0
 24
0.0
 34
0.0
 15
0.0
 25
0.0
 35
0.0
146
0.0
 13
0.0
 23
0.0
 33
0.0
 16
1.0
 26
0.0
 36
0.0
 17
0.0
 27
1.0
 37
0.0
 76
     0
330
22
  0
LAYOUT
  5
21
102
{ACAD_XDICTIONARY
360
6F2
102
}
102
{ACAD_REACTORS
330
19
102
}
330
19
100
AcDbPlotSettings
  1

  2
DCColor a450_newosk
  4

  6

 40
0.0
 41
0.0
 42
0.0
 43
0.0
 44
0.0
 45
0.0
 46
0.0
 47
0.0
 48
0.0
 49
0.0
140
0.0
141
0.0
142
1.0
143
1.0
 70
   688
 72
     0
 73
     0
 74
     5
  7

 75
    16
147
1.0
148
0.0
149
0.0
100
AcDbLayout
  1
レイアウト1
 70
     1
 71
     1
 10
0.0
 20
0.0
 11
12.0
 21
9.0
 12
0.0
 22
0.0
 32
0.0
 14
1.000000000000000E+20
 24
1.000000000000000E+20
 34
1.000000000000000E+20
 15
-1.000000000000000E+20
 25
-1.000000000000000E+20
 35
-1.000000000000000E+20
146
0.0
 13
0.0
 23
0.0
 33
0.0
 16
1.0
 26
0.0
 36
0.0
 17
0.0
 27
1.0
 37
0.0
 76
     0
330
1E
  0
MLINESTYLE
  5
17
102
{ACAD_REACTORS
330
16
102
}
330
16
100
AcDbMlineStyle
  2
STANDARD
 70
     0
  3

 62
   256
 51
90.0
 52
90.0
 71
     2
 49
0.5
 62
   256
  6
BYLAYER
 49
-0.5
 62
   256
  6
BYLAYER
  0
ACDBPLACEHOLDER
  5
F
102
{ACAD_REACTORS
330
E
102
}
330
E
  0
TABLESTYLE
  5
42E
102
{ACAD_REACTORS
330
1C
102
}
330
1C
100
AcDbTableStyle
  3

 70
     0
 71
     1
 40
0.06
 41
0.06
280
     0
281
     0
  7
STANDARD
140
0.4
170
     4
 62
     0
 63
     7
283
     0
274
    -2
284
     0
 64
     0
275
    -2
285
     0
 65
     0
276
    -2
286
     1
 66
     0
277
    -2
287
     1
 67
     0
278
    -2
288
     0
 68
     0
279
    -2
289
     1
 69
     0
  7
STANDARD
140
0.5
170
     5
 62
     0
 63
     7
283
     0
274
    -2
284
     1
 64
     0
275
    -2
285
     0
 65
     0
276
    -2
286
     1
 66
     0
277
    -2
287
     1
 67
     0
278
    -2
288
     0
 68
     0
279
    -2
289
     1
 69
     0
  7
STANDARD
140
0.4
170
     4
 62
     0
 63
     7
283
     0
274
    -2
284
     1
 64
     0
275
    -2
285
     0
 65
     0
276
    -2
286
     1
 66
     0
277
    -2
287
     1
 67
     0
278
    -2
288
     0
 68
     0
279
    -2
289
     1
 69
     0
  0
TABLESTYLE
  5
1D
102
{ACAD_REACTORS
330
1C
102
}
330
1C
100
AcDbTableStyle
  3
Standard
 70
     0
 71
     0
 40
0.06
 41
0.06
280
     0
281
     0
  7
STANDARD
140
0.18
170
     2
 62
     0
 63
     7
283
     0
274
    -2
284
     1
 64
     0
275
    -2
285
     1
 65
     0
276
    -2
286
     1
 66
     0
277
    -2
287
     1
 67
     0
278
    -2
288
     1
 68
     0
279
    -2
289
     1
 69
     0
  7
STANDARD
140
0.25
170
     5
 62
     0
 63
     7
283
     0
274
    -2
284
     1
 64
     0
275
    -2
285
     1
 65
     0
276
    -2
286
     1
 66
     0
277
    -2
287
     1
 67
     0
278
    -2
288
     1
 68
     0
279
    -2
289
     1
 69
     0
  7
STANDARD
140
0.18
170
     5
 62
     0
 63
     7
283
     0
274
    -2
284
     1
 64
     0
275
    -2
285
     1
 65
     0
276
    -2
286
     1
 66
     0
277
    -2
287
     1
 67
     0
278
    -2
288
     1
 68
     0
279
    -2
289
     1
 69
     0
  0
DICTIONARYVAR
  5
6ED
102
{ACAD_REACTORS
330
6EC
102
}
330
6EC
100
DictionaryVariables
280
     0
  1
STANDARD
  0
DICTIONARYVAR
  5
6EE
102
{ACAD_REACTORS
330
6EC
102
}
330
6EC
100
DictionaryVariables
280
     0
  1
1
  0
DICTIONARYVAR
  5
6EF
102
{ACAD_REACTORS
330
6EC
102
}
330
6EC
100
DictionaryVariables
280
     0
  1

  0
XRECORD
  5
6EB
102
{ACAD_REACTORS
330
6EA
102
}
330
6EA
100
AcDbXrecord
280
     1
1000
ADE02C001
1070
     1
1070
     0
1002
{
1002
}
1002
{
1002
}
1002
{
1002
}
1000

  0
XRECORD
  5
6E8
102
{ACAD_REACTORS
330
6E6
102
}
330
6E6
100
AcDbXrecord
280
     1
  0
DMMAPMANAGER
  5
42B
102
{ACAD_REACTORS
330
42A
102
}
330
42A
100
AcDbDictionary
281
     1
  3
DisplayMap1
350
42D
100
AcDbDictionaryWithDefault
340
42D
100
AcMapDMMapManager
 70
     1
340
42D
  0
DMSTYLELIBRARY
  5
42C
102
{ACAD_REACTORS
330
42A
102
}
330
42A
100
AcMapDMStyleLibrary
 70
     1
 70
     1
360
432
  0
DICTIONARY
  5
6F4
330
25
100
AcDbDictionary
280
     1
281
     1
  3
ACAD_XREC_ROUNDTRIP
360
6F5
  0
DICTIONARY
  5
6F2
330
21
100
AcDbDictionary
280
     1
281
     1
  3
ACAD_XREC_ROUNDTRIP
360
6F3
  0
DMMAP
  5
42D
102
{ACAD_REACTORS
330
42B
330
42F
102
}
330
42B
100
AcMapDMMap
 70
     1
  1
既定値
 70
     1
330
0
100
AcMapDMMap
 70
     1
 90
        1
360
42F
 90
        1
 40
1.797693134862314E+99
 70
     1
100
AcMapDMMap
 70
     2
 70
     0
 40
1.797693134862314E+99
290
     0
290
     1
 40
1.0
 40
3.0
  1
Legend
 90
        1
 40
1.797693134862314E+99
  1

 70
     0
 40
100.0
 70
     1
 90
        0
 90
        1
360
430
  0
DMSTYLECATEGORY
  5
432
102
{ACAD_REACTORS
330
42C
102
}
330
42C
100
AcMapDMStyleCategory
 70
     1
  1
スタイルを表示
 70
     0
  0
XRECORD
  5
6F5
102
{ACAD_REACTORS
330
6F4
102
}
330
6F4
100
AcDbXrecord
280
     1
102
SHADEPLOT
 70
     0
102
SHADEPLOTRESLEVEL
 70
     2
102
SHADEPLOTCUSTOMDPI
 70
   300
  0
XRECORD
  5
6F3
102
{ACAD_REACTORS
330
6F2
102
}
330
6F2
100
AcDbXrecord
280
     1
102
SHADEPLOT
 70
     0
102
SHADEPLOTRESLEVEL
 70
     2
102
SHADEPLOTCUSTOMDPI
 70
   300
  0
DMBASEELEMENT
  5
42F
102
{ACAD_REACTORS
330
42D
102
}
330
42D
100
AcMapDMBaseElement
 70
     1
  1
マップ ベース
 70
     1
330
42D
100
AcMapDMBaseElement
 70
     1
  1

 70
     2
  1

 70
     1
 40
1.797693134862314E+99
 70
     1
 70
     1
 70
     1
 70
     1
360
431
100
AcMapDMBaseElement
 70
     1
  0
DMDEFAULTSTYLE
  5
430
102
{ACAD_REACTORS
330
42D
102
}
330
42D
100
AcMapDMDefaultStyle
 70
     1
 90
        1
  1
既定値
100
AcMapDMDefaultStyle
 70
     1
280
   100
 90
     0
  0
DMSTYLEREFERENCE
  5
431
330
42F
100
AcMapDMStyleReference
 70
     1
 70
     0
340
430
330
42D
  0
ENDSEC
  0
EOF
