  0
SECTION
  2
HEADER
  9
$ACADVER
  1
AC1015
  9
$ACADMAINTVER
 70
    20
  9
$DWGCODEPAGE
  3
ANSI_932
  9
$INSBASE
 10
0.0
 20
0.0
 30
0.0
  9
$EXTMIN
 10
-7938.902481452903
 20
3675.678046973979
 30
0.0
  9
$EXTMAX
 10
41319.54087377928
 20
29734.66744655357
 30
0.0
  9
$LIMMIN
 10
0.0
 20
0.0
  9
$LIMMAX
 10
42000.0
 20
29700.0
  9
$ORTHOMODE
 70
     0
  9
$REGENMODE
 70
     1
  9
$FILLMODE
 70
     1
  9
$QTEXTMODE
 70
     0
  9
$MIRRTEXT
 70
     0
  9
$LTSCALE
 40
100.0
  9
$ATTMODE
 70
     1
  9
$TEXTSIZE
 40
0.2
  9
$TRACEWID
 40
0.05
  9
$TEXTSTYLE
  7
STANDARD
  9
$CLAYER
  8
0
  9
$CELTYPE
  6
CONTINUOUS
  9
$CECOLOR
 62
   256
  9
$CELTSCALE
 40
1.0
  9
$DISPSILH
 70
     0
  9
$DIMSCALE
 40
40.0
  9
$DIMASZ
 40
0.18
  9
$DIMEXO
 40
0.0625
  9
$DIMDLI
 40
0.38
  9
$DIMRND
 40
0.0
  9
$DIMDLE
 40
0.0
  9
$DIMEXE
 40
0.18
  9
$DIMTP
 40
0.0
  9
$DIMTM
 40
0.0
  9
$DIMTXT
 40
0.18
  9
$DIMCEN
 40
0.09
  9
$DIMTSZ
 40
0.0
  9
$DIMTOL
 70
     0
  9
$DIMLIM
 70
     0
  9
$DIMTIH
 70
     1
  9
$DIMTOH
 70
     1
  9
$DIMSE1
 70
     0
  9
$DIMSE2
 70
     0
  9
$DIMTAD
 70
     0
  9
$DIMZIN
 70
     0
  9
$DIMBLK
  1

  9
$DIMASO
 70
     1
  9
$DIMSHO
 70
     1
  9
$DIMPOST
  1

  9
$DIMAPOST
  1

  9
$DIMALT
 70
     0
  9
$DIMALTD
 70
     2
  9
$DIMALTF
 40
25.4
  9
$DIMLFAC
 40
1.0
  9
$DIMTOFL
 70
     0
  9
$DIMTVP
 40
0.0
  9
$DIMTIX
 70
     0
  9
$DIMSOXD
 70
     0
  9
$DIMSAH
 70
     0
  9
$DIMBLK1
  1

  9
$DIMBLK2
  1

  9
$DIMSTYLE
  2
Standard
  9
$DIMCLRD
 70
     0
  9
$DIMCLRE
 70
     0
  9
$DIMCLRT
 70
     0
  9
$DIMTFAC
 40
1.0
  9
$DIMGAP
 40
0.09
  9
$DIMJUST
 70
     0
  9
$DIMSD1
 70
     0
  9
$DIMSD2
 70
     0
  9
$DIMTOLJ
 70
     1
  9
$DIMTZIN
 70
     0
  9
$DIMALTZ
 70
     0
  9
$DIMALTTZ
 70
     0
  9
$DIMUPT
 70
     0
  9
$DIMDEC
 70
     4
  9
$DIMTDEC
 70
     4
  9
$DIMALTU
 70
     2
  9
$DIMALTTD
 70
     2
  9
$DIMTXSTY
  7
STANDARD
  9
$DIMAUNIT
 70
     0
  9
$DIMADEC
 70
     0
  9
$DIMALTRND
 40
0.0
  9
$DIMAZIN
 70
     0
  9
$DIMDSEP
 70
    46
  9
$DIMATFIT
 70
     3
  9
$DIMFRAC
 70
     0
  9
$DIMLDRBLK
  1

  9
$DIMLUNIT
 70
     2
  9
$DIMLWD
 70
    -2
  9
$DIMLWE
 70
    -2
  9
$DIMTMOVE
 70
     0
  9
$LUNITS
 70
     2
  9
$LUPREC
 70
     4
  9
$SKETCHINC
 40
0.1
  9
$FILLETRAD
 40
0.0
  9
$AUNITS
 70
     0
  9
$AUPREC
 70
     0
  9
$MENU
  1
.
  9
$ELEVATION
 40
0.0
  9
$PELEVATION
 40
0.0
  9
$THICKNESS
 40
0.0
  9
$LIMCHECK
 70
     0
  9
$CHAMFERA
 40
0.0
  9
$CHAMFERB
 40
0.0
  9
$CHAMFERC
 40
0.0
  9
$CHAMFERD
 40
0.0
  9
$SKPOLY
 70
     0
  9
$TDCREATE
 40
2454575.691995984
  9
$TDUCREATE
 40
2454575.316995984
  9
$TDUPDATE
 40
2454575.697714479
  9
$TDUUPDATE
 40
2454575.322714479
  9
$TDINDWG
 40
0.0008995139
  9
$TDUSRTIMER
 40
0.0008984259
  9
$USRTIMER
 70
     1
  9
$ANGBASE
 50
0.0
  9
$ANGDIR
 70
     0
  9
$PDMODE
 70
     0
  9
$PDSIZE
 40
0.0
  9
$PLINEWID
 40
0.0
  9
$SPLFRAME
 70
     0
  9
$SPLINETYPE
 70
     6
  9
$SPLINESEGS
 70
     8
  9
$HANDSEED
  5
9F8
  9
$SURFTAB1
 70
     6
  9
$SURFTAB2
 70
     6
  9
$SURFTYPE
 70
     6
  9
$SURFU
 70
     6
  9
$SURFV
 70
     6
  9
$UCSBASE
  2

  9
$UCSNAME
  2

  9
$UCSORG
 10
0.0
 20
0.0
 30
0.0
  9
$UCSXDIR
 10
1.0
 20
0.0
 30
0.0
  9
$UCSYDIR
 10
0.0
 20
1.0
 30
0.0
  9
$UCSORTHOREF
  2

  9
$UCSORTHOVIEW
 70
     0
  9
$UCSORGTOP
 10
0.0
 20
0.0
 30
0.0
  9
$UCSORGBOTTOM
 10
0.0
 20
0.0
 30
0.0
  9
$UCSORGLEFT
 10
0.0
 20
0.0
 30
0.0
  9
$UCSORGRIGHT
 10
0.0
 20
0.0
 30
0.0
  9
$UCSORGFRONT
 10
0.0
 20
0.0
 30
0.0
  9
$UCSORGBACK
 10
0.0
 20
0.0
 30
0.0
  9
$PUCSBASE
  2

  9
$PUCSNAME
  2

  9
$PUCSORG
 10
0.0
 20
0.0
 30
0.0
  9
$PUCSXDIR
 10
1.0
 20
0.0
 30
0.0
  9
$PUCSYDIR
 10
0.0
 20
1.0
 30
0.0
  9
$PUCSORTHOREF
  2

  9
$PUCSORTHOVIEW
 70
     0
  9
$PUCSORGTOP
 10
0.0
 20
0.0
 30
0.0
  9
$PUCSORGBOTTOM
 10
0.0
 20
0.0
 30
0.0
  9
$PUCSORGLEFT
 10
0.0
 20
0.0
 30
0.0
  9
$PUCSORGRIGHT
 10
0.0
 20
0.0
 30
0.0
  9
$PUCSORGFRONT
 10
0.0
 20
0.0
 30
0.0
  9
$PUCSORGBACK
 10
0.0
 20
0.0
 30
0.0
  9
$USERI1
 70
     0
  9
$USERI2
 70
     0
  9
$USERI3
 70
     0
  9
$USERI4
 70
     0
  9
$USERI5
 70
     0
  9
$USERR1
 40
0.0
  9
$USERR2
 40
0.0
  9
$USERR3
 40
0.0
  9
$USERR4
 40
0.0
  9
$USERR5
 40
0.0
  9
$WORLDVIEW
 70
     1
  9
$SHADEDGE
 70
     3
  9
$SHADEDIF
 70
    70
  9
$TILEMODE
 70
     1
  9
$MAXACTVP
 70
    64
  9
$PINSBASE
 10
0.0
 20
0.0
 30
0.0
  9
$PLIMCHECK
 70
     0
  9
$PEXTMIN
 10
1.000000000000000E+20
 20
1.000000000000000E+20
 30
1.000000000000000E+20
  9
$PEXTMAX
 10
-1.000000000000000E+20
 20
-1.000000000000000E+20
 30
-1.000000000000000E+20
  9
$PLIMMIN
 10
0.0
 20
0.0
  9
$PLIMMAX
 10
12.0
 20
9.0
  9
$UNITMODE
 70
     0
  9
$VISRETAIN
 70
     1
  9
$PLINEGEN
 70
     0
  9
$PSLTSCALE
 70
     1
  9
$TREEDEPTH
 70
  3020
  9
$CMLSTYLE
  2
Standard
  9
$CMLJUST
 70
     0
  9
$CMLSCALE
 40
1.0
  9
$PROXYGRAPHICS
 70
     1
  9
$MEASUREMENT
 70
     0
  9
$CELWEIGHT
370
    -1
  9
$ENDCAPS
280
     0
  9
$JOINSTYLE
280
     0
  9
$LWDISPLAY
290
     0
  9
$INSUNITS
 70
     2
  9
$HYPERLINKBASE
  1

  9
$STYLESHEET
  1

  9
$XEDIT
290
     1
  9
$CEPSNTYPE
380
     0
  9
$PSTYLEMODE
290
     1
  9
$FINGERPRINTGUID
  2
{D6666FC4-01A5-4E87-B0ED-6FAF22BD999E}
  9
$VERSIONGUID
  2
{23FA51A4-8026-4355-ACB8-CB66BF83672D}
  9
$EXTNAMES
290
     1
  9
$PSVPSCALE
 40
0.0
  9
$OLESTARTUP
290
     0
  0
ENDSEC
  0
SECTION
  2
CLASSES
  0
CLASS
  1
ACDBDICTIONARYWDFLT
  2
AcDbDictionaryWithDefault
  3
ObjectDBX Classes
 90
        0
280
     0
281
     0
  0
CLASS
  1
TABLESTYLE
  2
AcDbTableStyle
  3
ObjectDBX Classes
 90
     2047
280
     0
281
     0
  0
CLASS
  1
AECC_TREE_NODE
  2
AeccDbTreeNode
  3
AeccvBase10|Product Desc: Autodesk Civil 3D |Company: Autodesk,Inc. |WEB Address: www.autodesk.com
 90
     1023
280
     0
281
     0
  0
CLASS
  1
AECC_CLASS_NODE
  2
AeccDbClassNode
  3
AeccLand10|Product Desc: Autodesk Civil 3D |Company: Autodesk,Inc. |WEB Address: www.autodesk.com
 90
     1023
280
     0
281
     0
  0
CLASS
  1
AECC_ROOT_SETTINGS_NODE
  2
AeccDbRootSettingsNode
  3
AeccvBase10|Product Desc: Autodesk Civil 3D |Company: Autodesk,Inc. |WEB Address: www.autodesk.com
 90
     1023
280
     0
281
     0
  0
CLASS
  1
AEC_VARS_DWG_SETUP
  2
AecDbVarsDwgSetup
  3
AecBase40|Product Desc: Autodesk Architectural Desktop 2005 |Company: Autodesk,Inc. |WEB Address: www.autodesk.com
 90
      129
280
     0
281
     0
  0
CLASS
  1
DMMAPMANAGER
  2
AcMapDMMapManager
  3
AcMapDisplayManagement
 90
     1024
280
     0
281
     0
  0
CLASS
  1
DMSTYLELIBRARY
  2
AcMapDMStyleLibrary
  3
AcMapDisplayManagement
 90
     1024
280
     0
281
     0
  0
CLASS
  1
DMMAP
  2
AcMapDMMap
  3
AcMapDisplayManagement
 90
     1024
280
     0
281
     0
  0
CLASS
  1
DMBASEELEMENT
  2
AcMapDMBaseElement
  3
AcMapDisplayManagement
 90
     1024
280
     0
281
     0
  0
CLASS
  1
DMDEFAULTSTYLE
  2
AcMapDMDefaultStyle
  3
AcMapDisplayManagement
 90
     1024
280
     0
281
     0
  0
CLASS
  1
DMSTYLEREFERENCE
  2
AcMapDMStyleReference
  3
AcMapDisplayManagement
 90
     1024
280
     0
281
     0
  0
CLASS
  1
DMSTYLECATEGORY
  2
AcMapDMStyleCategory
  3
AcMapDisplayManagement
 90
     1024
280
     0
281
     0
  0
CLASS
  1
AECC_SETTINGS_NODE
  2
AeccDbSettingsNode
  3
AeccvBase10|Product Desc: Autodesk Civil 3D |Company: Autodesk,Inc. |WEB Address: www.autodesk.com
 90
     1023
280
     0
281
     0
  0
CLASS
  1
AECC_PROFILE_VIEW_STYLE
  2
AeccDbGraphStyleProfile
  3
AeccLand10|Product Desc: Autodesk Civil 3D |Company: Autodesk,Inc. |WEB Address: www.autodesk.com
 90
      129
280
     0
281
     0
  0
CLASS
  1
AECC_PROFILE_VIEW_BAND_STYLE_SET
  2
AeccDbGraphProfileBandStyleSet
  3
AeccLand10|Product Desc: Autodesk Civil 3D |Company: Autodesk,Inc. |WEB Address: www.autodesk.com
 90
      129
280
     0
281
     0
  0
CLASS
  1
AECC_PROFILE_VIEW_DATA_BAND_STYLE
  2
AeccDbGraphStyleProfileDataBands
  3
AeccLand10|Product Desc: Autodesk Civil 3D |Company: Autodesk,Inc. |WEB Address: www.autodesk.com
 90
      129
280
     0
281
     0
  0
CLASS
  1
AECC_LABEL_NODE
  2
AeccDbLabelNode
  3
AeccLand10|Product Desc: Autodesk Civil 3D |Company: Autodesk,Inc. |WEB Address: www.autodesk.com
 90
     1023
280
     0
281
     0
  0
CLASS
  1
AECC_LABEL_COLLECTOR_STYLE
  2
AeccDbLabelStyleCollector
  3
AeccLand10|Product Desc: Autodesk Civil 3D |Company: Autodesk,Inc. |WEB Address: www.autodesk.com
 90
     1023
280
     0
281
     0
  0
CLASS
  1
AECC_LABEL_TEXT_STYLE
  2
AeccDbLabelStyleText
  3
AeccLand10|Product Desc: Autodesk Civil 3D |Company: Autodesk,Inc. |WEB Address: www.autodesk.com
 90
     1023
280
     0
281
     0
  0
CLASS
  1
AECC_PROFILE_VIEW_HORIZONTAL_GEOMETRY_BAND_STYLE
  2
AeccDbGraphStyleHorGeometryBands
  3
AeccLand10|Product Desc: Autodesk Civil 3D |Company: Autodesk,Inc. |WEB Address: www.autodesk.com
 90
      129
280
     0
281
     0
  0
CLASS
  1
AECC_PROFILE_VIEW_VERTICAL_GEOMETRY_BAND_STYLE
  2
AeccDbGraphStyleVertGeometryBands
  3
AeccLand10|Product Desc: Autodesk Civil 3D |Company: Autodesk,Inc. |WEB Address: www.autodesk.com
 90
      129
280
     0
281
     0
  0
CLASS
  1
AECC_LABEL_RADIAL_LINE_STYLE
  2
AeccDbLabelStyleRadialLine
  3
AeccLand10|Product Desc: Autodesk Civil 3D |Company: Autodesk,Inc. |WEB Address: www.autodesk.com
 90
     1023
280
     0
281
     0
  0
CLASS
  1
AECC_POINT_STYLE
  2
AeccDbPointStyle
  3
AeccLand10|Product Desc: Autodesk Civil 3D |Company: Autodesk,Inc. |WEB Address: www.autodesk.com
 90
      895
280
     0
281
     0
  0
CLASS
  1
AECC_PROFILE_LABEL_SET
  2
AeccDbVAlignStnLabelsDlgTemplate
  3
AeccLand10|Product Desc: Autodesk Civil 3D |Company: Autodesk,Inc. |WEB Address: www.autodesk.com
 90
     1023
280
     0
281
     0
  0
CLASS
  1
AECC_SECTION_VIEW_STYLE
  2
AeccDbGraphStyleCrossSection
  3
AeccLand10|Product Desc: Autodesk Civil 3D |Company: Autodesk,Inc. |WEB Address: www.autodesk.com
 90
      129
280
     0
281
     0
  0
CLASS
  1
AECC_SECTION_VIEW_BAND_STYLE_SET
  2
AeccDbGraphSectionBandStyleSet
  3
AeccLand10|Product Desc: Autodesk Civil 3D |Company: Autodesk,Inc. |WEB Address: www.autodesk.com
 90
      129
280
     0
281
     0
  0
CLASS
  1
AECC_SECTION_VIEW_DATA_BAND_STYLE
  2
AeccDbGraphStyleSectionDataBands
  3
AeccLand10|Product Desc: Autodesk Civil 3D |Company: Autodesk,Inc. |WEB Address: www.autodesk.com
 90
      129
280
     0
281
     0
  0
CLASS
  1
AECC_SECTION_LABEL_SET
  2
AeccDbSectionLabelsDlgTemplate
  3
AeccLand10|Product Desc: Autodesk Civil 3D |Company: Autodesk,Inc. |WEB Address: www.autodesk.com
 90
     1023
280
     0
281
     0
  0
CLASS
  1
AECC_ALIGNMENT_STYLE
  2
AeccDbAlignmentStyle
  3
AeccLand10|Product Desc: Autodesk Civil 3D |Company: Autodesk,Inc. |WEB Address: www.autodesk.com
 90
     1023
280
     0
281
     0
  0
CLASS
  1
AECC_LABEL_VECTOR_ARROW_STYLE
  2
AeccDbLabelStyleVectorArrow
  3
AeccLand10|Product Desc: Autodesk Civil 3D |Company: Autodesk,Inc. |WEB Address: www.autodesk.com
 90
     1023
280
     0
281
     0
  0
CLASS
  1
AECC_ALIGNMENT_LABEL_SET
  2
AeccDbAlignStnLabelsDlgTemplate
  3
AeccLand10|Product Desc: Autodesk Civil 3D |Company: Autodesk,Inc. |WEB Address: www.autodesk.com
 90
     1023
280
     0
281
     0
  0
CLASS
  1
AECC_SURFACE_STYLE
  2
AeccDbSurfaceStyle
  3
AeccLand10|Product Desc: Autodesk Civil 3D |Company: Autodesk,Inc. |WEB Address: www.autodesk.com
 90
      129
280
     0
281
     0
  0
CLASS
  1
AECC_LEGEND_TABLE_STYLE
  2
AeccDbLegendScheduleTableStyle
  3
AeccLand10|Product Desc: Autodesk Civil 3D |Company: Autodesk,Inc. |WEB Address: www.autodesk.com
 90
     1023
280
     0
281
     0
  0
CLASS
  1
AECC_SECTION_STYLE
  2
AeccDbSectionStyle
  3
AeccLand10|Product Desc: Autodesk Civil 3D |Company: Autodesk,Inc. |WEB Address: www.autodesk.com
 90
     1023
280
     0
281
     0
  0
CLASS
  1
AECC_GRADING_STYLE
  2
AeccDbGradingStyle
  3
AeccLand10|Product Desc: Autodesk Civil 3D |Company: Autodesk,Inc. |WEB Address: www.autodesk.com
 90
     1023
280
     0
281
     0
  0
CLASS
  1
AECC_GRADING_CRITERIA
  2
AeccDbGradingCriteria
  3
AeccLand10|Product Desc: Autodesk Civil 3D |Company: Autodesk,Inc. |WEB Address: www.autodesk.com
 90
     1023
280
     0
281
     0
  0
CLASS
  1
AECC_PARCEL_STYLE
  2
AeccDbParcelStyle
  3
AeccLand10|Product Desc: Autodesk Civil 3D |Company: Autodesk,Inc. |WEB Address: www.autodesk.com
 90
      129
280
     0
281
     0
  0
CLASS
  1
AECC_SAMPLE_LINE_GROUP_STYLE
  2
AeccDbSampleLineGroupStyle
  3
AeccLand10|Product Desc: Autodesk Civil 3D |Company: Autodesk,Inc. |WEB Address: www.autodesk.com
 90
      129
280
     0
281
     0
  0
CLASS
  1
AECC_SHEET_STYLE
  2
AeccDbSheetStyle
  3
AeccLand10|Product Desc: Autodesk Civil 3D |Company: Autodesk,Inc. |WEB Address: www.autodesk.com
 90
      129
280
     0
281
     0
  0
CLASS
  1
AECC_SAMPLE_LINE_STYLE
  2
AeccDbSampleLineStyle
  3
AeccLand10|Product Desc: Autodesk Civil 3D |Company: Autodesk,Inc. |WEB Address: www.autodesk.com
 90
     1023
280
     0
281
     0
  0
CLASS
  1
AECC_PROFILE_STYLE
  2
AeccDbVAlignmentStyle
  3
AeccLand10|Product Desc: Autodesk Civil 3D |Company: Autodesk,Inc. |WEB Address: www.autodesk.com
 90
     1023
280
     0
281
     0
  0
CLASS
  1
AECC_STATION_FORMAT_STYLE
  2
AeccDbStationFormatStyle
  3
AeccLand10|Product Desc: Autodesk Civil 3D |Company: Autodesk,Inc. |WEB Address: www.autodesk.com
 90
     1023
280
     0
281
     0
  0
CLASS
  1
AECC_TABLE_STYLE
  2
AeccDbScheduleTableStyle
  3
AeccLand10|Product Desc: Autodesk Civil 3D |Company: Autodesk,Inc. |WEB Address: www.autodesk.com
 90
     1023
280
     0
281
     0
  0
CLASS
  1
AECC_GRADING_CRITERIA_SET
  2
AeccDbGradingCriteriaSet
  3
AeccLand10|Product Desc: Autodesk Civil 3D |Company: Autodesk,Inc. |WEB Address: www.autodesk.com
 90
     1023
280
     0
281
     0
  0
CLASS
  1
AECC_FORMAT_MANAGER_OBJECT
  2
AeccDbFormatManagerObject
  3
AeccLand10|Product Desc: Autodesk Civil 3D |Company: Autodesk,Inc. |WEB Address: www.autodesk.com
 90
     1023
280
     0
281
     0
  0
CLASS
  1
AECC_POINT_DESCRIPTION_KEY_SET_NODE
  2
AeccDbPointDescKeySetsNode
  3
AeccvBase10|Product Desc: Autodesk Civil 3D |Company: Autodesk,Inc. |WEB Address: www.autodesk.com
 90
     1023
280
     0
281
     0
  0
CLASS
  1
DICTIONARYVAR
  2
AcDbDictionaryVar
  3
ObjectDBX Classes
 90
        0
280
     0
281
     0
  0
CLASS
  1
ACDBPLACEHOLDER
  2
AcDbPlaceHolder
  3
ObjectDBX Classes
 90
        0
280
     0
281
     0
  0
CLASS
  1
LAYOUT
  2
AcDbLayout
  3
ObjectDBX Classes
 90
        0
280
     0
281
     0
  0
ENDSEC
  0
SECTION
  2
TABLES
  0
TABLE
  2
VPORT
  5
8
330
0
100
AcDbSymbolTable
 70
     2
  0
VPORT
  5
9F2
330
8
100
AcDbSymbolTableRecord
100
AcDbViewportTableRecord
  2
*Active
 70
     0
 10
0.0
 20
0.0
 11
1.0
 21
1.0
 12
44274.81105846009
 22
19669.34176783085
 13
0.0
 23
0.0
 14
1.0
 24
1.0
 15
0.0
 25
0.0
 16
0.0
 26
0.0
 36
1.0
 17
0.0
 27
0.0
 37
0.0
 40
45120.86339086786
 41
1.937399678972712
 42
50.0
 43
0.0
 44
0.0
 50
0.0
 51
0.0
 71
     0
 72
   100
 73
     1
 74
     1
 75
     0
 76
     0
 77
     0
 78
     0
281
     0
 65
     1
110
0.0
120
0.0
130
0.0
111
1.0
121
0.0
131
0.0
112
0.0
122
1.0
132
0.0
 79
     0
146
0.0
  0
ENDTAB
  0
TABLE
  2
LTYPE
  5
5
330
0
100
AcDbSymbolTable
 70
    35
  0
LTYPE
  5
13
330
5
100
AcDbSymbolTableRecord
100
AcDbLinetypeTableRecord
  2
ByBlock
 70
     0
  3

 72
    65
 73
     0
 40
0.0
  0
LTYPE
  5
14
330
5
100
AcDbSymbolTableRecord
100
AcDbLinetypeTableRecord
  2
ByLayer
 70
     0
  3

 72
    65
 73
     0
 40
0.0
  0
LTYPE
  5
15
330
5
100
AcDbSymbolTableRecord
100
AcDbLinetypeTableRecord
  2
CONTINUOUS
 70
     0
  3
実線
 72
    65
 73
     0
 40
0.0
  0
LTYPE
  5
26
330
5
100
AcDbSymbolTableRecord
100
AcDbLinetypeTableRecord
  2
DASHED1
 70
     0
  3
--  --  --  --  --  --  --  --  
 72
    65
 73
     2
 40
2.5
 49
1.25
 74
     0
 49
-1.25
 74
     0
  0
LTYPE
  5
27
330
5
100
AcDbSymbolTableRecord
100
AcDbLinetypeTableRecord
  2
DASHED2
 70
     0
  3
----    ----    ----    ----    
 72
    65
 73
     2
 40
5.0
 49
2.5
 74
     0
 49
-2.5
 74
     0
  0
LTYPE
  5
28
330
5
100
AcDbSymbolTableRecord
100
AcDbLinetypeTableRecord
  2
DASHED3
 70
     0
  3
------  ------  ------  ------  
 72
    65
 73
     2
 40
5.0
 49
3.75
 74
     0
 49
-1.25
 74
     0
  0
LTYPE
  5
29
330
5
100
AcDbSymbolTableRecord
100
AcDbLinetypeTableRecord
  2
CENTER1
 70
     0
  3
----- - ----- - ----- - ----- - 
 72
    65
 73
     4
 40
10.0
 49
6.25
 74
     0
 49
-1.25
 74
     0
 49
1.25
 74
     0
 49
-1.25
 74
     0
  0
LTYPE
  5
2A
330
5
100
AcDbSymbolTableRecord
100
AcDbLinetypeTableRecord
  2
CENTER2
 70
     0
  3
----------  --  ----------  --  
 72
    65
 73
     4
 40
20.0
 49
12.5
 74
     0
 49
-2.5
 74
     0
 49
2.5
 74
     0
 49
-2.5
 74
     0
  0
LTYPE
  5
2B
330
5
100
AcDbSymbolTableRecord
100
AcDbLinetypeTableRecord
  2
PHANTOM1
 70
     0
  3
--- - - --- - - --- - - --- - - 
 72
    65
 73
     6
 40
10.0
 49
3.25
 74
     0
 49
-1.25
 74
     0
 49
1.25
 74
     0
 49
-1.25
 74
     0
 49
1.25
 74
     0
 49
-1.25
 74
     0
  0
LTYPE
  5
2C
330
5
100
AcDbSymbolTableRecord
100
AcDbLinetypeTableRecord
  2
PHANTOM2
 70
     0
  3
--------  -  -  --------  -  -  
 72
    65
 73
     6
 40
20.0
 49
10.0
 74
     0
 49
-2.5
 74
     0
 49
1.25
 74
     0
 49
-2.5
 74
     0
 49
1.25
 74
     0
 49
-2.5
 74
     0
  0
LTYPE
  5
2D
330
5
100
AcDbSymbolTableRecord
100
AcDbLinetypeTableRecord
  2
DOT
 70
     0
  3
-   -   -   -   -   -   -   -   
 72
    65
 73
     2
 40
2.5
 49
0.625
 74
     0
 49
-1.875
 74
     0
  0
LTYPE
  5
2E
330
5
100
AcDbSymbolTableRecord
100
AcDbLinetypeTableRecord
  2
DUMMY
 70
     0
  3
ダミー
 72
    65
 73
     0
 40
0.0
  0
LTYPE
  5
2F
330
5
100
AcDbSymbolTableRecord
100
AcDbLinetypeTableRecord
  2
RAND1
 70
     0
  3
ランダム線1
 72
    65
 73
     4
 40
10.0
 49
1.0
 74
     0
 49
-2.0
 74
     0
 49
3.0
 74
     0
 49
-4.0
 74
     0
  0
LTYPE
  5
30
330
5
100
AcDbSymbolTableRecord
100
AcDbLinetypeTableRecord
  2
RAND2
 70
     0
  3
ランダム線2
 72
    65
 73
     4
 40
14.0
 49
2.0
 74
     0
 49
-3.0
 74
     0
 49
4.0
 74
     0
 49
-5.0
 74
     0
  0
LTYPE
  5
31
330
5
100
AcDbSymbolTableRecord
100
AcDbLinetypeTableRecord
  2
RAND3
 70
     0
  3
ランダム線3
 72
    65
 73
     4
 40
18.0
 49
3.0
 74
     0
 49
-4.0
 74
     0
 49
5.0
 74
     0
 49
-6.0
 74
     0
  0
LTYPE
  5
32
330
5
100
AcDbSymbolTableRecord
100
AcDbLinetypeTableRecord
  2
RAND4
 70
     0
  3
ランダム線4
 72
    65
 73
     4
 40
22.0
 49
4.0
 74
     0
 49
-5.0
 74
     0
 49
6.0
 74
     0
 49
-7.0
 74
     0
  0
LTYPE
  5
33
330
5
100
AcDbSymbolTableRecord
100
AcDbLinetypeTableRecord
  2
RAND5
 70
     0
  3
ランダム線5
 72
    65
 73
     4
 40
26.0
 49
5.0
 74
     0
 49
-6.0
 74
     0
 49
7.0
 74
     0
 49
-8.0
 74
     0
  0
LTYPE
  5
34
330
5
100
AcDbSymbolTableRecord
100
AcDbLinetypeTableRecord
  2
LONG1
 70
     0
  3
----------  --  ----------  --  
 72
    65
 73
     4
 40
40.0
 49
32.5
 74
     0
 49
-2.5
 74
     0
 49
2.5
 74
     0
 49
-2.5
 74
     0
  0
LTYPE
  5
35
330
5
100
AcDbSymbolTableRecord
100
AcDbLinetypeTableRecord
  2
LONG2
 70
     0
  3
--------  -  -  --------  -  -  
 72
    65
 73
     6
 40
40.0
 49
30.0
 74
     0
 49
-2.5
 74
     0
 49
1.25
 74
     0
 49
-2.5
 74
     0
 49
1.25
 74
     0
 49
-2.5
 74
     0
  0
LTYPE
  5
36
330
5
100
AcDbSymbolTableRecord
100
AcDbLinetypeTableRecord
  2
LONG3
 70
     0
  3
+++++++++++++++..+++++++++++++++
 72
    65
 73
     2
 40
40.0
 49
37.5
 74
     0
 49
-2.5
 74
     0
  0
LTYPE
  5
37
330
5
100
AcDbSymbolTableRecord
100
AcDbLinetypeTableRecord
  2
LONG4
 70
     0
  3
+++++++++++++++..+++++++++++++++
 72
    65
 73
     2
 40
80.0
 49
75.0
 74
     0
 49
-5.0
 74
     0
  0
LTYPE
  5
38
330
5
100
AcDbSymbolTableRecord
100
AcDbLinetypeTableRecord
  2
LONG5
 70
     0
  3
----------  --  ----------  --  
 72
    65
 73
     4
 40
60.0
 49
37.5
 74
     0
 49
-7.5
 74
     0
 49
7.5
 74
     0
 49
-7.5
 74
     0
  0
LTYPE
  5
39
330
5
100
AcDbSymbolTableRecord
100
AcDbLinetypeTableRecord
  2
DASHED
 70
     0
  3
-------   -------------   ------
 72
    65
 73
     2
 40
7.5
 49
6.0
 74
     0
 49
-1.5
 74
     0
  0
LTYPE
  5
3A
330
5
100
AcDbSymbolTableRecord
100
AcDbLinetypeTableRecord
  2
DASHED_SPACED
 70
     0
  3
----        --------        ----
 72
    65
 73
     2
 40
12.0
 49
6.0
 74
     0
 49
-6.0
 74
     0
  0
LTYPE
  5
3B
330
5
100
AcDbSymbolTableRecord
100
AcDbLinetypeTableRecord
  2
LONG_DASHED_DOTTED
 70
     0
  3
------------- --- --------------
 72
    65
 73
     4
 40
15.25
 49
12.0
 74
     0
 49
-1.5
 74
     0
 49
0.25
 74
     0
 49
-1.5
 74
     0
  0
LTYPE
  5
3C
330
5
100
AcDbSymbolTableRecord
100
AcDbLinetypeTableRecord
  2
LONG_DASHED_DOUBLE-DOTTED
 70
     0
  3
----------- --- --- ------------
 72
    65
 73
     6
 40
17.0
 49
12.0
 74
     0
 49
-1.5
 74
     0
 49
0.25
 74
     0
 49
-1.5
 74
     0
 49
0.25
 74
     0
 49
-1.5
 74
     0
  0
LTYPE
  5
3D
330
5
100
AcDbSymbolTableRecord
100
AcDbLinetypeTableRecord
  2
LONG_DASHED_TRIPLICATE-DOTTED
 70
     0
  3
--------- --- --- --- ----------
 72
    65
 73
     8
 40
18.75
 49
12.0
 74
     0
 49
-1.5
 74
     0
 49
0.25
 74
     0
 49
-1.5
 74
     0
 49
0.25
 74
     0
 49
-1.5
 74
     0
 49
0.25
 74
     0
 49
-1.5
 74
     0
  0
LTYPE
  5
3E
330
5
100
AcDbSymbolTableRecord
100
AcDbLinetypeTableRecord
  2
DOTTED
 70
     0
  3
   -       -       -       -    
 72
    65
 73
     2
 40
1.75
 49
0.25
 74
     0
 49
-1.5
 74
     0
  0
LTYPE
  5
3F
330
5
100
AcDbSymbolTableRecord
100
AcDbLinetypeTableRecord
  2
CHAIN
 70
     0
  3
-------------- -- --------------
 72
    65
 73
     4
 40
18.5
 49
12.0
 74
     0
 49
-1.5
 74
     0
 49
3.5
 74
     0
 49
-1.5
 74
     0
  0
LTYPE
  5
40
330
5
100
AcDbSymbolTableRecord
100
AcDbLinetypeTableRecord
  2
CHAIN_DOUBLE_DASH
 70
     0
  3
------------ -- -- -------------
 72
    65
 73
     6
 40
23.5
 49
12.0
 74
     0
 49
-1.5
 74
     0
 49
3.5
 74
     0
 49
-1.5
 74
     0
 49
3.5
 74
     0
 49
-1.5
 74
     0
  0
LTYPE
  5
41
330
5
100
AcDbSymbolTableRecord
100
AcDbLinetypeTableRecord
  2
DASHED_DOTTED
 70
     0
  3
-----------     -     ----------
 72
    65
 73
     4
 40
9.25
 49
6.0
 74
     0
 49
-1.5
 74
     0
 49
0.25
 74
     0
 49
-1.5
 74
     0
  0
LTYPE
  5
42
330
5
100
AcDbSymbolTableRecord
100
AcDbLinetypeTableRecord
  2
DOUBLE-DASHED_DOTTED
 70
     0
  3
------   -----------   -   -----
 72
    65
 73
     6
 40
16.75
 49
6.0
 74
     0
 49
-1.5
 74
     0
 49
6.0
 74
     0
 49
-1.5
 74
     0
 49
0.25
 74
     0
 49
-1.5
 74
     0
  0
LTYPE
  5
43
330
5
100
AcDbSymbolTableRecord
100
AcDbLinetypeTableRecord
  2
DASHED_DOUBLE-DOTTED
 70
     0
  3
---------    -    -    ---------
 72
    65
 73
     6
 40
11.0
 49
6.0
 74
     0
 49
-1.5
 74
     0
 49
0.25
 74
     0
 49
-1.5
 74
     0
 49
0.25
 74
     0
 49
-1.5
 74
     0
  0
LTYPE
  5
44
330
5
100
AcDbSymbolTableRecord
100
AcDbLinetypeTableRecord
  2
DOUBLE-DASHED_DOUBLE-DOTTED
 70
     0
  3
-----   ---------   -   -   ----
 72
    65
 73
     8
 40
18.5
 49
6.0
 74
     0
 49
-1.5
 74
     0
 49
6.0
 74
     0
 49
-1.5
 74
     0
 49
0.25
 74
     0
 49
-1.5
 74
     0
 49
0.25
 74
     0
 49
-1.5
 74
     0
  0
LTYPE
  5
45
330
5
100
AcDbSymbolTableRecord
100
AcDbLinetypeTableRecord
  2
DASHED_TRIPLICATE-DOTTED
 70
     0
  3
-------    -    -    -    ------
 72
    65
 73
     8
 40
12.75
 49
6.0
 74
     0
 49
-1.5
 74
     0
 49
0.25
 74
     0
 49
-1.5
 74
     0
 49
0.25
 74
     0
 49
-1.5
 74
     0
 49
0.25
 74
     0
 49
-1.5
 74
     0
  0
LTYPE
  5
46
330
5
100
AcDbSymbolTableRecord
100
AcDbLinetypeTableRecord
  2
DOUBLE-DASHED_TRIPLICATE-DOTTED
 70
     0
  3
-----  ---------  -  -  -  -----
 72
    65
 73
    10
 40
20.25
 49
6.0
 74
     0
 49
-1.5
 74
     0
 49
6.0
 74
     0
 49
-1.5
 74
     0
 49
0.25
 74
     0
 49
-1.5
 74
     0
 49
0.25
 74
     0
 49
-1.5
 74
     0
 49
0.25
 74
     0
 49
-1.5
 74
     0
  0
LTYPE
  5
47
330
5
100
AcDbSymbolTableRecord
100
AcDbLinetypeTableRecord
  2
UNDEFINED
 70
     0
  3
--------------------------------
 72
    65
 73
     0
 40
0.0
  0
ENDTAB
  0
TABLE
  2
LAYER
  5
2
330
0
100
AcDbSymbolTable
 70
     9
  0
LAYER
  5
10
330
2
100
AcDbSymbolTableRecord
100
AcDbLayerTableRecord
  2
0
 70
     0
 62
     7
  6
CONTINUOUS
370
    -3
390
F
  0
LAYER
  5
49
330
2
100
AcDbSymbolTableRecord
100
AcDbLayerTableRecord
  2
_0-0_
 70
     0
 62
     7
  6
CONTINUOUS
370
    -3
390
F
  0
LAYER
  5
4A
330
2
100
AcDbSymbolTableRecord
100
AcDbLayerTableRecord
  2
_0-2_
 70
     0
 62
     7
  6
CONTINUOUS
370
    -3
390
F
  0
LAYER
  5
4B
330
2
100
AcDbSymbolTableRecord
100
AcDbLayerTableRecord
  2
_0-3_
 70
     0
 62
     7
  6
CONTINUOUS
370
    -3
390
F
  0
LAYER
  5
4C
330
2
100
AcDbSymbolTableRecord
100
AcDbLayerTableRecord
  2
_0-6_
 70
     0
 62
     7
  6
CONTINUOUS
370
    -3
390
F
  0
LAYER
  5
4D
330
2
100
AcDbSymbolTableRecord
100
AcDbLayerTableRecord
  2
_0-9_
 70
     0
 62
     7
  6
CONTINUOUS
370
    -3
390
F
  0
LAYER
  5
4E
330
2
100
AcDbSymbolTableRecord
100
AcDbLayerTableRecord
  2
_0-B_
 70
     0
 62
     7
  6
CONTINUOUS
370
    -3
390
F
  0
LAYER
  5
4F
330
2
100
AcDbSymbolTableRecord
100
AcDbLayerTableRecord
  2
_0-F_
 70
     0
 62
     7
  6
CONTINUOUS
370
    -3
390
F
  0
LAYER
  5
50
330
2
100
AcDbSymbolTableRecord
100
AcDbLayerTableRecord
  2
ADD_LINE
 70
     0
 62
     7
  6
CONTINUOUS
370
    -3
390
F
  0
ENDTAB
  0
TABLE
  2
STYLE
  5
3
330
0
100
AcDbSymbolTable
 70
     2
  0
STYLE
  5
11
330
3
100
AcDbSymbolTableRecord
100
AcDbTextStyleTableRecord
  2
STANDARD
 70
     0
 40
0.0
 41
1.0
 50
0.0
 71
     0
 42
0.2
  3
MS Gothic.ttf
  4

1001
ACAD
1000
MS Gothic
1071
    32817
  0
STYLE
  5
48
330
3
100
AcDbSymbolTableRecord
100
AcDbTextStyleTableRecord
  2
TATEGAKI
 70
     4
 40
0.0
 41
1.0
 50
0.0
 71
     0
 42
1.0
  3
txt
  4
bigfont.shx
  0
ENDTAB
  0
TABLE
  2
VIEW
  5
6
330
0
100
AcDbSymbolTable
 70
     0
  0
ENDTAB
  0
TABLE
  2
UCS
  5
7
330
0
100
AcDbSymbolTable
 70
     0
  0
ENDTAB
  0
TABLE
  2
APPID
  5
9
330
0
100
AcDbSymbolTable
 70
     3
  0
APPID
  5
12
330
9
100
AcDbSymbolTableRecord
100
AcDbRegAppTableRecord
  2
ACAD
 70
     0
  0
APPID
  5
705
330
9
100
AcDbSymbolTableRecord
100
AcDbRegAppTableRecord
  2
DCO15
 70
     0
  0
APPID
  5
707
330
9
100
AcDbSymbolTableRecord
100
AcDbRegAppTableRecord
  2
ADE
 70
     0
  0
ENDTAB
  0
TABLE
  2
DIMSTYLE
  5
A
330
0
100
AcDbSymbolTable
 70
     1
100
AcDbDimStyleTable
 71
     0
  0
DIMSTYLE
105
420
330
A
100
AcDbSymbolTableRecord
100
AcDbDimStyleTableRecord
  2
Standard
 70
     0
340
11
  0
ENDTAB
  0
TABLE
  2
BLOCK_RECORD
  5
1
330
0
100
AcDbSymbolTable
 70
     0
  0
BLOCK_RECORD
  5
22
330
1
100
AcDbSymbolTableRecord
100
AcDbBlockTableRecord
  2
*Model_Space
340
25
  0
BLOCK_RECORD
  5
1E
330
1
100
AcDbSymbolTableRecord
100
AcDbBlockTableRecord
  2
*Paper_Space
340
21
  0
ENDTAB
  0
ENDSEC
  0
SECTION
  2
BLOCKS
  0
BLOCK
  5
23
330
22
100
AcDbEntity
  8
0
100
AcDbBlockBegin
  2
*Model_Space
 70
     0
 10
0.0
 20
0.0
 30
0.0
  3
*Model_Space
  1

  0
ENDBLK
  5
24
330
22
100
AcDbEntity
  8
0
100
AcDbBlockEnd
  0
BLOCK
  5
1F
330
1E
100
AcDbEntity
 67
     1
  8
0
100
AcDbBlockBegin
  2
*Paper_Space
 70
     0
 10
0.0
 20
0.0
 30
0.0
  3
*Paper_Space
  1

  0
ENDBLK
  5
20
330
1E
100
AcDbEntity
 67
     1
  8
0
100
AcDbBlockEnd
  0
ENDSEC
  0
SECTION
  2
ENTITIES
  0
LINE
  5
54
330
22
100
AcDbEntity
  8
_0-F_
  6
Continuous
 62
     2
100
AcDbLine
 10
37878.3800279772
 20
27675.67650047508
 30
0.0
 11
37878.3800279772
 21
28675.68227407095
 31
0.0
  0
LINE
  5
55
330
22
100
AcDbEntity
  8
_0-F_
  6
Continuous
 62
     2
100
AcDbLine
 10
37878.3800279772
 20
27675.67650047508
 30
0.0
 11
40378.38332717483
 21
27675.67650047508
 31
0.0
  0
LINE
  5
56
330
22
100
AcDbEntity
  8
_0-F_
  6
Continuous
 62
     2
100
AcDbLine
 10
3378.381265176311
 20
28675.68227407095
 30
0.0
 11
40378.38332717483
 21
28675.68227407095
 31
0.0
  0
LINE
  5
57
330
22
100
AcDbEntity
  8
_0-F_
  6
Continuous
 62
     2
100
AcDbLine
 10
3378.381265176311
 20
3675.678046973979
 30
0.0
 11
3378.381265176311
 21
28675.68227407095
 31
0.0
  0
LINE
  5
58
330
22
100
AcDbEntity
  8
_0-F_
  6
Continuous
 62
     2
100
AcDbLine
 10
40378.38332717483
 20
3675.678046973979
 30
0.0
 11
3378.381265176311
 21
3675.678046973979
 31
0.0
  0
LINE
  5
59
330
22
100
AcDbEntity
  8
_0-F_
  6
Continuous
 62
     2
100
AcDbLine
 10
40378.38332717483
 20
28675.68227407095
 30
0.0
 11
40378.38332717483
 21
3675.678046973979
 31
0.0
  0
TEXT
  5
5A
330
22
100
AcDbEntity
  8
_0-F_
 62
     7
100
AcDbText
 10
38478.38167757601
 20
27975.6799646326
 30
0.0
 40
400.0
  1
１１Ｍ
100
AcDbText
  0
TEXT
  5
5B
330
22
100
AcDbEntity
  8
_0-0_
 62
     4
100
AcDbText
 10
12755.07231016417
 20
7752.043650478643
 30
0.0
 40
250.0
  1
7,500
100
AcDbText
  0
LINE
  5
5C
330
22
100
AcDbEntity
  8
_0-2_
  6
Continuous
 62
     7
100
AcDbLine
 10
16864.0705830342
 20
10102.94218695457
 30
0.0
 11
16881.26765070735
 21
12677.9432591938
 31
0.0
  0
LINE
  5
5D
330
22
100
AcDbEntity
  8
_0-2_
  6
Continuous
 62
     7
100
AcDbLine
 10
9271.07032569679
 20
10102.94342415368
 30
0.0
 11
9253.87325802365
 21
12677.9432591938
 31
0.0
  0
LINE
  5
5E
330
22
100
AcDbEntity
  8
_0-0_
  6
Continuous
 62
     4
100
AcDbLine
 10
5067.570041965794
 20
10102.9446613528
 30
0.0
 11
5067.570041965794
 21
24102.93888775693
 31
0.0
  0
LINE
  5
5F
330
22
100
AcDbEntity
  8
_0-0_
  6
Continuous
 62
     7
100
AcDbLine
 10
9281.029778557856
 20
23968.29698266826
 30
0.0
 11
9281.029778557856
 21
24078.29388142248
 31
0.0
  0
LINE
  5
60
330
22
100
AcDbEntity
  8
_0-0_
  6
Continuous
 62
     7
100
AcDbLine
 10
9281.029778557856
 20
24078.29388142248
 30
0.0
 11
9481.030438397384
 21
24078.29388142248
 31
0.0
  0
LINE
  5
61
330
22
100
AcDbEntity
  8
_0-0_
  6
Continuous
 62
     7
100
AcDbLine
 10
9481.030438397384
 20
24078.29388142248
 30
0.0
 11
9481.030438397384
 21
23968.29698266826
 31
0.0
  0
LINE
  5
62
330
22
100
AcDbEntity
  8
_0-0_
  6
Continuous
 62
     6
100
AcDbLine
 10
9618.564915012672
 20
13252.57770809583
 30
0.0
 11
9822.311813766892
 21
13252.57770809583
 31
0.0
  0
LINE
  5
63
330
22
100
AcDbEntity
  8
_0-0_
  6
Continuous
 62
     6
100
AcDbLine
 10
9613.079174144846
 20
13152.57737817606
 30
0.0
 11
9817.588187552789
 21
13152.57737817606
 31
0.0
  0
LINE
  5
64
330
22
100
AcDbEntity
  8
_0-0_
  6
Continuous
 62
     7
100
AcDbLine
 10
9481.030438397384
 20
24068.29731258802
 30
0.0
 11
16654.11047033361
 21
24068.29731258802
 31
0.0
  0
LINE
  5
65
330
22
100
AcDbEntity
  8
_0-0_
  6
Continuous
 62
     7
100
AcDbLine
 10
9229.572193042654
 20
24048.27943093684
 30
0.0
 11
9281.029778557856
 21
24068.29236379157
 31
0.0
  0
LINE
  5
66
330
22
100
AcDbEntity
  8
_0-0_
  6
Continuous
 62
     7
100
AcDbLine
 10
33177.57271431588
 20
24102.94383655339
 30
0.0
 11
32957.57396801099
 21
24102.94383655339
 31
0.0
  0
LINE
  5
67
330
22
100
AcDbEntity
  8
_0-0_
  6
Continuous
 62
     7
100
AcDbLine
 10
33773.71463260136
 20
12602.94177455487
 30
0.0
 11
33773.71463260136
 21
12802.93995999616
 31
0.0
  0
LINE
  5
68
330
22
100
AcDbEntity
  8
_0-0_
  6
Continuous
 62
     7
100
AcDbLine
 10
32361.42957532728
 20
12802.93995999616
 30
0.0
 11
32361.42957532728
 21
12602.94177455487
 31
0.0
  0
LINE
  5
69
330
22
100
AcDbEntity
  8
_0-0_
  6
Continuous
 62
     7
100
AcDbLine
 10
33292.57284628379
 20
12677.9432591938
 30
0.0
 11
33292.57284628379
 21
12727.94342415368
 31
0.0
  0
LINE
  5
6A
330
22
100
AcDbEntity
  8
_0-0_
  6
Continuous
 62
     7
100
AcDbLine
 10
33292.57284628379
 20
12727.94342415368
 30
0.0
 11
32842.57383604308
 21
12727.94342415368
 31
0.0
  0
LINE
  5
6B
330
22
100
AcDbEntity
  8
_0-0_
  6
Continuous
 62
     7
100
AcDbLine
 10
32842.57383604308
 20
12727.94342415368
 30
0.0
 11
32842.57383604308
 21
12677.9432591938
 31
0.0
  0
LINE
  5
6C
330
22
100
AcDbEntity
  8
_0-0_
  6
Continuous
 62
     7
100
AcDbLine
 10
32842.57383604308
 20
12677.9432591938
 30
0.0
 11
33292.57284628379
 21
12677.9432591938
 31
0.0
  0
LINE
  5
6D
330
22
100
AcDbEntity
  8
_0-0_
  6
Continuous
 62
     7
100
AcDbLine
 10
32880.76617266681
 20
12602.94177455487
 30
0.0
 11
32361.42957532728
 21
12602.94177455487
 31
0.0
  0
LINE
  5
6E
330
22
100
AcDbEntity
  8
_0-0_
  6
Continuous
 62
     7
100
AcDbLine
 10
33773.71463260136
 20
12602.94177455487
 30
0.0
 11
33254.37308646538
 21
12602.94177455487
 31
0.0
  0
LINE
  5
6F
330
22
100
AcDbEntity
  8
_0-0_
  6
Continuous
 62
     7
100
AcDbLine
 10
32361.42957532728
 20
12802.93995999616
 30
0.0
 11
32882.10234770903
 21
12802.93995999616
 31
0.0
  0
LINE
  5
70
330
22
100
AcDbEntity
  8
_0-0_
  6
Continuous
 62
     4
100
AcDbLine
 10
9067.575815561658
 20
7702.043485518763
 30
0.0
 11
33067.56839236699
 21
7702.043485518763
 31
0.0
  0
LINE
  5
71
330
22
100
AcDbEntity
  8
_0-0_
  6
Continuous
 62
     4
100
AcDbLine
 10
9067.575815561658
 20
8756.097539572818
 30
0.0
 11
9067.575815561658
 21
7702.043485518763
 31
0.0
  0
LINE
  5
72
330
22
100
AcDbEntity
  8
_0-0_
  6
Continuous
 62
     4
100
AcDbLine
 10
17067.57004196579
 20
8756.097539572818
 30
0.0
 11
17067.57004196579
 21
7702.043485518763
 31
0.0
  0
LINE
  5
73
330
22
100
AcDbEntity
  8
_0-0_
  6
Continuous
 62
     4
100
AcDbLine
 10
25067.57169156461
 20
8756.097539572818
 30
0.0
 11
25067.57169156461
 21
7702.043485518763
 31
0.0
  0
LINE
  5
74
330
22
100
AcDbEntity
  8
_0-0_
  6
Continuous
 62
     4
100
AcDbLine
 10
33067.56839236699
 20
8756.097539572818
 30
0.0
 11
33067.56839236699
 21
7702.043485518763
 31
0.0
  0
LINE
  5
75
330
22
100
AcDbEntity
  8
_0-0_
  6
Continuous
 62
     3
100
AcDbLine
 10
16864.09532701647
 20
13102.94342415369
 30
0.0
 11
14271.03980811867
 21
13102.94342415369
 31
0.0
  0
LINE
  5
76
330
22
100
AcDbEntity
  8
_0-0_
  6
Continuous
 62
     7
100
AcDbLine
 10
16854.11113017314
 20
23968.29698266826
 30
0.0
 11
16854.11113017314
 21
24078.29388142248
 31
0.0
  0
LINE
  5
77
330
22
100
AcDbEntity
  8
_0-0_
  6
Continuous
 62
     7
100
AcDbLine
 10
16854.11113017314
 20
24078.29388142248
 30
0.0
 11
16654.11047033361
 21
24078.29388142248
 31
0.0
  0
LINE
  5
78
330
22
100
AcDbEntity
  8
_0-0_
  6
Continuous
 62
     7
100
AcDbLine
 10
16654.11047033361
 20
23968.29698266826
 30
0.0
 11
16854.11113017314
 21
23968.29698266826
 31
0.0
  0
LINE
  5
79
330
22
100
AcDbEntity
  8
_0-0_
  6
Continuous
 62
     7
100
AcDbLine
 10
16654.11047033361
 20
24078.29388142248
 30
0.0
 11
16654.11047033361
 21
23968.29698266826
 31
0.0
  0
LINE
  5
7A
330
22
100
AcDbEntity
  8
_0-0_
  6
Continuous
 62
     7
100
AcDbLine
 10
16905.57119008657
 20
24048.27943093684
 30
0.0
 11
16854.11113017314
 21
24068.29236379157
 31
0.0
  0
LINE
  5
7B
330
22
100
AcDbEntity
  8
_0-0_
  6
Continuous
 62
     7
100
AcDbLine
 10
16905.57119008657
 20
23998.28174037519
 30
0.0
 11
16854.11113017314
 21
23978.29850029917
 31
0.0
  0
LINE
  5
7C
330
22
100
AcDbEntity
  8
_0-0_
  6
Continuous
 62
     7
100
AcDbLine
 10
33253.03691142314
 20
12802.93995999616
 30
0.0
 11
33773.71463260136
 21
12802.93995999616
 31
0.0
  0
LINE
  5
7D
330
22
100
AcDbEntity
  8
_0-2_
  6
Continuous
 62
     7
100
AcDbLine
 10
33271.06785129857
 20
10102.94342415368
 30
0.0
 11
32864.06893343539
 21
10102.94342415368
 31
0.0
  0
LINE
  5
7E
330
22
100
AcDbEntity
  8
ADD_LINE
  6
DOT
 62
     7
100
AcDbLine
 10
32864.06893343539
 20
10102.94342415368
 30
0.0
 11
32881.26600110853
 21
12677.9432591938
 31
0.0
  0
LINE
  5
7F
330
22
100
AcDbEntity
  8
_0-2_
  6
Continuous
 62
     7
100
AcDbLine
 10
32864.06893343539
 20
10102.94342415368
 30
0.0
 11
32881.26600110853
 21
12677.9432591938
 31
0.0
  0
LINE
  5
80
330
22
100
AcDbEntity
  8
ADD_LINE
  6
DOT
 62
     7
100
AcDbLine
 10
33253.87078362543
 20
12677.9432591938
 30
0.0
 11
33271.06785129857
 21
10102.94342415368
 31
0.0
  0
LINE
  5
81
330
22
100
AcDbEntity
  8
_0-2_
  6
Continuous
 62
     7
100
AcDbLine
 10
33271.06785129857
 20
10102.94342415368
 30
0.0
 11
33253.87078362543
 21
12677.9432591938
 31
0.0
  0
LINE
  5
82
330
22
100
AcDbEntity
  8
_0-0_
  6
Continuous
 62
     7
100
AcDbLine
 10
17177.57436391469
 20
24102.94383655339
 30
0.0
 11
16957.57561760979
 21
24102.94383655339
 31
0.0
  0
LINE
  5
83
330
22
100
AcDbEntity
  8
_0-0_
  6
Continuous
 62
     7
100
AcDbLine
 10
17773.71628220017
 20
12602.93930015664
 30
0.0
 11
17773.71628220017
 21
12802.93995999616
 31
0.0
  0
LINE
  5
84
330
22
100
AcDbEntity
  8
_0-0_
  6
Continuous
 62
     7
100
AcDbLine
 10
16361.4312249261
 20
12802.93995999616
 30
0.0
 11
16361.4312249261
 21
12602.93930015664
 31
0.0
  0
LINE
  5
85
330
22
100
AcDbEntity
  8
_0-0_
  6
Continuous
 62
     7
100
AcDbLine
 10
17292.5744958826
 20
12677.9432591938
 30
0.0
 11
17292.5744958826
 21
12727.94094975546
 31
0.0
  0
LINE
  5
86
330
22
100
AcDbEntity
  8
_0-0_
  6
Continuous
 62
     7
100
AcDbLine
 10
17292.5744958826
 20
12727.94094975546
 30
0.0
 11
16842.57548564189
 21
12727.94094975546
 31
0.0
  0
LINE
  5
87
330
22
100
AcDbEntity
  8
_0-0_
  6
Continuous
 62
     7
100
AcDbLine
 10
16842.57548564189
 20
12727.94094975546
 30
0.0
 11
16842.57548564189
 21
12677.9432591938
 31
0.0
  0
LINE
  5
88
330
22
100
AcDbEntity
  8
_0-0_
  6
Continuous
 62
     7
100
AcDbLine
 10
16842.57548564189
 20
12677.9432591938
 30
0.0
 11
17292.5744958826
 21
12677.9432591938
 31
0.0
  0
LINE
  5
89
330
22
100
AcDbEntity
  8
_0-0_
  6
Continuous
 62
     7
100
AcDbLine
 10
17229.57136824324
 20
23948.27910101708
 30
0.0
 11
17229.57136824324
 21
24048.27943093684
 31
0.0
  0
LINE
  5
8A
330
22
100
AcDbEntity
  8
_0-0_
  6
Continuous
 62
     7
100
AcDbLine
 10
16905.57366448479
 20
23948.27910101708
 30
0.0
 11
16905.57366448479
 21
24048.27943093684
 31
0.0
  0
LINE
  5
8B
330
22
100
AcDbEntity
  8
_0-0_
  6
Continuous
 62
     7
100
AcDbLine
 10
17229.57136824324
 20
23998.28174037519
 30
0.0
 11
16905.57366448479
 21
23998.28174037519
 31
0.0
  0
LINE
  5
8C
330
22
100
AcDbEntity
  8
_0-0_
  6
Continuous
 62
     7
100
AcDbLine
 10
17092.57383604307
 20
23888.27989282451
 30
0.0
 11
17092.57383604307
 21
23988.28517154071
 31
0.0
  0
LINE
  5
8D
330
22
100
AcDbEntity
  8
_0-0_
  6
Continuous
 62
     7
100
AcDbLine
 10
17092.57383604307
 20
23988.28517154071
 30
0.0
 11
17042.57119668497
 21
23988.28517154071
 31
0.0
  0
LINE
  5
8E
330
22
100
AcDbEntity
  8
_0-0_
  6
Continuous
 62
     7
100
AcDbLine
 10
17042.57119668497
 20
23988.28517154071
 30
0.0
 11
17042.57119668497
 21
23888.27989282451
 31
0.0
  0
LINE
  5
8F
330
22
100
AcDbEntity
  8
_0-0_
  6
Continuous
 62
     7
100
AcDbLine
 10
17042.57119668497
 20
23888.27989282451
 30
0.0
 11
17092.57383604307
 21
23888.27989282451
 31
0.0
  0
LINE
  5
90
330
22
100
AcDbEntity
  8
_0-0_
  6
Continuous
 62
     7
100
AcDbLine
 10
17092.57383604307
 20
23948.27910101708
 30
0.0
 11
17229.57136824324
 21
23948.27910101708
 31
0.0
  0
LINE
  5
91
330
22
100
AcDbEntity
  8
_0-0_
  6
Continuous
 62
     7
100
AcDbLine
 10
16905.57366448479
 20
24048.27943093684
 30
0.0
 11
17229.57136824324
 21
24048.27943093684
 31
0.0
  0
LINE
  5
92
330
22
100
AcDbEntity
  8
_0-0_
  6
Continuous
 62
     7
100
AcDbLine
 10
17042.57119668497
 20
23948.27910101708
 30
0.0
 11
16905.57366448479
 21
23948.27910101708
 31
0.0
  0
LINE
  5
93
330
22
100
AcDbEntity
  8
_0-0_
  6
Continuous
 62
     7
100
AcDbLine
 10
16880.76782226562
 20
12602.93930015664
 30
0.0
 11
16361.4312249261
 21
12602.93930015664
 31
0.0
  0
LINE
  5
94
330
22
100
AcDbEntity
  8
_0-0_
  6
Continuous
 62
     7
100
AcDbLine
 10
17773.71628220017
 20
12602.93930015664
 30
0.0
 11
17254.37473606419
 21
12602.93930015664
 31
0.0
  0
LINE
  5
95
330
22
100
AcDbEntity
  8
_0-0_
  6
Continuous
 62
     7
100
AcDbLine
 10
16361.4312249261
 20
12802.93995999616
 30
0.0
 11
16882.10399730786
 21
12802.93995999616
 31
0.0
  0
LINE
  5
96
330
22
100
AcDbEntity
  8
_0-0_
  6
Continuous
 62
     6
100
AcDbLine
 10
17017.64905774916
 20
13504.96137838721
 30
0.0
 11
17017.64905774916
 21
13708.70827714143
 31
0.0
  0
LINE
  5
97
330
22
100
AcDbEntity
  8
_0-0_
  6
Continuous
 62
     6
100
AcDbLine
 10
17117.49597497889
 20
13504.96137838721
 30
0.0
 11
17117.49597497889
 21
13708.70827714143
 31
0.0
  0
LINE
  5
98
330
22
100
AcDbEntity
  8
_0-0_
  6
Continuous
 62
     7
100
AcDbLine
 10
17253.03856102196
 20
12802.93995999616
 30
0.0
 11
17773.71628220017
 21
12802.93995999616
 31
0.0
  0
LINE
  5
99
330
22
100
AcDbEntity
  8
_0-0_
  6
Continuous
 62
     6
100
AcDbLine
 10
17117.64443887247
 20
13499.47811191762
 30
0.0
 11
17117.64443887247
 21
13703.98712532556
 31
0.0
  0
LINE
  5
9A
330
22
100
AcDbEntity
  8
_0-2_
  6
Continuous
 62
     7
100
AcDbLine
 10
17271.06950089738
 20
10102.94218695457
 30
0.0
 11
17253.87243322424
 21
12677.9432591938
 31
0.0
  0
LINE
  5
9B
330
22
100
AcDbEntity
  8
_0-0_
  6
Continuous
 62
     7
100
AcDbLine
 10
25177.57601351352
 20
24102.94383655339
 30
0.0
 11
24957.57726720862
 21
24102.94383655339
 31
0.0
  0
LINE
  5
9C
330
22
100
AcDbEntity
  8
_0-0_
  6
Continuous
 62
     7
100
AcDbLine
 10
25773.71793179899
 20
12602.93930015664
 30
0.0
 11
25773.71793179899
 21
12802.93995999616
 31
0.0
  0
LINE
  5
9D
330
22
100
AcDbEntity
  8
_0-0_
  6
Continuous
 62
     7
100
AcDbLine
 10
24361.43287452492
 20
12802.93995999616
 30
0.0
 11
24361.43287452492
 21
12602.93930015664
 31
0.0
  0
LINE
  5
9E
330
22
100
AcDbEntity
  8
_0-0_
  6
Continuous
 62
     7
100
AcDbLine
 10
25292.57614548142
 20
12677.9432591938
 30
0.0
 11
25292.57614548142
 21
12727.94094975546
 31
0.0
  0
LINE
  5
9F
330
22
100
AcDbEntity
  8
_0-0_
  6
Continuous
 62
     7
100
AcDbLine
 10
25292.57614548142
 20
12727.94094975546
 30
0.0
 11
24842.57713524071
 21
12727.94094975546
 31
0.0
  0
LINE
  5
A0
330
22
100
AcDbEntity
  8
_0-0_
  6
Continuous
 62
     7
100
AcDbLine
 10
24842.57713524071
 20
12727.94094975546
 30
0.0
 11
24842.57713524071
 21
12677.9432591938
 31
0.0
  0
LINE
  5
A1
330
22
100
AcDbEntity
  8
_0-0_
  6
Continuous
 62
     7
100
AcDbLine
 10
24842.57713524071
 20
12677.9432591938
 30
0.0
 11
25292.57614548142
 21
12677.9432591938
 31
0.0
  0
LINE
  5
A2
330
22
100
AcDbEntity
  8
_0-0_
  6
Continuous
 62
     7
100
AcDbLine
 10
24880.76947186444
 20
12602.93930015664
 30
0.0
 11
24361.43287452492
 21
12602.93930015664
 31
0.0
  0
LINE
  5
A3
330
22
100
AcDbEntity
  8
_0-0_
  6
Continuous
 62
     7
100
AcDbLine
 10
25773.71793179899
 20
12602.93930015664
 30
0.0
 11
25254.37638566301
 21
12602.93930015664
 31
0.0
  0
LINE
  5
A4
330
22
100
AcDbEntity
  8
_0-0_
  6
Continuous
 62
     7
100
AcDbLine
 10
24361.43287452492
 20
12802.93995999616
 30
0.0
 11
24882.10564690668
 21
12802.93995999616
 31
0.0
  0
LINE
  5
A5
330
22
100
AcDbEntity
  8
_0-0_
  6
Continuous
 62
     7
100
AcDbLine
 10
25253.04021062078
 20
12802.93995999616
 30
0.0
 11
25773.71793179899
 21
12802.93995999616
 31
0.0
  0
LINE
  5
A6
330
22
100
AcDbEntity
  8
_0-2_
  6
Continuous
 62
     7
100
AcDbLine
 10
24864.07223263302
 20
10102.94218695457
 30
0.0
 11
25271.0711504962
 21
10102.94218695457
 31
0.0
  0
LINE
  5
A7
330
22
100
AcDbEntity
  8
ADD_LINE
  6
DOT
 62
     7
100
AcDbLine
 10
24864.07223263302
 20
10102.94218695457
 30
0.0
 11
24881.26930030616
 21
12677.9432591938
 31
0.0
  0
LINE
  5
A8
330
22
100
AcDbEntity
  8
_0-2_
  6
Continuous
 62
     7
100
AcDbLine
 10
24864.07223263302
 20
10102.94218695457
 30
0.0
 11
24881.26930030616
 21
12677.9432591938
 31
0.0
  0
LINE
  5
A9
330
22
100
AcDbEntity
  8
ADD_LINE
  6
DOT
 62
     7
100
AcDbLine
 10
25253.87408282306
 20
12677.9432591938
 30
0.0
 11
25271.0711504962
 21
10102.94218695457
 31
0.0
  0
LINE
  5
AA
330
22
100
AcDbEntity
  8
_0-2_
  6
Continuous
 62
     7
100
AcDbLine
 10
25271.0711504962
 20
10102.94218695457
 30
0.0
 11
25253.87408282306
 21
12677.9432591938
 31
0.0
  0
LINE
  5
AB
330
22
100
AcDbEntity
  8
_0-0_
  6
Continuous
 62
     7
100
AcDbLine
 10
9177.575188714103
 20
24102.93888775693
 30
0.0
 11
8957.576442409207
 21
24102.93888775693
 31
0.0
  0
LINE
  5
AC
330
22
100
AcDbEntity
  8
_0-0_
  6
Continuous
 62
     7
100
AcDbLine
 10
9773.717106999578
 20
12602.93930015664
 30
0.0
 11
9773.717106999578
 21
12802.93995999616
 31
0.0
  0
LINE
  5
AD
330
22
100
AcDbEntity
  8
_0-0_
  6
Continuous
 62
     7
100
AcDbLine
 10
8361.432049725506
 20
12802.93995999616
 30
0.0
 11
8361.432049725506
 21
12602.93930015664
 31
0.0
  0
LINE
  5
AE
330
22
100
AcDbEntity
  8
_0-0_
  6
Continuous
 62
     7
100
AcDbLine
 10
9292.57532068201
 20
12677.9432591938
 30
0.0
 11
9292.57532068201
 21
12727.94094975546
 31
0.0
  0
LINE
  5
AF
330
22
100
AcDbEntity
  8
_0-0_
  6
Continuous
 62
     7
100
AcDbLine
 10
9292.57532068201
 20
12727.94094975546
 30
0.0
 11
8842.576310441302
 21
12727.94094975546
 31
0.0
  0
LINE
  5
B0
330
22
100
AcDbEntity
  8
_0-0_
  6
Continuous
 62
     7
100
AcDbLine
 10
8842.576310441302
 20
12727.94094975546
 30
0.0
 11
8842.576310441302
 21
12677.9432591938
 31
0.0
  0
LINE
  5
B1
330
22
100
AcDbEntity
  8
_0-0_
  6
Continuous
 62
     7
100
AcDbLine
 10
8842.576310441302
 20
12677.9432591938
 30
0.0
 11
9292.57532068201
 21
12677.9432591938
 31
0.0
  0
LINE
  5
B2
330
22
100
AcDbEntity
  8
_0-0_
  6
Continuous
 62
     7
100
AcDbLine
 10
9229.572193042654
 20
23948.27910101708
 30
0.0
 11
9229.572193042654
 21
24048.27943093684
 31
0.0
  0
LINE
  5
B3
330
22
100
AcDbEntity
  8
_0-0_
  6
Continuous
 62
     7
100
AcDbLine
 10
9229.572193042654
 20
24048.27943093684
 30
0.0
 11
8905.574489284207
 21
24048.27943093684
 31
0.0
  0
LINE
  5
B4
330
22
100
AcDbEntity
  8
_0-0_
  6
Continuous
 62
     7
100
AcDbLine
 10
8905.574489284207
 20
23948.27910101708
 30
0.0
 11
8905.574489284207
 21
24048.27943093684
 31
0.0
  0
LINE
  5
B5
330
22
100
AcDbEntity
  8
_0-0_
  6
Continuous
 62
     7
100
AcDbLine
 10
9229.572193042654
 20
23998.28174037519
 30
0.0
 11
8905.574489284207
 21
23998.28174037519
 31
0.0
  0
LINE
  5
B6
330
22
100
AcDbEntity
  8
_0-0_
  6
Continuous
 62
     7
100
AcDbLine
 10
9092.574660842483
 20
23888.27989282451
 30
0.0
 11
9092.574660842483
 21
23988.28022274427
 31
0.0
  0
LINE
  5
B7
330
22
100
AcDbEntity
  8
_0-0_
  6
Continuous
 62
     7
100
AcDbLine
 10
9092.574660842483
 20
23988.28022274427
 30
0.0
 11
9042.572021484376
 21
23988.28022274427
 31
0.0
  0
LINE
  5
B8
330
22
100
AcDbEntity
  8
_0-0_
  6
Continuous
 62
     7
100
AcDbLine
 10
9042.572021484376
 20
23988.28022274427
 30
0.0
 11
9042.572021484376
 21
23888.27989282451
 31
0.0
  0
LINE
  5
B9
330
22
100
AcDbEntity
  8
_0-0_
  6
Continuous
 62
     7
100
AcDbLine
 10
9042.572021484376
 20
23888.27989282451
 30
0.0
 11
9092.574660842483
 21
23888.27989282451
 31
0.0
  0
LINE
  5
BA
330
22
100
AcDbEntity
  8
_0-0_
  6
Continuous
 62
     7
100
AcDbLine
 10
9092.574660842483
 20
23948.27910101708
 30
0.0
 11
9229.572193042654
 21
23948.27910101708
 31
0.0
  0
LINE
  5
BB
330
22
100
AcDbEntity
  8
_0-0_
  6
Continuous
 62
     7
100
AcDbLine
 10
8905.574489284207
 20
23948.27910101708
 30
0.0
 11
9042.572021484376
 21
23948.27910101708
 31
0.0
  0
LINE
  5
BC
330
22
100
AcDbEntity
  8
_0-0_
  6
Continuous
 62
     7
100
AcDbLine
 10
8880.768647065034
 20
12602.93930015664
 30
0.0
 11
8361.432049725506
 21
12602.93930015664
 31
0.0
  0
LINE
  5
BD
330
22
100
AcDbEntity
  8
_0-0_
  6
Continuous
 62
     7
100
AcDbLine
 10
9773.717106999578
 20
12602.93930015664
 30
0.0
 11
9254.375560863596
 21
12602.93930015664
 31
0.0
  0
LINE
  5
BE
330
22
100
AcDbEntity
  8
_0-0_
  6
Continuous
 62
     7
100
AcDbLine
 10
8361.432049725506
 20
12802.93995999616
 30
0.0
 11
8882.104822107265
 21
12802.93995999616
 31
0.0
  0
LINE
  5
BF
330
22
100
AcDbEntity
  8
_0-0_
  6
Continuous
 62
     7
100
AcDbLine
 10
9253.039385821368
 20
12802.93995999616
 30
0.0
 11
9773.717106999578
 21
12802.93995999616
 31
0.0
  0
LINE
  5
C0
330
22
100
AcDbEntity
  8
_0-2_
  6
Continuous
 62
     7
100
AcDbLine
 10
9271.07032569679
 20
10102.94094975546
 30
0.0
 11
8864.071407833614
 21
10102.94094975546
 31
0.0
  0
LINE
  5
C1
330
22
100
AcDbEntity
  8
_0-0_
  6
Continuous
 62
     3
100
AcDbLine
 10
32884.10661027239
 20
13102.94094975546
 30
0.0
 11
25251.03594805744
 21
13102.94094975546
 31
0.0
  0
LINE
  5
C2
330
22
100
AcDbEntity
  8
_0-B_
  6
Continuous
 62
     3
100
AcDbLine
 10
17251.03429845861
 20
13102.94342415369
 30
0.0
 11
24884.10743507179
 21
13102.94342415369
 31
0.0
  0
LINE
  5
C3
330
22
100
AcDbEntity
  8
_0-0_
  6
Continuous
 62
     3
100
AcDbLine
 10
16884.1082598712
 20
13102.94094975546
 30
0.0
 11
9258.819580078123
 21
13102.94094975546
 31
0.0
  0
LINE
  5
C4
330
22
100
AcDbEntity
  8
_0-0_
  6
Continuous
 62
     4
100
AcDbLine
 10
4567.570866765203
 20
24102.93888775693
 30
0.0
 11
4567.570866765203
 21
10102.9446613528
 31
0.0
  0
LINE
  5
C5
330
22
100
AcDbEntity
  8
ADD_LINE
  6
DOT
 62
     7
100
AcDbLine
 10
9253.87325802365
 20
12677.9432591938
 30
0.0
 11
9271.07032569679
 21
10102.93847535723
 31
0.0
  0
LINE
  5
C6
330
22
100
AcDbEntity
  8
_0-0_
  6
Continuous
 62
     7
100
AcDbLine
 10
8864.071407833614
 20
10102.93847535723
 30
0.0
 11
9271.07032569679
 21
10102.93847535723
 31
0.0
  0
LINE
  5
C7
330
22
100
AcDbEntity
  8
_0-2_
  6
Continuous
 62
     7
100
AcDbLine
 10
8864.071407833614
 20
10102.94342415368
 30
0.0
 11
8881.268475506759
 21
12677.9432591938
 31
0.0
  0
LINE
  5
C8
330
22
100
AcDbEntity
  8
_0-0_
  6
Continuous
 62
     7
100
AcDbLine
 10
8870.158427470441
 20
10102.94342415368
 30
0.0
 11
9271.07032569679
 21
10102.94342415368
 31
0.0
  0
LINE
  5
C9
330
22
100
AcDbEntity
  8
ADD_LINE
  6
DOT
 62
     7
100
AcDbLine
 10
16864.0705830342
 20
10102.94218695457
 30
0.0
 11
16881.26765070735
 21
12677.9432591938
 31
0.0
  0
LINE
  5
CA
330
22
100
AcDbEntity
  8
_0-2_
  6
Continuous
 62
     7
100
AcDbLine
 10
16864.0705830342
 20
10102.94218695457
 30
0.0
 11
17271.06950089738
 21
10102.94218695457
 31
0.0
  0
LINE
  5
CB
330
22
100
AcDbEntity
  8
ADD_LINE
  6
DOT
 62
     7
100
AcDbLine
 10
17253.87243322424
 20
12677.9432591938
 30
0.0
 11
17271.06950089738
 21
10102.94218695457
 31
0.0
  0
LINE
  5
CC
330
22
100
AcDbEntity
  8
_0-3_
  6
Continuous
 62
     7
100
AcDbLine
 10
33773.71215820313
 20
12802.93995999616
 30
0.0
 11
33773.71215820313
 21
12602.94177455487
 31
0.0
  0
LINE
  5
CD
330
22
100
AcDbEntity
  8
_0-0_
  6
Continuous
 62
     7
100
AcDbLine
 10
24905.57531408362
 20
23951.84223446302
 30
0.0
 11
24905.57531408362
 21
24001.83992502468
 31
0.0
  0
LINE
  5
CE
330
22
100
AcDbEntity
  8
_0-2_
  6
Continuous
 62
     7
100
AcDbLine
 10
24905.57531408362
 20
24051.84256438278
 30
0.0
 11
24905.57531408362
 21
23951.84223446302
 31
0.0
  0
LINE
  5
CF
330
22
100
AcDbEntity
  8
_0-2_
  6
Continuous
 62
     7
100
AcDbLine
 10
24905.57531408362
 20
24051.84256438278
 30
0.0
 11
25229.57301784207
 21
24051.84256438278
 31
0.0
  0
LINE
  5
D0
330
22
100
AcDbEntity
  8
_0-2_
  6
Continuous
 62
     7
100
AcDbLine
 10
25229.57301784207
 20
24051.84256438278
 30
0.0
 11
25229.57301784207
 21
23951.84223446302
 31
0.0
  0
LINE
  5
D1
330
22
100
AcDbEntity
  8
_0-0_
  6
Continuous
 62
     3
100
AcDbLine
 10
5067.570041965794
 20
13102.94094975546
 30
0.0
 11
8884.109084670608
 21
13102.94094975546
 31
0.0
  0
LINE
  5
D2
330
22
100
AcDbEntity
  8
_0-0_
  6
Continuous
 62
     7
100
AcDbLine
 10
32905.57448928421
 20
23951.72346334816
 30
0.0
 11
32905.57448928421
 21
24001.72610270626
 31
0.0
  0
LINE
  5
D3
330
22
100
AcDbEntity
  8
_0-2_
  6
Continuous
 62
     7
100
AcDbLine
 10
32905.57448928421
 20
24051.72379326792
 30
0.0
 11
32905.57448928421
 21
23951.72346334816
 31
0.0
  0
LINE
  5
D4
330
22
100
AcDbEntity
  8
_0-2_
  6
Continuous
 62
     7
100
AcDbLine
 10
33229.57219304266
 20
24051.72379326792
 30
0.0
 11
33229.57219304266
 21
23951.72346334816
 31
0.0
  0
LINE
  5
D5
330
22
100
AcDbEntity
  8
_0-0_
  6
CENTER1
 62
     4
100
AcDbLine
 10
33067.56839236699
 20
25116.85572818134
 30
0.0
 11
33067.56839236699
 21
23816.08685017248
 31
0.0
  0
LINE
  5
D6
330
22
100
AcDbEntity
  8
_0-2_
  6
Continuous
 62
     7
100
AcDbLine
 10
32905.57448928421
 20
24051.72379326792
 30
0.0
 11
33229.57219304266
 21
24051.72379326792
 31
0.0
  0
LINE
  5
D7
330
22
100
AcDbEntity
  8
_0-2_
  6
Continuous
 62
     7
100
AcDbLine
 10
33028.99252401816
 20
20477.2501802506
 30
0.0
 11
33103.99153425886
 21
20477.2501802506
 31
0.0
  0
LINE
  5
D8
330
22
100
AcDbEntity
  8
_0-2_
  6
Continuous
 62
     7
100
AcDbLine
 10
33028.99252401816
 20
20477.2501802506
 30
0.0
 11
33028.99252401816
 21
20327.24968537096
 31
0.0
  0
LINE
  5
D9
330
22
100
AcDbEntity
  8
_0-2_
  6
Continuous
 62
     7
100
AcDbLine
 10
33028.99252401816
 20
20327.24968537096
 30
0.0
 11
33103.99153425886
 21
20327.24968537096
 31
0.0
  0
LINE
  5
DA
330
22
100
AcDbEntity
  8
_0-2_
  6
Continuous
 62
     7
100
AcDbLine
 10
33103.99153425886
 20
20477.2501802506
 30
0.0
 11
33103.99153425886
 21
20327.24968537096
 31
0.0
  0
LINE
  5
DB
330
22
100
AcDbEntity
  8
_0-2_
  6
Continuous
 62
     7
100
AcDbLine
 10
32875.99553288641
 20
20402.24869561167
 30
0.0
 11
33028.99252401816
 21
20402.24869561167
 31
0.0
  0
LINE
  5
DC
330
22
100
AcDbEntity
  8
_0-2_
  6
Continuous
 62
     7
100
AcDbLine
 10
33256.99347418708
 20
20402.24869561167
 30
0.0
 11
33103.99153425886
 21
20402.24869561167
 31
0.0
  0
LINE
  5
DD
330
22
100
AcDbEntity
  8
_0-2_
  6
Continuous
 62
     7
100
AcDbLine
 10
32875.99553288641
 20
20502.24902553144
 30
0.0
 11
32875.99553288641
 21
20402.24869561167
 31
0.0
  0
LINE
  5
DE
330
22
100
AcDbEntity
  8
_0-2_
  6
Continuous
 62
     7
100
AcDbLine
 10
33256.99347418708
 20
20502.24902553144
 30
0.0
 11
33256.99347418708
 21
20402.24869561167
 31
0.0
  0
LINE
  5
DF
330
22
100
AcDbEntity
  8
_0-2_
  6
Continuous
 62
     7
100
AcDbLine
 10
25029.29275100296
 20
20477.0992419588
 30
0.0
 11
25104.29176124366
 21
20477.0992419588
 31
0.0
  0
LINE
  5
E0
330
22
100
AcDbEntity
  8
_0-2_
  6
Continuous
 62
     7
100
AcDbLine
 10
25029.29275100296
 20
20327.09627268092
 30
0.0
 11
25104.29176124366
 21
20327.09627268092
 31
0.0
  0
LINE
  5
E1
330
22
100
AcDbEntity
  8
_0-2_
  6
Continuous
 62
     7
100
AcDbLine
 10
25104.29176124366
 20
20477.0992419588
 30
0.0
 11
25104.29176124366
 21
20327.09627268092
 31
0.0
  0
LINE
  5
E2
330
22
100
AcDbEntity
  8
_0-2_
  6
Continuous
 62
     7
100
AcDbLine
 10
24876.2957598712
 20
20402.09775731986
 30
0.0
 11
25029.29275100296
 21
20402.09775731986
 31
0.0
  0
LINE
  5
E3
330
22
100
AcDbEntity
  8
_0-2_
  6
Continuous
 62
     7
100
AcDbLine
 10
24876.2957598712
 20
20502.09808723963
 30
0.0
 11
25257.29370117188
 21
20502.09808723963
 31
0.0
  0
LINE
  5
E4
330
22
100
AcDbEntity
  8
_0-2_
  6
Continuous
 62
     7
100
AcDbLine
 10
25257.29370117188
 20
20402.09775731986
 30
0.0
 11
25104.29176124366
 21
20402.09775731986
 31
0.0
  0
LINE
  5
E5
330
22
100
AcDbEntity
  8
_0-2_
  6
Continuous
 62
     7
100
AcDbLine
 10
24876.2957598712
 20
20502.09808723963
 30
0.0
 11
24876.2957598712
 21
20402.09775731986
 31
0.0
  0
LINE
  5
E6
330
22
100
AcDbEntity
  8
_0-2_
  6
Continuous
 62
     7
100
AcDbLine
 10
25257.29370117188
 20
20502.09808723963
 30
0.0
 11
25257.29370117188
 21
20402.09775731986
 31
0.0
  0
LINE
  5
E7
330
22
100
AcDbEntity
  8
_0-2_
  6
Continuous
 62
     7
100
AcDbLine
 10
17029.59050358953
 20
20476.94582926876
 30
0.0
 11
17104.58951383023
 21
20476.94582926876
 31
0.0
  0
LINE
  5
E8
330
22
100
AcDbEntity
  8
_0-2_
  6
Continuous
 62
     7
100
AcDbLine
 10
17029.59050358953
 20
20326.94533438912
 30
0.0
 11
17104.58951383023
 21
20326.94533438912
 31
0.0
  0
LINE
  5
E9
330
22
100
AcDbEntity
  8
_0-2_
  6
Continuous
 62
     7
100
AcDbLine
 10
17104.58951383023
 20
20476.94582926876
 30
0.0
 11
17104.58951383023
 21
20326.94533438912
 31
0.0
  0
LINE
  5
EA
330
22
100
AcDbEntity
  8
_0-2_
  6
Continuous
 62
     7
100
AcDbLine
 10
16876.59351245777
 20
20401.94681902805
 30
0.0
 11
17029.59050358953
 21
20401.94681902805
 31
0.0
  0
LINE
  5
EB
330
22
100
AcDbEntity
  8
_0-2_
  6
Continuous
 62
     7
100
AcDbLine
 10
16876.59351245777
 20
20501.94714894782
 30
0.0
 11
17257.59145375844
 21
20501.94714894782
 31
0.0
  0
LINE
  5
EC
330
22
100
AcDbEntity
  8
_0-2_
  6
Continuous
 62
     7
100
AcDbLine
 10
17257.59145375844
 20
20401.94681902805
 30
0.0
 11
17104.58951383023
 21
20401.94681902805
 31
0.0
  0
LINE
  5
ED
330
22
100
AcDbEntity
  8
_0-2_
  6
Continuous
 62
     7
100
AcDbLine
 10
16876.59351245777
 20
20501.94714894782
 30
0.0
 11
16876.59351245777
 21
20401.94681902805
 31
0.0
  0
LINE
  5
EE
330
22
100
AcDbEntity
  8
_0-2_
  6
Continuous
 62
     7
100
AcDbLine
 10
17257.59145375844
 20
20501.94714894782
 30
0.0
 11
17257.59145375844
 21
20401.94681902805
 31
0.0
  0
LINE
  5
EF
330
22
100
AcDbEntity
  8
_0-2_
  6
Continuous
 62
     7
100
AcDbLine
 10
9029.890730574322
 20
20476.79241657873
 30
0.0
 11
9104.88974081503
 21
20476.79241657873
 31
0.0
  0
LINE
  5
F0
330
22
100
AcDbEntity
  8
_0-2_
  6
Continuous
 62
     7
100
AcDbLine
 10
9029.890730574322
 20
20476.79241657873
 30
0.0
 11
9029.890730574322
 21
20326.79439609731
 31
0.0
  0
LINE
  5
F1
330
22
100
AcDbEntity
  8
_0-2_
  6
Continuous
 62
     7
100
AcDbLine
 10
9029.890730574322
 20
20326.79439609731
 30
0.0
 11
9104.88974081503
 21
20326.79439609731
 31
0.0
  0
LINE
  5
F2
330
22
100
AcDbEntity
  8
_0-2_
  6
Continuous
 62
     7
100
AcDbLine
 10
8876.89373944257
 20
20501.79373625778
 30
0.0
 11
9257.891680743243
 21
20501.79373625778
 31
0.0
  0
LINE
  5
F3
330
22
100
AcDbEntity
  8
_0-2_
  6
Continuous
 62
     7
100
AcDbLine
 10
8876.89373944257
 20
20501.79373625778
 30
0.0
 11
8876.89373944257
 21
20401.79340633802
 31
0.0
  0
LINE
  5
F4
330
22
100
AcDbEntity
  8
_0-2_
  6
Continuous
 62
     7
100
AcDbLine
 10
33028.99252401816
 20
16927.25331448835
 30
0.0
 11
33103.99153425886
 21
16927.25331448835
 31
0.0
  0
LINE
  5
F5
330
22
100
AcDbEntity
  8
_0-2_
  6
Continuous
 62
     7
100
AcDbLine
 10
33028.99252401816
 20
16927.25331448835
 30
0.0
 11
33028.99252401816
 21
16777.25034521048
 31
0.0
  0
LINE
  5
F6
330
22
100
AcDbEntity
  8
_0-2_
  6
Continuous
 62
     7
100
AcDbLine
 10
33028.99252401816
 20
16777.25034521048
 30
0.0
 11
33103.99153425886
 21
16777.25034521048
 31
0.0
  0
LINE
  5
F7
330
22
100
AcDbEntity
  8
_0-2_
  6
Continuous
 62
     7
100
AcDbLine
 10
33103.99153425886
 20
16927.25331448835
 30
0.0
 11
33103.99153425886
 21
16777.25034521048
 31
0.0
  0
LINE
  5
F8
330
22
100
AcDbEntity
  8
_0-2_
  6
Continuous
 62
     7
100
AcDbLine
 10
32846.19388064824
 20
16952.25215976918
 30
0.0
 11
33286.80007522171
 21
16952.25215976918
 31
0.0
  0
LINE
  5
F9
330
22
100
AcDbEntity
  8
_0-2_
  6
Continuous
 62
     7
100
AcDbLine
 10
33286.80007522171
 20
16852.25182984942
 30
0.0
 11
33103.99153425886
 21
16852.25182984942
 31
0.0
  0
LINE
  5
FA
330
22
100
AcDbEntity
  8
_0-2_
  6
Continuous
 62
     7
100
AcDbLine
 10
33286.80007522171
 20
16952.25215976918
 30
0.0
 11
33286.80007522171
 21
16852.25182984942
 31
0.0
  0
LINE
  5
FB
330
22
100
AcDbEntity
  8
_0-2_
  6
Continuous
 62
     7
100
AcDbLine
 10
32846.19388064824
 20
16952.25215976918
 30
0.0
 11
32846.19388064824
 21
16852.25182984942
 31
0.0
  0
LINE
  5
FC
330
22
100
AcDbEntity
  8
_0-2_
  6
Continuous
 62
     7
100
AcDbLine
 10
32846.19388064824
 20
16852.25182984942
 30
0.0
 11
33028.99252401816
 21
16852.25182984942
 31
0.0
  0
LINE
  5
FD
330
22
100
AcDbEntity
  8
_0-2_
  6
Continuous
 62
     7
100
AcDbLine
 10
33030.06393845017
 20
13327.44557523054
 30
0.0
 11
33105.06294869088
 21
13327.44557523054
 31
0.0
  0
LINE
  5
FE
330
22
100
AcDbEntity
  8
_0-2_
  6
Continuous
 62
     7
100
AcDbLine
 10
33030.06393845017
 20
13327.44557523054
 30
0.0
 11
33030.06393845017
 21
13177.4450803509
 31
0.0
  0
LINE
  5
FF
330
22
100
AcDbEntity
  8
_0-2_
  6
Continuous
 62
     7
100
AcDbLine
 10
33030.06393845017
 20
13177.4450803509
 30
0.0
 11
33105.06294869088
 21
13177.4450803509
 31
0.0
  0
LINE
  5
100
330
22
100
AcDbEntity
  8
_0-2_
  6
Continuous
 62
     7
100
AcDbLine
 10
33105.06294869088
 20
13327.44557523054
 30
0.0
 11
33105.06294869088
 21
13177.4450803509
 31
0.0
  0
LINE
  5
101
330
22
100
AcDbEntity
  8
_0-2_
  6
Continuous
 62
     7
100
AcDbLine
 10
32817.56756756757
 20
13352.44689490959
 30
0.0
 11
33317.56921716638
 21
13352.44689490959
 31
0.0
  0
LINE
  5
102
330
22
100
AcDbEntity
  8
_0-2_
  6
Continuous
 62
     7
100
AcDbLine
 10
33317.56921716638
 20
13252.44656498983
 30
0.0
 11
33317.56921716638
 21
13352.44689490959
 31
0.0
  0
LINE
  5
103
330
22
100
AcDbEntity
  8
_0-2_
  6
Continuous
 62
     7
100
AcDbLine
 10
33317.56921716638
 20
13252.44656498983
 30
0.0
 11
33105.06294869088
 21
13252.44656498983
 31
0.0
  0
LINE
  5
104
330
22
100
AcDbEntity
  8
_0-2_
  6
Continuous
 62
     7
100
AcDbLine
 10
32817.56756756757
 20
13252.44656498983
 30
0.0
 11
32817.56756756757
 21
13352.44689490959
 31
0.0
  0
LINE
  5
105
330
22
100
AcDbEntity
  8
_0-2_
  6
Continuous
 62
     7
100
AcDbLine
 10
33250.03299197636
 20
13252.44656498983
 30
0.0
 11
33253.53673986487
 21
12727.94342415368
 31
0.0
  0
LINE
  5
106
330
22
100
AcDbEntity
  8
_0-2_
  6
Continuous
 62
     7
100
AcDbLine
 10
33248.52855785473
 20
13477.94094975546
 30
0.0
 11
33249.36737885347
 21
13352.44689490959
 31
0.0
  0
LINE
  5
107
330
22
100
AcDbEntity
  8
_0-2_
  6
Continuous
 62
     7
100
AcDbLine
 10
33249.19664537584
 20
13377.94309423392
 30
0.0
 11
33249.36737885347
 21
13352.44689490959
 31
0.0
  0
LINE
  5
108
330
22
100
AcDbEntity
  8
_0-2_
  6
Continuous
 62
     7
100
AcDbLine
 10
32885.77188027872
 20
13352.44689490959
 30
0.0
 11
32885.94261375634
 21
13377.94309423392
 31
0.0
  0
LINE
  5
109
330
22
100
AcDbEntity
  8
_0-2_
  6
Continuous
 62
     7
100
AcDbLine
 10
9104.88974081503
 20
20401.79340633802
 30
0.0
 11
9257.891680743243
 21
20401.79340633802
 31
0.0
  0
LINE
  5
10A
330
22
100
AcDbEntity
  8
_0-2_
  6
Continuous
 62
     7
100
AcDbLine
 10
9257.891680743243
 20
20501.79373625778
 30
0.0
 11
9257.891680743243
 21
20401.79340633802
 31
0.0
  0
LINE
  5
10B
330
22
100
AcDbEntity
  8
_0-2_
  6
Continuous
 62
     7
100
AcDbLine
 10
8876.89373944257
 20
20401.79340633802
 30
0.0
 11
9029.890730574322
 21
20401.79340633802
 31
0.0
  0
LINE
  5
10C
330
22
100
AcDbEntity
  8
_0-2_
  6
Continuous
 62
     7
100
AcDbLine
 10
25028.9958232158
 20
16927.25084009013
 30
0.0
 11
25103.99483345651
 21
16927.25084009013
 31
0.0
  0
LINE
  5
10D
330
22
100
AcDbEntity
  8
_0-2_
  6
Continuous
 62
     7
100
AcDbLine
 10
25028.9958232158
 20
16927.25084009013
 30
0.0
 11
25028.9958232158
 21
16777.25034521048
 31
0.0
  0
LINE
  5
10E
330
22
100
AcDbEntity
  8
_0-2_
  6
Continuous
 62
     7
100
AcDbLine
 10
25028.9958232158
 20
16777.25034521048
 30
0.0
 11
25103.99483345651
 21
16777.25034521048
 31
0.0
  0
LINE
  5
10F
330
22
100
AcDbEntity
  8
_0-2_
  6
Continuous
 62
     7
100
AcDbLine
 10
25103.99483345651
 20
16927.25084009013
 30
0.0
 11
25103.99483345651
 21
16777.25034521048
 31
0.0
  0
LINE
  5
110
330
22
100
AcDbEntity
  8
_0-2_
  6
Continuous
 62
     7
100
AcDbLine
 10
24846.19717984587
 20
16952.24968537096
 30
0.0
 11
25286.80337441935
 21
16952.24968537096
 31
0.0
  0
LINE
  5
111
330
22
100
AcDbEntity
  8
_0-2_
  6
Continuous
 62
     7
100
AcDbLine
 10
25286.80337441935
 20
16852.24935545119
 30
0.0
 11
25103.99483345651
 21
16852.24935545119
 31
0.0
  0
LINE
  5
112
330
22
100
AcDbEntity
  8
_0-2_
  6
Continuous
 62
     7
100
AcDbLine
 10
25286.80337441935
 20
16952.24968537096
 30
0.0
 11
25286.80337441935
 21
16852.24935545119
 31
0.0
  0
LINE
  5
113
330
22
100
AcDbEntity
  8
_0-2_
  6
Continuous
 62
     7
100
AcDbLine
 10
24846.19717984587
 20
16952.24968537096
 30
0.0
 11
24846.19717984587
 21
16852.24935545119
 31
0.0
  0
LINE
  5
114
330
22
100
AcDbEntity
  8
_0-2_
  6
Continuous
 62
     7
100
AcDbLine
 10
24846.19717984587
 20
16852.24935545119
 30
0.0
 11
25028.9958232158
 21
16852.24935545119
 31
0.0
  0
LINE
  5
115
330
22
100
AcDbEntity
  8
_0-2_
  6
Continuous
 62
     7
100
AcDbLine
 10
17029.00159681165
 20
16927.2483656919
 30
0.0
 11
17104.00060705236
 21
16927.2483656919
 31
0.0
  0
LINE
  5
116
330
22
100
AcDbEntity
  8
_0-2_
  6
Continuous
 62
     7
100
AcDbLine
 10
17029.00159681165
 20
16927.2483656919
 30
0.0
 11
17029.00159681165
 21
16777.25034521048
 31
0.0
  0
LINE
  5
117
330
22
100
AcDbEntity
  8
_0-2_
  6
Continuous
 62
     7
100
AcDbLine
 10
17029.00159681165
 20
16777.25034521048
 30
0.0
 11
17104.00060705236
 21
16777.25034521048
 31
0.0
  0
LINE
  5
118
330
22
100
AcDbEntity
  8
_0-2_
  6
Continuous
 62
     7
100
AcDbLine
 10
17104.00060705236
 20
16927.2483656919
 30
0.0
 11
17104.00060705236
 21
16777.25034521048
 31
0.0
  0
LINE
  5
119
330
22
100
AcDbEntity
  8
_0-2_
  6
Continuous
 62
     7
100
AcDbLine
 10
16846.20295344172
 20
16952.24968537096
 30
0.0
 11
17286.8091480152
 21
16952.24968537096
 31
0.0
  0
LINE
  5
11A
330
22
100
AcDbEntity
  8
_0-2_
  6
Continuous
 62
     7
100
AcDbLine
 10
17286.8091480152
 20
16852.24935545119
 30
0.0
 11
17104.00060705236
 21
16852.24935545119
 31
0.0
  0
LINE
  5
11B
330
22
100
AcDbEntity
  8
_0-2_
  6
Continuous
 62
     7
100
AcDbLine
 10
17286.8091480152
 20
16952.24968537096
 30
0.0
 11
17286.8091480152
 21
16852.24935545119
 31
0.0
  0
LINE
  5
11C
330
22
100
AcDbEntity
  8
_0-2_
  6
Continuous
 62
     7
100
AcDbLine
 10
16846.20295344172
 20
16952.24968537096
 30
0.0
 11
16846.20295344172
 21
16852.24935545119
 31
0.0
  0
LINE
  5
11D
330
22
100
AcDbEntity
  8
_0-2_
  6
Continuous
 62
     7
100
AcDbLine
 10
16846.20295344172
 20
16852.24935545119
 30
0.0
 11
17029.00159681165
 21
16852.24935545119
 31
0.0
  0
LINE
  5
11E
330
22
100
AcDbEntity
  8
_0-2_
  6
Continuous
 62
     7
100
AcDbLine
 10
9029.007370407517
 20
16927.2483656919
 30
0.0
 11
9104.006380648227
 21
16927.2483656919
 31
0.0
  0
LINE
  5
11F
330
22
100
AcDbEntity
  8
_0-2_
  6
Continuous
 62
     7
100
AcDbLine
 10
9029.007370407517
 20
16927.2483656919
 30
0.0
 11
9029.007370407517
 21
16777.24787081226
 31
0.0
  0
LINE
  5
120
330
22
100
AcDbEntity
  8
_0-2_
  6
Continuous
 62
     7
100
AcDbLine
 10
9029.007370407517
 20
16777.24787081226
 30
0.0
 11
9104.006380648227
 21
16777.24787081226
 31
0.0
  0
LINE
  5
121
330
22
100
AcDbEntity
  8
_0-2_
  6
Continuous
 62
     7
100
AcDbLine
 10
9104.006380648227
 20
16927.2483656919
 30
0.0
 11
9104.006380648227
 21
16777.24787081226
 31
0.0
  0
LINE
  5
122
330
22
100
AcDbEntity
  8
_0-2_
  6
Continuous
 62
     7
100
AcDbLine
 10
8846.208727037584
 20
16952.24968537096
 30
0.0
 11
9286.814921611066
 21
16952.24968537096
 31
0.0
  0
LINE
  5
123
330
22
100
AcDbEntity
  8
_0-2_
  6
Continuous
 62
     7
100
AcDbLine
 10
9286.814921611066
 20
16852.24935545119
 30
0.0
 11
9104.006380648227
 21
16852.24935545119
 31
0.0
  0
LINE
  5
124
330
22
100
AcDbEntity
  8
_0-2_
  6
Continuous
 62
     7
100
AcDbLine
 10
9286.814921611066
 20
16952.24968537096
 30
0.0
 11
9286.814921611066
 21
16852.24935545119
 31
0.0
  0
LINE
  5
125
330
22
100
AcDbEntity
  8
_0-2_
  6
Continuous
 62
     7
100
AcDbLine
 10
8846.208727037584
 20
16952.24968537096
 30
0.0
 11
8846.208727037584
 21
16852.24935545119
 31
0.0
  0
LINE
  5
126
330
22
100
AcDbEntity
  8
_0-2_
  6
Continuous
 62
     7
100
AcDbLine
 10
8846.208727037584
 20
16852.24935545119
 30
0.0
 11
9029.007370407517
 21
16852.24935545119
 31
0.0
  0
LINE
  5
127
330
22
100
AcDbEntity
  8
_0-2_
  6
Continuous
 62
     7
100
AcDbLine
 10
32817.56756756757
 20
13252.44656498983
 30
0.0
 11
33030.06393845017
 21
13252.44656498983
 31
0.0
  0
LINE
  5
128
330
22
100
AcDbEntity
  8
_0-2_
  6
Continuous
 62
     7
100
AcDbLine
 10
32881.60004486909
 20
12727.94342415368
 30
0.0
 11
32885.10379275761
 21
13252.44656498983
 31
0.0
  0
LINE
  5
129
330
22
100
AcDbEntity
  8
_0-2_
  6
Continuous
 62
     7
100
AcDbLine
 10
25030.06723764781
 20
13327.44804962877
 30
0.0
 11
25105.06624788852
 21
13327.44804962877
 31
0.0
  0
LINE
  5
12A
330
22
100
AcDbEntity
  8
_0-2_
  6
Continuous
 62
     7
100
AcDbLine
 10
25030.06723764781
 20
13327.44804962877
 30
0.0
 11
25030.06723764781
 21
13177.4450803509
 31
0.0
  0
LINE
  5
12B
330
22
100
AcDbEntity
  8
_0-2_
  6
Continuous
 62
     7
100
AcDbLine
 10
25030.06723764781
 20
13177.4450803509
 30
0.0
 11
25105.06624788852
 21
13177.4450803509
 31
0.0
  0
LINE
  5
12C
330
22
100
AcDbEntity
  8
_0-2_
  6
Continuous
 62
     7
100
AcDbLine
 10
25105.06624788852
 20
13327.44804962877
 30
0.0
 11
25105.06624788852
 21
13177.4450803509
 31
0.0
  0
LINE
  5
12D
330
22
100
AcDbEntity
  8
_0-2_
  6
Continuous
 62
     7
100
AcDbLine
 10
24817.57086676521
 20
13352.44689490959
 30
0.0
 11
25317.57251636402
 21
13352.44689490959
 31
0.0
  0
LINE
  5
12E
330
22
100
AcDbEntity
  8
_0-2_
  6
Continuous
 62
     7
100
AcDbLine
 10
25317.57251636402
 20
13252.44656498983
 30
0.0
 11
25317.57251636402
 21
13352.44689490959
 31
0.0
  0
LINE
  5
12F
330
22
100
AcDbEntity
  8
_0-2_
  6
Continuous
 62
     7
100
AcDbLine
 10
25317.57251636402
 20
13252.44656498983
 30
0.0
 11
25105.06624788852
 21
13252.44656498983
 31
0.0
  0
LINE
  5
130
330
22
100
AcDbEntity
  8
_0-2_
  6
Continuous
 62
     7
100
AcDbLine
 10
24817.57086676521
 20
13252.44656498983
 30
0.0
 11
24817.57086676521
 21
13352.44689490959
 31
0.0
  0
LINE
  5
131
330
22
100
AcDbEntity
  8
_0-2_
  6
Continuous
 62
     7
100
AcDbLine
 10
24817.57086676521
 20
13252.44656498983
 30
0.0
 11
25030.06723764781
 21
13252.44656498983
 31
0.0
  0
LINE
  5
132
330
22
100
AcDbEntity
  8
_0-2_
  6
Continuous
 62
     7
100
AcDbLine
 10
17030.06806244721
 20
13327.44804962877
 30
0.0
 11
17105.06707268792
 21
13327.44804962877
 31
0.0
  0
LINE
  5
133
330
22
100
AcDbEntity
  8
_0-2_
  6
Continuous
 62
     7
100
AcDbLine
 10
17030.06806244721
 20
13327.44804962877
 30
0.0
 11
17030.06806244721
 21
13177.4450803509
 31
0.0
  0
LINE
  5
134
330
22
100
AcDbEntity
  8
_0-2_
  6
Continuous
 62
     7
100
AcDbLine
 10
17030.06806244721
 20
13177.4450803509
 30
0.0
 11
17105.06707268792
 21
13177.4450803509
 31
0.0
  0
LINE
  5
135
330
22
100
AcDbEntity
  8
_0-2_
  6
Continuous
 62
     7
100
AcDbLine
 10
17105.06707268792
 20
13327.44804962877
 30
0.0
 11
17105.06707268792
 21
13177.4450803509
 31
0.0
  0
LINE
  5
136
330
22
100
AcDbEntity
  8
_0-2_
  6
Continuous
 62
     7
100
AcDbLine
 10
16817.57169156461
 20
13352.44689490959
 30
0.0
 11
17317.57334116343
 21
13352.44689490959
 31
0.0
  0
LINE
  5
137
330
22
100
AcDbEntity
  8
_0-2_
  6
Continuous
 62
     7
100
AcDbLine
 10
17317.57334116343
 20
13252.44656498983
 30
0.0
 11
17317.57334116343
 21
13352.44689490959
 31
0.0
  0
LINE
  5
138
330
22
100
AcDbEntity
  8
_0-2_
  6
Continuous
 62
     7
100
AcDbLine
 10
17317.57334116343
 20
13252.44656498983
 30
0.0
 11
17105.06707268792
 21
13252.44656498983
 31
0.0
  0
LINE
  5
139
330
22
100
AcDbEntity
  8
_0-2_
  6
Continuous
 62
     7
100
AcDbLine
 10
16817.57169156461
 20
13252.44656498983
 30
0.0
 11
16817.57169156461
 21
13352.44689490959
 31
0.0
  0
LINE
  5
13A
330
22
100
AcDbEntity
  8
_0-2_
  6
Continuous
 62
     7
100
AcDbLine
 10
16817.57169156461
 20
13252.44656498983
 30
0.0
 11
17030.06806244721
 21
13252.44656498983
 31
0.0
  0
LINE
  5
13B
330
22
100
AcDbEntity
  8
_0-2_
  6
Continuous
 62
     7
100
AcDbLine
 10
9030.068887246619
 20
13327.44804962877
 30
0.0
 11
9105.067897487332
 21
13327.44804962877
 31
0.0
  0
LINE
  5
13C
330
22
100
AcDbEntity
  8
_0-2_
  6
Continuous
 62
     7
100
AcDbLine
 10
9030.068887246619
 20
13327.44804962877
 30
0.0
 11
9030.068887246619
 21
13177.4450803509
 31
0.0
  0
LINE
  5
13D
330
22
100
AcDbEntity
  8
_0-2_
  6
Continuous
 62
     7
100
AcDbLine
 10
9030.068887246619
 20
13177.4450803509
 30
0.0
 11
9105.067897487332
 21
13177.4450803509
 31
0.0
  0
LINE
  5
13E
330
22
100
AcDbEntity
  8
_0-2_
  6
Continuous
 62
     7
100
AcDbLine
 10
9105.067897487332
 20
13327.44804962877
 30
0.0
 11
9105.067897487332
 21
13177.4450803509
 31
0.0
  0
LINE
  5
13F
330
22
100
AcDbEntity
  8
_0-2_
  6
Continuous
 62
     7
100
AcDbLine
 10
8817.57251636402
 20
13352.44689490959
 30
0.0
 11
9317.574165962838
 21
13352.44689490959
 31
0.0
  0
LINE
  5
140
330
22
100
AcDbEntity
  8
_0-2_
  6
Continuous
 62
     7
100
AcDbLine
 10
9317.574165962838
 20
13252.44656498983
 30
0.0
 11
9317.574165962838
 21
13352.44689490959
 31
0.0
  0
LINE
  5
141
330
22
100
AcDbEntity
  8
_0-2_
  6
Continuous
 62
     7
100
AcDbLine
 10
9317.574165962838
 20
13252.44656498983
 30
0.0
 11
9105.067897487332
 21
13252.44656498983
 31
0.0
  0
LINE
  5
142
330
22
100
AcDbEntity
  8
_0-2_
  6
Continuous
 62
     7
100
AcDbLine
 10
8817.57251636402
 20
13252.44656498983
 30
0.0
 11
8817.57251636402
 21
13352.44689490959
 31
0.0
  0
LINE
  5
143
330
22
100
AcDbEntity
  8
_0-2_
  6
Continuous
 62
     7
100
AcDbLine
 10
9249.201594172298
 20
13377.94309423392
 30
0.0
 11
9249.372327649915
 21
13352.44689490959
 31
0.0
  0
LINE
  5
144
330
22
100
AcDbEntity
  8
_0-2_
  6
Continuous
 62
     7
100
AcDbLine
 10
8817.57251636402
 20
13252.44656498983
 30
0.0
 11
9030.068887246619
 21
13252.44656498983
 31
0.0
  0
LINE
  5
145
330
22
100
AcDbEntity
  8
_0-2_
  6
Continuous
 62
     7
100
AcDbLine
 10
8881.602519267316
 20
12727.94094975546
 30
0.0
 11
8885.108741554054
 21
13252.44656498983
 31
0.0
  0
LINE
  5
146
330
22
100
AcDbEntity
  8
_0-2_
  6
Continuous
 62
     7
100
AcDbLine
 10
9250.037940772804
 20
13252.44656498983
 30
0.0
 11
9253.539214263092
 21
12727.94094975546
 31
0.0
  0
LINE
  5
147
330
22
100
AcDbEntity
  8
_0-2_
  6
Continuous
 62
     7
100
AcDbLine
 10
16881.6016944679
 20
12727.94094975546
 30
0.0
 11
16885.10544235642
 21
13252.44656498983
 31
0.0
  0
LINE
  5
148
330
22
100
AcDbEntity
  8
_0-2_
  6
Continuous
 62
     7
100
AcDbLine
 10
17250.03711597339
 20
13252.44656498983
 30
0.0
 11
17253.53838946368
 21
12727.94094975546
 31
0.0
  0
LINE
  5
149
330
22
100
AcDbEntity
  8
_0-2_
  6
Continuous
 62
     7
100
AcDbLine
 10
24881.60334406672
 20
12727.94094975546
 30
0.0
 11
24885.10709195524
 21
13252.44656498983
 31
0.0
  0
LINE
  5
14A
330
22
100
AcDbEntity
  8
_0-2_
  6
Continuous
 62
     7
100
AcDbLine
 10
25250.03876557221
 20
13252.44656498983
 30
0.0
 11
25253.5400390625
 21
12727.94094975546
 31
0.0
  0
LINE
  5
14B
330
22
100
AcDbEntity
  8
ADD_LINE
  6
DOT
 62
     7
100
AcDbLine
 10
9178.911363756334
 20
24048.27943093684
 30
0.0
 11
9229.572193042654
 21
24048.27943093684
 31
0.0
  0
LINE
  5
14C
330
22
100
AcDbEntity
  8
_0-2_
  6
Continuous
 62
     7
100
AcDbLine
 10
9281.029778557856
 20
23968.29698266826
 30
0.0
 11
9481.030438397384
 21
23968.29698266826
 31
0.0
  0
LINE
  5
14D
330
22
100
AcDbEntity
  8
_0-2_
  6
Continuous
 62
     7
100
AcDbLine
 10
9229.572193042654
 20
23998.28174037519
 30
0.0
 11
9281.029778557856
 21
23978.29850029917
 31
0.0
  0
LINE
  5
14E
330
22
100
AcDbEntity
  8
_0-0_
  6
Continuous
 62
     6
100
AcDbLine
 10
25117.4976245777
 20
13504.96137838721
 30
0.0
 11
25117.4976245777
 21
13708.70827714143
 31
0.0
  0
LINE
  5
14F
330
22
100
AcDbEntity
  8
_0-0_
  6
Continuous
 62
     6
100
AcDbLine
 10
33017.64740815034
 20
13504.95890398899
 30
0.0
 11
33017.64740815034
 21
13708.70827714143
 31
0.0
  0
LINE
  5
150
330
22
100
AcDbEntity
  8
_0-0_
  6
Continuous
 62
     6
100
AcDbLine
 10
33117.49432538007
 20
13504.95890398899
 30
0.0
 11
33117.49432538007
 21
13708.70827714143
 31
0.0
  0
LINE
  5
151
330
22
100
AcDbEntity
  8
_0-3_
  6
Continuous
 62
     6
100
AcDbLine
 10
25017.65070734797
 20
13504.96137838721
 30
0.0
 11
25017.65070734797
 21
13504.0681206275
 31
0.0
  0
LINE
  5
152
330
22
100
AcDbEntity
  8
_0-0_
  6
Continuous
 62
     6
100
AcDbLine
 10
9117.645263671876
 20
13493.05209972379
 30
0.0
 11
9117.645263671876
 21
13694.3196514552
 31
0.0
  0
LINE
  5
153
330
22
100
AcDbEntity
  8
_0-0_
  6
Continuous
 62
     6
100
AcDbLine
 10
9017.501418654983
 20
13494.72726732302
 30
0.0
 11
9017.501418654983
 21
13694.3196514552
 31
0.0
  0
LINE
  5
154
330
22
100
AcDbEntity
  8
_0-0_
  6
Continuous
 62
     6
100
AcDbLine
 10
25017.65070734797
 20
13504.96137838721
 30
0.0
 11
25017.65070734797
 21
13705.55094500461
 31
0.0
  0
LINE
  5
155
330
22
100
AcDbEntity
  8
_0-0_
  6
Continuous
 62
     7
100
AcDbLine
 10
16654.11047033361
 20
23978.29850029917
 30
0.0
 11
9481.030438397384
 21
23978.29850029917
 31
0.0
  0
LINE
  5
156
330
22
100
AcDbEntity
  8
_0-3_
  6
Continuous
 62
     6
100
AcDbLine
 10
33067.56839236699
 20
20477.74877149322
 30
0.0
 11
33067.56839236699
 21
23902.70068568769
 31
0.0
  0
LINE
  5
157
330
22
100
AcDbEntity
  8
_0-3_
  6
Continuous
 62
     6
100
AcDbLine
 10
9067.570866765203
 20
23902.70068568769
 30
0.0
 11
35067.5700419658
 21
23902.70068568769
 31
0.0
  0
LINE
  5
158
330
22
100
AcDbEntity
  8
_0-2_
  6
Continuous
 62
     7
100
AcDbLine
 10
32875.99553288641
 20
20502.24902553144
 30
0.0
 11
33256.99347418708
 21
20502.24902553144
 31
0.0
  0
LINE
  5
159
330
22
100
AcDbEntity
  8
_0-9_
  6
Continuous
 62
     4
100
AcDbLine
 10
5490.212105415963
 20
24102.93888775693
 30
0.0
 11
5490.212105415963
 21
10102.94342415368
 31
0.0
  0
LINE
  5
15A
330
22
100
AcDbEntity
  8
_0-0_
  6
Continuous
 62
     7
100
AcDbLine
 10
8956.383782464106
 20
23924.28733581437
 30
0.0
 11
8956.240267366977
 21
23902.93822791741
 31
0.0
  0
LINE
  5
15B
330
22
100
AcDbEntity
  8
_0-0_
  6
Continuous
 62
     7
100
AcDbLine
 10
8957.576442409207
 20
24102.93888775693
 30
0.0
 11
8957.212705869929
 21
24048.27943093684
 31
0.0
  0
LINE
  5
15C
330
22
100
AcDbEntity
  8
_0-0_
  6
Continuous
 62
     7
100
AcDbLine
 10
9178.733207084041
 20
23929.78297427509
 30
0.0
 11
9178.911363756334
 21
23902.93822791741
 31
0.0
  0
LINE
  5
15D
330
22
100
AcDbEntity
  8
_0-0_
  6
Continuous
 62
     7
100
AcDbLine
 10
9177.575188714103
 20
24102.93888775693
 30
0.0
 11
9177.941399651603
 21
24048.27943093684
 31
0.0
  0
LINE
  5
15E
330
22
100
AcDbEntity
  8
_0-0_
  6
Continuous
 62
     7
100
AcDbLine
 10
16957.57561760979
 20
24102.94383655339
 30
0.0
 11
16957.21188107052
 21
24048.27943093684
 31
0.0
  0
LINE
  5
15F
330
22
100
AcDbEntity
  8
_0-0_
  6
Continuous
 62
     7
100
AcDbLine
 10
16956.54379354941
 20
23948.27910101708
 30
0.0
 11
16956.23944256756
 21
23902.93822791741
 31
0.0
  0
LINE
  5
160
330
22
100
AcDbEntity
  8
_0-0_
  6
Continuous
 62
     7
100
AcDbLine
 10
17178.60866237331
 20
23948.27910101708
 30
0.0
 11
17178.91053895693
 21
23902.93822791741
 31
0.0
  0
LINE
  5
161
330
22
100
AcDbEntity
  8
_0-0_
  6
Continuous
 62
     7
100
AcDbLine
 10
17177.57436391469
 20
24102.94383655339
 30
0.0
 11
17177.94057485219
 21
24048.27943093684
 31
0.0
  0
LINE
  5
162
330
22
100
AcDbEntity
  8
_0-0_
  6
Continuous
 62
     7
100
AcDbLine
 10
24957.57726720862
 20
24102.94383655339
 30
0.0
 11
24957.23580025338
 21
24051.84256438278
 31
0.0
  0
LINE
  5
163
330
22
100
AcDbEntity
  8
_0-0_
  6
Continuous
 62
     7
100
AcDbLine
 10
25177.57601351352
 20
24102.94383655339
 30
0.0
 11
25177.91748046875
 21
24051.84256438278
 31
0.0
  0
LINE
  5
164
330
22
100
AcDbEntity
  8
_0-0_
  6
Continuous
 62
     7
100
AcDbLine
 10
32957.57396801099
 20
24102.94383655339
 30
0.0
 11
32957.23250105575
 21
24051.72379326792
 31
0.0
  0
LINE
  5
165
330
22
100
AcDbEntity
  8
_0-9_
  6
Continuous
 62
     4
100
AcDbLine
 10
8049.553948479731
 20
23902.93822791741
 30
0.0
 11
5490.212105415963
 21
23902.93822791741
 31
0.0
  0
LINE
  5
166
330
22
100
AcDbEntity
  8
_0-2_
  6
Continuous
 62
     7
100
AcDbLine
 10
8933.52529164907
 20
20501.79373625778
 30
0.0
 11
8956.54461834882
 21
23948.27910101708
 31
0.0
  0
LINE
  5
167
330
22
100
AcDbEntity
  8
_0-2_
  6
Continuous
 62
     7
100
AcDbLine
 10
9178.609487172719
 20
23948.27910101708
 30
0.0
 11
9201.623865076015
 21
20501.79373625778
 31
0.0
  0
LINE
  5
168
330
22
100
AcDbEntity
  8
_0-3_
  6
Continuous
 62
     6
100
AcDbLine
 10
9367.658460462415
 20
13500.17341781923
 30
0.0
 11
9484.165500950172
 21
13662.73395809583
 31
0.0
  0
LINE
  5
169
330
22
100
AcDbEntity
  8
_0-3_
  6
Continuous
 62
     6
100
AcDbLine
 10
9448.937493401603
 20
13441.91866037623
 30
0.0
 11
9565.447008287584
 21
13604.47920065284
 31
0.0
  0
LINE
  5
16A
330
22
100
AcDbEntity
  8
_0-3_
  6
Continuous
 62
     6
100
AcDbLine
 10
17367.657635663
 20
13500.17465501833
 30
0.0
 11
17484.16715054899
 21
13662.73519529494
 31
0.0
  0
LINE
  5
16B
330
22
100
AcDbEntity
  8
_0-3_
  6
Continuous
 62
     6
100
AcDbLine
 10
17448.93666860219
 20
13441.91989757535
 30
0.0
 11
17565.44618348818
 21
13604.48043785195
 31
0.0
  0
LINE
  5
16C
330
22
100
AcDbEntity
  8
_0-3_
  6
Continuous
 62
     6
100
AcDbLine
 10
16767.48492266681
 20
13500.17341781923
 30
0.0
 11
16650.97540778083
 21
13662.73395809583
 31
0.0
  0
LINE
  5
16D
330
22
100
AcDbEntity
  8
_0-3_
  6
Continuous
 62
     6
100
AcDbLine
 10
16686.20341532939
 20
13441.91866037623
 30
0.0
 11
16569.69637484164
 21
13604.47920065284
 31
0.0
  0
LINE
  5
16E
330
22
100
AcDbEntity
  8
_0-3_
  6
Continuous
 62
     6
100
AcDbLine
 10
24767.48409786741
 20
13500.17341781923
 30
0.0
 11
24650.97458298142
 21
13662.73395809583
 31
0.0
  0
LINE
  5
16F
330
22
100
AcDbEntity
  8
_0-3_
  6
Continuous
 62
     6
100
AcDbLine
 10
24686.20259052999
 20
13441.91866037623
 30
0.0
 11
24569.69555004224
 21
13604.47920065284
 31
0.0
  0
LINE
  5
170
330
22
100
AcDbEntity
  8
_0-3_
  6
Continuous
 62
     6
100
AcDbLine
 10
32767.48327306799
 20
13500.17341781923
 30
0.0
 11
32650.97375818201
 21
13662.73395809583
 31
0.0
  0
LINE
  5
171
330
22
100
AcDbEntity
  8
_0-3_
  6
Continuous
 62
     6
100
AcDbLine
 10
32686.2042401288
 20
13441.91866037623
 30
0.0
 11
32569.69472524282
 21
13604.47920065284
 31
0.0
  0
LINE
  5
172
330
22
100
AcDbEntity
  8
_0-3_
  6
Continuous
 62
     6
100
AcDbLine
 10
33367.63371648016
 20
13500.17465501833
 30
0.0
 11
33484.14323136613
 21
13662.73519529494
 31
0.0
  0
LINE
  5
173
330
22
100
AcDbEntity
  8
_0-3_
  6
Continuous
 62
     6
100
AcDbLine
 10
33448.91522381757
 20
13441.91989757535
 30
0.0
 11
33565.42226430532
 21
13604.48043785195
 31
0.0
  0
LINE
  5
174
330
22
100
AcDbEntity
  8
_0-0_
  6
Continuous
 62
     7
100
AcDbLine
 10
33177.57271431588
 20
24102.94383655339
 30
0.0
 11
33177.91418127112
 21
24051.72379326792
 31
0.0
  0
LINE
  5
175
330
22
100
AcDbEntity
  8
_0-0_
  6
Continuous
 62
     7
100
AcDbLine
 10
33177.57271431588
 20
24102.94383655339
 30
0.0
 11
33177.91665566935
 21
24051.72379326792
 31
0.0
  0
LINE
  5
176
330
22
100
AcDbEntity
  8
_0-0_
  6
Continuous
 62
     7
100
AcDbLine
 10
33178.58474319046
 20
23951.72346334816
 30
0.0
 11
33178.88661977407
 21
23906.38259024849
 31
0.0
  0
LINE
  5
177
330
22
100
AcDbEntity
  8
_0-2_
  6
Continuous
 62
     7
100
AcDbLine
 10
16933.52446684966
 20
20501.94714894782
 30
0.0
 11
16956.54379354941
 21
23948.27910101708
 31
0.0
  0
LINE
  5
178
330
22
100
AcDbEntity
  8
_0-2_
  6
Continuous
 62
     7
100
AcDbLine
 10
17178.60866237331
 20
23948.27910101708
 30
0.0
 11
17201.62304027661
 21
20501.94714894782
 31
0.0
  0
LINE
  5
179
330
22
100
AcDbEntity
  8
_0-2_
  6
Continuous
 62
     7
100
AcDbLine
 10
25178.58556798987
 20
23951.84223446302
 30
0.0
 11
25201.6222154772
 21
20502.09808723963
 31
0.0
  0
LINE
  5
17A
330
22
100
AcDbEntity
  8
_0-2_
  6
Continuous
 62
     7
100
AcDbLine
 10
24933.52859084671
 20
20502.09808723963
 30
0.0
 11
24956.56771273227
 21
23951.84223446302
 31
0.0
  0
LINE
  5
17B
330
22
100
AcDbEntity
  8
_0-2_
  6
Continuous
 62
     7
100
AcDbLine
 10
32933.52529164907
 20
20502.24902553144
 30
0.0
 11
32956.56193913641
 21
23951.72346334816
 31
0.0
  0
LINE
  5
17C
330
22
100
AcDbEntity
  8
_0-2_
  6
Continuous
 62
     7
100
AcDbLine
 10
33178.58474319046
 20
23951.72346334816
 30
0.0
 11
33201.61891627956
 21
20502.24902553144
 31
0.0
  0
LINE
  5
17D
330
22
100
AcDbEntity
  8
_0-2_
  6
Continuous
 62
     7
100
AcDbLine
 10
32909.14504592483
 20
16852.25182984942
 30
0.0
 11
32885.77188027872
 21
13352.44689490959
 31
0.0
  0
LINE
  5
17E
330
22
100
AcDbEntity
  8
_0-2_
  6
Continuous
 62
     7
100
AcDbLine
 10
33225.39046004012
 20
16852.25182984942
 30
0.0
 11
33248.52855785473
 21
13477.94094975546
 31
0.0
  0
LINE
  5
17F
330
22
100
AcDbEntity
  8
_0-2_
  6
Continuous
 62
     7
100
AcDbLine
 10
33225.32612568623
 20
16952.25215976918
 30
0.0
 11
33202.28947819891
 21
20402.24869561167
 31
0.0
  0
LINE
  5
180
330
22
100
AcDbEntity
  8
_0-2_
  6
Continuous
 62
     7
100
AcDbLine
 10
32932.85720412796
 20
20402.24869561167
 30
0.0
 11
32909.81560784417
 21
16952.25215976918
 31
0.0
  0
LINE
  5
181
330
22
100
AcDbEntity
  8
_0-2_
  6
Continuous
 62
     7
100
AcDbLine
 10
24885.77270507812
 20
13352.44689490959
 30
0.0
 11
24909.15081952069
 21
16852.24935545119
 31
0.0
  0
LINE
  5
182
330
22
100
AcDbEntity
  8
_0-2_
  6
Continuous
 62
     7
100
AcDbLine
 10
25225.39375923776
 20
16852.24935545119
 30
0.0
 11
25249.39294763514
 21
13352.44689490959
 31
0.0
  0
LINE
  5
183
330
22
100
AcDbEntity
  8
_0-2_
  6
Continuous
 62
     7
100
AcDbLine
 10
25225.32942488387
 20
16952.24968537096
 30
0.0
 11
25202.29030299832
 21
20402.09775731986
 31
0.0
  0
LINE
  5
184
330
22
100
AcDbEntity
  8
_0-2_
  6
Continuous
 62
     7
100
AcDbLine
 10
24932.8605033256
 20
20402.09775731986
 30
0.0
 11
24909.81643264358
 21
16952.24968537096
 31
0.0
  0
LINE
  5
185
330
22
100
AcDbEntity
  8
_0-2_
  6
Continuous
 62
     7
100
AcDbLine
 10
16885.77105547931
 20
13352.44689490959
 30
0.0
 11
16909.14916992187
 21
16852.24935545119
 31
0.0
  0
LINE
  5
186
330
22
100
AcDbEntity
  8
_0-2_
  6
Continuous
 62
     7
100
AcDbLine
 10
17225.39210963894
 20
16852.24935545119
 30
0.0
 11
17249.39129803632
 21
13352.44689490959
 31
0.0
  0
LINE
  5
187
330
22
100
AcDbEntity
  8
_0-2_
  6
Continuous
 62
     7
100
AcDbLine
 10
17225.32777528505
 20
16952.24968537096
 30
0.0
 11
17202.29112779772
 21
20401.94681902805
 31
0.0
  0
LINE
  5
188
330
22
100
AcDbEntity
  8
_0-2_
  6
Continuous
 62
     7
100
AcDbLine
 10
16932.85637932854
 20
20401.94681902805
 30
0.0
 11
16909.81478304476
 21
16952.24968537096
 31
0.0
  0
LINE
  5
189
330
22
100
AcDbEntity
  8
_0-2_
  6
Continuous
 62
     7
100
AcDbLine
 10
8885.774354676941
 20
13352.44689490959
 30
0.0
 11
8909.149994721284
 21
16852.24935545119
 31
0.0
  0
LINE
  5
18A
330
22
100
AcDbEntity
  8
_0-2_
  6
Continuous
 62
     7
100
AcDbLine
 10
9225.392934438344
 20
16852.24935545119
 30
0.0
 11
9249.392122835727
 21
13352.44689490959
 31
0.0
  0
LINE
  5
18B
330
22
100
AcDbEntity
  8
_0-2_
  6
Continuous
 62
     7
100
AcDbLine
 10
9225.328600084459
 20
16952.24968537096
 30
0.0
 11
9202.291952597128
 21
20401.79340633802
 31
0.0
  0
LINE
  5
18C
330
22
100
AcDbEntity
  8
_0-2_
  6
Continuous
 62
     7
100
AcDbLine
 10
8932.857204127955
 20
20401.79340633802
 30
0.0
 11
8909.815607844173
 21
16952.24968537096
 31
0.0
  0
LINE
  5
18D
330
22
100
AcDbEntity
  8
_0-9_
  6
Continuous
 62
     4
100
AcDbLine
 10
5490.212105415963
 20
13202.94127967522
 30
0.0
 11
6290.212270375843
 21
13202.94127967522
 31
0.0
  0
LINE
  5
18E
330
22
100
AcDbEntity
  8
ADD_LINE
  6
DOT
 62
     3
100
AcDbLine
 10
6290.212270375843
 20
12702.94086727552
 30
0.0
 11
5490.212105415963
 21
12702.94086727552
 31
0.0
  0
LINE
  5
18F
330
22
100
AcDbEntity
  8
_0-9_
  6
Continuous
 62
     4
100
AcDbLine
 10
5490.212105415963
 20
12702.94086727552
 30
0.0
 11
6290.212270375843
 21
12702.94086727552
 31
0.0
  0
LINE
  5
190
330
22
100
AcDbEntity
  8
_0-0_
  6
Continuous
 62
     4
100
AcDbLine
 10
8049.553948479731
 20
13102.94589855191
 30
0.0
 11
5067.570041965794
 21
13102.94589855191
 31
0.0
  0
LINE
  5
191
330
22
100
AcDbEntity
  8
_0-0_
  6
Continuous
 62
     4
100
AcDbLine
 10
8490.212105415963
 20
24102.93888775693
 30
0.0
 11
4567.570866765203
 21
24102.93888775693
 31
0.0
  0
LINE
  5
192
330
22
100
AcDbEntity
  8
_0-0_
  6
Continuous
 62
     7
100
AcDbLine
 10
38177.57188951648
 20
24116.53075721428
 30
0.0
 11
37957.57314321157
 21
24116.53075721428
 31
0.0
  0
LINE
  5
193
330
22
100
AcDbEntity
  8
_0-0_
  6
Continuous
 62
     7
100
AcDbLine
 10
37842.57301124366
 20
12741.52787041635
 30
0.0
 11
37842.57301124366
 21
12691.53017985469
 31
0.0
  0
LINE
  5
194
330
22
100
AcDbEntity
  8
_0-2_
  6
Continuous
 62
     7
100
AcDbLine
 10
37864.06810863598
 20
10116.52910761546
 30
0.0
 11
38271.06702649916
 21
10116.52910761546
 31
0.0
  0
LINE
  5
195
330
22
100
AcDbEntity
  8
ADD_LINE
  6
DOT
 62
     7
100
AcDbLine
 10
37864.06810863598
 20
10116.52910761546
 30
0.0
 11
37881.26517630914
 21
12691.53017985469
 31
0.0
  0
LINE
  5
196
330
22
100
AcDbEntity
  8
_0-2_
  6
Continuous
 62
     7
100
AcDbLine
 10
37864.06810863598
 20
10116.52910761546
 30
0.0
 11
37881.26517630914
 21
12691.53017985469
 31
0.0
  0
LINE
  5
197
330
22
100
AcDbEntity
  8
ADD_LINE
  6
DOT
 62
     7
100
AcDbLine
 10
38253.86995882602
 20
12691.53017985469
 30
0.0
 11
38271.06702649916
 21
10116.52910761546
 31
0.0
  0
LINE
  5
198
330
22
100
AcDbEntity
  8
_0-2_
  6
Continuous
 62
     7
100
AcDbLine
 10
38271.06702649916
 20
10116.52910761546
 30
0.0
 11
38253.86995882602
 21
12691.53017985469
 31
0.0
  0
LINE
  5
199
330
22
100
AcDbEntity
  8
_0-0_
  6
Continuous
 62
     7
100
AcDbLine
 10
37905.57119008656
 20
23965.42915512391
 30
0.0
 11
37905.57119008656
 21
24015.42684568557
 31
0.0
  0
LINE
  5
19A
330
22
100
AcDbEntity
  8
_0-2_
  6
Continuous
 62
     7
100
AcDbLine
 10
37905.57119008656
 20
24065.42948504368
 30
0.0
 11
37905.57119008656
 21
23965.42915512391
 31
0.0
  0
LINE
  5
19B
330
22
100
AcDbEntity
  8
_0-2_
  6
Continuous
 62
     7
100
AcDbLine
 10
37905.57119008656
 20
24065.42948504368
 30
0.0
 11
38229.56889384501
 21
24065.42948504368
 31
0.0
  0
LINE
  5
19C
330
22
100
AcDbEntity
  8
_0-2_
  6
Continuous
 62
     7
100
AcDbLine
 10
38229.56889384501
 20
24065.42948504368
 30
0.0
 11
38229.56889384501
 21
23965.42915512391
 31
0.0
  0
LINE
  5
19D
330
22
100
AcDbEntity
  8
_0-2_
  6
Continuous
 62
     7
100
AcDbLine
 10
38229.56889384501
 20
23965.42915512391
 30
0.0
 11
37905.57119008656
 21
23965.42915512391
 31
0.0
  0
LINE
  5
19E
330
22
100
AcDbEntity
  8
_0-2_
  6
Continuous
 62
     7
100
AcDbLine
 10
37876.29163587416
 20
20415.68467798076
 30
0.0
 11
38257.28957717483
 21
20415.68467798076
 31
0.0
  0
LINE
  5
19F
330
22
100
AcDbEntity
  8
_0-2_
  6
Continuous
 62
     7
100
AcDbLine
 10
37876.29163587416
 20
20515.68500790052
 30
0.0
 11
38257.28957717483
 21
20515.68500790052
 31
0.0
  0
LINE
  5
1A0
330
22
100
AcDbEntity
  8
_0-2_
  6
Continuous
 62
     7
100
AcDbLine
 10
37876.29163587416
 20
20515.68500790052
 30
0.0
 11
37876.29163587416
 21
20415.68467798076
 31
0.0
  0
LINE
  5
1A1
330
22
100
AcDbEntity
  8
_0-2_
  6
Continuous
 62
     7
100
AcDbLine
 10
38257.28957717483
 20
20515.68500790052
 30
0.0
 11
38257.28957717483
 21
20415.68467798076
 31
0.0
  0
LINE
  5
1A2
330
22
100
AcDbEntity
  8
_0-2_
  6
Continuous
 62
     7
100
AcDbLine
 10
37846.19305584882
 20
16965.83660603185
 30
0.0
 11
38286.7992504223
 21
16965.83660603185
 31
0.0
  0
LINE
  5
1A3
330
22
100
AcDbEntity
  8
_0-2_
  6
Continuous
 62
     7
100
AcDbLine
 10
38286.7992504223
 20
16865.83627611209
 30
0.0
 11
37846.19305584882
 21
16865.83627611209
 31
0.0
  0
LINE
  5
1A4
330
22
100
AcDbEntity
  8
_0-2_
  6
Continuous
 62
     7
100
AcDbLine
 10
38286.7992504223
 20
16965.83660603185
 30
0.0
 11
38286.7992504223
 21
16865.83627611209
 31
0.0
  0
LINE
  5
1A5
330
22
100
AcDbEntity
  8
_0-2_
  6
Continuous
 62
     7
100
AcDbLine
 10
37846.19305584882
 20
16965.83660603185
 30
0.0
 11
37846.19305584882
 21
16865.83627611209
 31
0.0
  0
LINE
  5
1A6
330
22
100
AcDbEntity
  8
_0-2_
  6
Continuous
 62
     7
100
AcDbLine
 10
37817.56674276816
 20
13366.03381557049
 30
0.0
 11
38317.56839236699
 21
13366.03381557049
 31
0.0
  0
LINE
  5
1A7
330
22
100
AcDbEntity
  8
_0-2_
  6
Continuous
 62
     7
100
AcDbLine
 10
38317.56839236699
 20
13266.03348565073
 30
0.0
 11
38317.56839236699
 21
13366.03381557049
 31
0.0
  0
LINE
  5
1A8
330
22
100
AcDbEntity
  8
_0-2_
  6
Continuous
 62
     7
100
AcDbLine
 10
38317.56839236699
 20
13266.03348565073
 30
0.0
 11
37817.56674276816
 21
13266.03348565073
 31
0.0
  0
LINE
  5
1A9
330
22
100
AcDbEntity
  8
_0-2_
  6
Continuous
 62
     7
100
AcDbLine
 10
37817.56674276816
 20
13266.03348565073
 30
0.0
 11
37817.56674276816
 21
13366.03381557049
 31
0.0
  0
LINE
  5
1AA
330
22
100
AcDbEntity
  8
_0-2_
  6
Continuous
 62
     7
100
AcDbLine
 10
37881.59922006969
 20
12741.52787041635
 30
0.0
 11
37885.10296795819
 21
13266.03348565073
 31
0.0
  0
LINE
  5
1AB
330
22
100
AcDbEntity
  8
_0-2_
  6
Continuous
 62
     7
100
AcDbLine
 10
38250.03464157517
 20
13266.03348565073
 30
0.0
 11
38253.53591506546
 21
12741.52787041635
 31
0.0
  0
LINE
  5
1AC
330
22
100
AcDbEntity
  8
_0-0_
  6
Continuous
 62
     7
100
AcDbLine
 10
37957.57314321157
 20
24116.53075721428
 30
0.0
 11
37957.23167625633
 21
24065.42948504368
 31
0.0
  0
LINE
  5
1AD
330
22
100
AcDbEntity
  8
_0-0_
  6
Continuous
 62
     7
100
AcDbLine
 10
38177.57188951648
 20
24116.53075721428
 30
0.0
 11
38177.91335647171
 21
24065.42948504368
 31
0.0
  0
LINE
  5
1AE
330
22
100
AcDbEntity
  8
_0-2_
  6
Continuous
 62
     7
100
AcDbLine
 10
38178.58144399282
 20
23965.42915512391
 30
0.0
 11
38201.61809148016
 21
20515.68500790052
 31
0.0
  0
LINE
  5
1AF
330
22
100
AcDbEntity
  8
_0-2_
  6
Continuous
 62
     7
100
AcDbLine
 10
37933.52446684968
 20
20515.68500790052
 30
0.0
 11
37956.56358873523
 21
23965.42915512391
 31
0.0
  0
LINE
  5
1B0
330
22
100
AcDbEntity
  8
_0-2_
  6
Continuous
 62
     7
100
AcDbLine
 10
37885.76858108108
 20
13366.03381557049
 30
0.0
 11
37909.14669552365
 21
16865.83627611209
 31
0.0
  0
LINE
  5
1B1
330
22
100
AcDbEntity
  8
_0-2_
  6
Continuous
 62
     7
100
AcDbLine
 10
38225.38963524072
 20
16865.83627611209
 30
0.0
 11
38249.38882363809
 21
13366.03381557049
 31
0.0
  0
LINE
  5
1B2
330
22
100
AcDbEntity
  8
_0-2_
  6
Continuous
 62
     7
100
AcDbLine
 10
38225.32530088683
 20
16965.83660603185
 30
0.0
 11
38202.28617900128
 21
20415.68467798076
 31
0.0
  0
LINE
  5
1B3
330
22
100
AcDbEntity
  8
_0-2_
  6
Continuous
 62
     7
100
AcDbLine
 10
37932.85637932855
 20
20415.68467798076
 30
0.0
 11
37909.81230864653
 21
16965.83660603185
 31
0.0
  0
LINE
  5
1B4
330
22
100
AcDbEntity
  8
_0-3_
  6
Continuous
 62
     6
100
AcDbLine
 10
25367.6568108636
 20
13500.17465501833
 30
0.0
 11
25484.16632574958
 21
13662.73519529494
 31
0.0
  0
LINE
  5
1B5
330
22
100
AcDbEntity
  8
_0-3_
  6
Continuous
 62
     6
100
AcDbLine
 10
25448.93831820102
 20
13441.91989757535
 30
0.0
 11
25565.44535868877
 21
13604.48043785195
 31
0.0
  0
LINE
  5
1B6
330
22
100
AcDbEntity
  8
_0-0_
  6
Continuous
 62
     7
100
AcDbLine
 10
37842.57301124366
 20
12691.53017985469
 30
0.0
 11
38253.86995882602
 21
12691.53017985469
 31
0.0
  0
LINE
  5
1B7
330
22
100
AcDbEntity
  8
_0-0_
  6
Continuous
 62
     7
100
AcDbLine
 10
38253.53591506546
 20
12741.52787041635
 30
0.0
 11
37842.57301124366
 21
12741.52787041635
 31
0.0
  0
LINE
  5
1B8
330
22
100
AcDbEntity
  8
_0-0_
  6
CENTER1
 62
     4
100
AcDbLine
 10
38067.56756756757
 20
25116.52663321725
 30
0.0
 11
38067.56756756757
 21
9284.664879495743
 31
0.0
  0
LINE
  5
1B9
330
22
100
AcDbEntity
  8
_0-2_
  6
Continuous
 62
     7
100
AcDbLine
 10
38454.17496964739
 20
12646.52582491382
 30
0.0
 11
38454.37539590372
 21
12616.52622081754
 31
0.0
  0
LINE
  5
1BA
330
22
100
AcDbEntity
  8
_0-2_
  6
Continuous
 62
     7
100
AcDbLine
 10
38284.17143950592
 20
12646.52582491382
 30
0.0
 11
38454.17496964739
 21
12646.52582491382
 31
0.0
  0
LINE
  5
1BB
330
22
100
AcDbEntity
  8
_0-2_
  6
Continuous
 62
     7
100
AcDbLine
 10
38283.03569072001
 20
12816.52688065706
 30
0.0
 11
38284.17143950592
 21
12646.52582491382
 31
0.0
  0
LINE
  5
1BC
330
22
100
AcDbEntity
  8
_0-2_
  6
Continuous
 62
     7
100
AcDbLine
 10
38283.03569072001
 20
12816.52688065706
 30
0.0
 11
38253.03608662372
 21
12816.52688065706
 31
0.0
  0
LINE
  5
1BD
330
22
100
AcDbEntity
  8
_0-2_
  6
Continuous
 62
     7
100
AcDbLine
 10
38454.37539590372
 20
12616.52622081754
 30
0.0
 11
38254.36978726774
 21
12616.52622081754
 31
0.0
  0
LINE
  5
1BE
330
22
100
AcDbEntity
  8
_0-2_
  6
Continuous
 62
     7
100
AcDbLine
 10
38253.53591506546
 20
12741.52787041635
 30
0.0
 11
38253.86995882602
 21
12691.53017985469
 31
0.0
  0
LINE
  5
1BF
330
22
100
AcDbEntity
  8
_0-F_
  6
Continuous
 62
     3
100
AcDbLine
 10
7444.071176889782
 20
13102.94094975546
 30
0.0
 11
7844.070022170612
 21
12702.94086727552
 31
0.0
  0
LINE
  5
1C0
330
22
100
AcDbEntity
  8
_0-F_
  6
Continuous
 62
     3
100
AcDbLine
 10
7444.071176889782
 20
13102.94094975546
 30
0.0
 11
7044.072331608956
 21
12702.94086727552
 31
0.0
  0
LINE
  5
1C1
330
22
100
AcDbEntity
  8
_0-F_
  6
Continuous
 62
     3
100
AcDbLine
 10
7044.072331608956
 20
12702.94086727552
 30
0.0
 11
6644.071011929897
 21
13102.94094975546
 31
0.0
  0
LINE
  5
1C2
330
22
100
AcDbEntity
  8
_0-F_
  6
Continuous
 62
     3
100
AcDbLine
 10
6728.683059279984
 20
13010.43309766509
 30
0.0
 11
6421.189591691302
 21
12702.94086727552
 31
0.0
  0
LINE
  5
1C3
330
22
100
AcDbEntity
  8
_0-F_
  6
Continuous
 62
     3
100
AcDbLine
 10
6832.291061813766
 20
12910.52432047969
 30
0.0
 11
6624.708845808697
 21
12702.94086727552
 31
0.0
  0
LINE
  5
1C4
330
22
100
AcDbEntity
  8
_0-F_
  6
Continuous
 62
     3
100
AcDbLine
 10
6935.901538745778
 20
12810.61554329431
 30
0.0
 11
6828.225625527874
 21
12702.94086727552
 31
0.0
  0
LINE
  5
1C5
330
22
100
AcDbEntity
  8
_0-F_
  6
Continuous
 62
     3
100
AcDbLine
 10
7544.071506809543
 20
13002.94061983569
 30
0.0
 11
7244.070517050253
 21
12702.94086727552
 31
0.0
  0
LINE
  5
1C6
330
22
100
AcDbEntity
  8
_0-F_
  6
Continuous
 62
     3
100
AcDbLine
 10
7644.071836729307
 20
12902.94028991593
 30
0.0
 11
7444.071176889782
 21
12702.94086727552
 31
0.0
  0
LINE
  5
1C7
330
22
100
AcDbEntity
  8
_0-F_
  6
Continuous
 62
     3
100
AcDbLine
 10
7744.069692250843
 20
12802.94119719528
 30
0.0
 11
7644.069362331082
 21
12702.94086727552
 31
0.0
  0
LINE
  5
1C8
330
22
100
AcDbEntity
  8
_0-F_
  6
Continuous
 62
     3
100
AcDbLine
 10
7344.070846970012
 20
13002.94061983569
 30
0.0
 11
7244.070517050253
 21
13102.94094975546
 31
0.0
  0
LINE
  5
1C9
330
22
100
AcDbEntity
  8
_0-F_
  6
Continuous
 62
     3
100
AcDbLine
 10
7244.070517050253
 20
12902.94028991593
 30
0.0
 11
7044.069857210728
 21
13102.94094975546
 31
0.0
  0
LINE
  5
1CA
330
22
100
AcDbEntity
  8
_0-F_
  6
Continuous
 62
     3
100
AcDbLine
 10
7144.072661528716
 20
12802.94119719528
 30
0.0
 11
6844.071671769426
 21
13102.94094975546
 31
0.0
  0
LINE
  5
1CB
330
22
100
AcDbEntity
  8
_0-F_
  6
Continuous
 62
     3
100
AcDbLine
 10
6644.071011929897
 20
13102.94094975546
 30
0.0
 11
6344.070022170609
 21
12802.94119719528
 31
0.0
  0
LINE
  5
1CC
330
22
100
AcDbEntity
  8
_0-F_
  6
Continuous
 62
     3
100
AcDbLine
 10
6444.070352090374
 20
12902.94028991593
 30
0.0
 11
6244.069692250843
 21
13102.94094975546
 31
0.0
  0
LINE
  5
1CD
330
22
100
AcDbEntity
  8
_0-F_
  6
Continuous
 62
     3
100
AcDbLine
 10
6544.070682010135
 20
13002.94061983569
 30
0.0
 11
6444.070352090374
 21
13102.94094975546
 31
0.0
  0
LINE
  5
1CE
330
22
100
AcDbEntity
  8
_0-F_
  6
Continuous
 62
     3
100
AcDbLine
 10
6955.303295238599
 20
13295.60254445562
 30
0.0
 11
6732.837573902028
 21
13295.60254445562
 31
0.0
  0
LINE
  5
1CF
330
22
100
AcDbEntity
  8
_0-F_
  6
Continuous
 62
     3
100
AcDbLine
 10
6844.071671769426
 20
13102.94094975546
 30
0.0
 11
6955.303295238599
 21
13295.60254445562
 31
0.0
  0
LINE
  5
1D0
330
22
100
AcDbEntity
  8
_0-F_
  6
Continuous
 62
     3
100
AcDbLine
 10
6844.071671769426
 20
13102.94094975546
 30
0.0
 11
6732.837573902028
 21
13295.60254445562
 31
0.0
  0
LINE
  5
1D1
330
22
100
AcDbEntity
  8
ADD_LINE
  6
DOT
 62
     4
100
AcDbLine
 10
38067.56756756757
 20
9284.664879495743
 30
0.0
 11
38067.56756756757
 21
25116.52663321725
 31
0.0
  0
LINE
  5
1D2
330
22
100
AcDbEntity
  8
_0-F_
  6
Continuous
 62
     3
100
AcDbLine
 10
35245.44710726352
 20
13102.94589855191
 30
0.0
 11
35645.44842694257
 21
12702.94581607197
 31
0.0
  0
LINE
  5
1D3
330
22
100
AcDbEntity
  8
_0-F_
  6
Continuous
 62
     3
100
AcDbLine
 10
35245.44710726352
 20
13102.94589855191
 30
0.0
 11
34845.44826198269
 21
12702.94581607197
 31
0.0
  0
LINE
  5
1D4
330
22
100
AcDbEntity
  8
_0-F_
  6
Continuous
 62
     3
100
AcDbLine
 10
34845.44826198269
 20
12702.94581607197
 30
0.0
 11
34445.44694230364
 21
13102.94589855191
 31
0.0
  0
LINE
  5
1D5
330
22
100
AcDbEntity
  8
_0-F_
  6
Continuous
 62
     3
100
AcDbLine
 10
34530.05898965372
 20
13010.43804646154
 30
0.0
 11
34222.56552206504
 21
12702.94581607197
 31
0.0
  0
LINE
  5
1D6
330
22
100
AcDbEntity
  8
_0-F_
  6
Continuous
 62
     3
100
AcDbLine
 10
34633.66946658574
 20
12910.52926927615
 30
0.0
 11
34426.08477618243
 21
12702.94581607197
 31
0.0
  0
LINE
  5
1D7
330
22
100
AcDbEntity
  8
_0-F_
  6
Continuous
 62
     3
100
AcDbLine
 10
34737.27746911951
 20
12810.62049209076
 30
0.0
 11
34629.60403029983
 21
12702.94581607197
 31
0.0
  0
LINE
  5
1D8
330
22
100
AcDbEntity
  8
_0-F_
  6
Continuous
 62
     3
100
AcDbLine
 10
35345.44743718329
 20
13002.94556863215
 30
0.0
 11
35045.44892182221
 21
12702.94581607197
 31
0.0
  0
LINE
  5
1D9
330
22
100
AcDbEntity
  8
_0-F_
  6
Continuous
 62
     3
100
AcDbLine
 10
35445.44776710304
 20
12902.94523871238
 30
0.0
 11
35245.44710726352
 21
12702.94581607197
 31
0.0
  0
LINE
  5
1DA
330
22
100
AcDbEntity
  8
_0-F_
  6
Continuous
 62
     3
100
AcDbLine
 10
35545.44562262457
 20
12802.94614599174
 30
0.0
 11
35445.44529270481
 21
12702.94581607197
 31
0.0
  0
LINE
  5
1DB
330
22
100
AcDbEntity
  8
_0-F_
  6
Continuous
 62
     3
100
AcDbLine
 10
35145.44677734375
 20
13002.94556863215
 30
0.0
 11
35045.44892182221
 21
13102.94589855191
 31
0.0
  0
LINE
  5
1DC
330
22
100
AcDbEntity
  8
_0-F_
  6
Continuous
 62
     3
100
AcDbLine
 10
35045.44892182221
 20
12902.94523871238
 30
0.0
 11
34845.44826198269
 21
13102.94589855191
 31
0.0
  0
LINE
  5
1DD
330
22
100
AcDbEntity
  8
_0-F_
  6
Continuous
 62
     3
100
AcDbLine
 10
34945.44859190245
 20
12802.94614599174
 30
0.0
 11
34645.44760214316
 21
13102.94589855191
 31
0.0
  0
LINE
  5
1DE
330
22
100
AcDbEntity
  8
_0-F_
  6
Continuous
 62
     3
100
AcDbLine
 10
34445.44694230364
 20
13102.94589855191
 30
0.0
 11
34145.44595254435
 21
12802.94614599174
 31
0.0
  0
LINE
  5
1DF
330
22
100
AcDbEntity
  8
_0-F_
  6
Continuous
 62
     3
100
AcDbLine
 10
34245.4462824641
 20
12902.94523871238
 30
0.0
 11
34045.44562262457
 21
13102.94589855191
 31
0.0
  0
LINE
  5
1E0
330
22
100
AcDbEntity
  8
_0-F_
  6
Continuous
 62
     3
100
AcDbLine
 10
34345.44661238386
 20
13002.94556863215
 30
0.0
 11
34245.4462824641
 21
13102.94589855191
 31
0.0
  0
LINE
  5
1E1
330
22
100
AcDbEntity
  8
_0-F_
  6
Continuous
 62
     3
100
AcDbLine
 10
37245.35720412796
 20
13102.94589855191
 30
0.0
 11
37645.35852380701
 21
12702.94581607197
 31
0.0
  0
LINE
  5
1E2
330
22
100
AcDbEntity
  8
_0-F_
  6
Continuous
 62
     3
100
AcDbLine
 10
37245.35720412796
 20
13102.94589855191
 30
0.0
 11
36845.35835884713
 21
12702.94581607197
 31
0.0
  0
LINE
  5
1E3
330
22
100
AcDbEntity
  8
_0-F_
  6
Continuous
 62
     3
100
AcDbLine
 10
36845.35835884713
 20
12702.94581607197
 30
0.0
 11
36445.35703916809
 21
13102.94589855191
 31
0.0
  0
LINE
  5
1E4
330
22
100
AcDbEntity
  8
_0-F_
  6
Continuous
 62
     3
100
AcDbLine
 10
36529.96908651816
 20
13010.43804646154
 30
0.0
 11
36222.47561892949
 21
12702.94581607197
 31
0.0
  0
LINE
  5
1E5
330
22
100
AcDbEntity
  8
_0-F_
  6
Continuous
 62
     3
100
AcDbLine
 10
36633.57956345017
 20
12910.52926927615
 30
0.0
 11
36425.99487304688
 21
12702.94581607197
 31
0.0
  0
LINE
  5
1E6
330
22
100
AcDbEntity
  8
_0-F_
  6
Continuous
 62
     3
100
AcDbLine
 10
36737.18756598395
 20
12810.62049209076
 30
0.0
 11
36629.51412716428
 21
12702.94581607197
 31
0.0
  0
LINE
  5
1E7
330
22
100
AcDbEntity
  8
_0-F_
  6
Continuous
 62
     3
100
AcDbLine
 10
37345.35753404773
 20
13002.94556863215
 30
0.0
 11
37045.35901868666
 21
12702.94581607197
 31
0.0
  0
LINE
  5
1E8
330
22
100
AcDbEntity
  8
_0-F_
  6
Continuous
 62
     3
100
AcDbLine
 10
37445.35786396748
 20
12902.94523871238
 30
0.0
 11
37245.35720412796
 21
12702.94581607197
 31
0.0
  0
LINE
  5
1E9
330
22
100
AcDbEntity
  8
_0-F_
  6
Continuous
 62
     3
100
AcDbLine
 10
37545.35571948903
 20
12802.94614599174
 30
0.0
 11
37445.35538956926
 21
12702.94581607197
 31
0.0
  0
LINE
  5
1EA
330
22
100
AcDbEntity
  8
_0-F_
  6
Continuous
 62
     3
100
AcDbLine
 10
37145.35687420819
 20
13002.94556863215
 30
0.0
 11
37045.35901868666
 21
13102.94589855191
 31
0.0
  0
LINE
  5
1EB
330
22
100
AcDbEntity
  8
_0-F_
  6
Continuous
 62
     3
100
AcDbLine
 10
37045.35901868666
 20
12902.94523871238
 30
0.0
 11
36845.35835884713
 21
13102.94589855191
 31
0.0
  0
LINE
  5
1EC
330
22
100
AcDbEntity
  8
_0-F_
  6
Continuous
 62
     3
100
AcDbLine
 10
36945.35868876689
 20
12802.94614599174
 30
0.0
 11
36645.3576990076
 21
13102.94589855191
 31
0.0
  0
LINE
  5
1ED
330
22
100
AcDbEntity
  8
_0-F_
  6
Continuous
 62
     3
100
AcDbLine
 10
36445.35703916809
 20
13102.94589855191
 30
0.0
 11
36145.3560494088
 21
12802.94614599174
 31
0.0
  0
LINE
  5
1EE
330
22
100
AcDbEntity
  8
_0-F_
  6
Continuous
 62
     3
100
AcDbLine
 10
36245.35637932855
 20
12902.94523871238
 30
0.0
 11
36045.35571948903
 21
13102.94589855191
 31
0.0
  0
LINE
  5
1EF
330
22
100
AcDbEntity
  8
_0-F_
  6
Continuous
 62
     3
100
AcDbLine
 10
36345.35670924832
 20
13002.94556863215
 30
0.0
 11
36245.35637932855
 21
13102.94589855191
 31
0.0
  0
LINE
  5
1F0
330
22
100
AcDbEntity
  8
_0-F_
  6
Continuous
 62
     3
100
AcDbLine
 10
33251.0326488598
 20
13102.94589855191
 30
0.0
 11
35636.12242002744
 21
13102.94589855191
 31
0.0
  0
LINE
  5
1F1
330
22
100
AcDbEntity
  8
_0-F_
  6
Continuous
 62
     3
100
AcDbLine
 10
36045.35571948903
 20
13102.94589855191
 30
0.0
 11
37884.0142327386
 21
13102.94589855191
 31
0.0
  0
LINE
  5
1F2
330
22
100
AcDbEntity
  8
ADD_LINE
  6
DOT
 62
     7
100
AcDbLine
 10
38246.60760003169
 20
13102.94589855191
 30
0.0
 11
38246.6100744299
 21
13102.94589855191
 31
0.0
  0
LINE
  5
1F3
330
22
100
AcDbEntity
  8
_0-F_
  6
Continuous
 62
     3
100
AcDbLine
 10
38251.12337679477
 20
13102.94589855191
 30
0.0
 11
40084.87020956502
 21
13102.94589855191
 31
0.0
  0
LINE
  5
1F4
330
22
100
AcDbEntity
  8
_0-F_
  6
Continuous
 62
     7
100
AcDbLine
 10
38229.56889384501
 20
24065.42948504368
 30
0.0
 11
38229.56889384501
 21
24015.43179448203
 31
0.0
  0
LINE
  5
1F5
330
22
100
AcDbEntity
  8
_0-F_
  6
Continuous
 62
     4
100
AcDbLine
 10
38229.56889384501
 20
24065.42948504368
 30
0.0
 11
38229.56889384501
 21
24165.42981496344
 31
0.0
  0
LINE
  5
1F6
330
22
100
AcDbEntity
  8
_0-F_
  6
Continuous
 62
     4
100
AcDbLine
 10
38629.57021352407
 20
24758.24861643092
 30
0.0
 11
39629.57103832348
 21
24758.24861643092
 31
0.0
  0
LINE
  5
1F7
330
22
100
AcDbEntity
  8
_0-F_
  6
Continuous
 62
     4
100
AcDbLine
 10
38229.56889384501
 20
24065.42948504368
 30
0.0
 11
38629.57021352407
 21
24758.24861643092
 31
0.0
  0
LINE
  5
1F8
330
22
100
AcDbEntity
  8
_0-F_
  6
Continuous
 62
     7
100
AcDbLine
 10
38257.28957717483
 20
20515.68500790052
 30
0.0
 11
38257.28957717483
 21
20465.68731733886
 31
0.0
  0
LINE
  5
1F9
330
22
100
AcDbEntity
  8
_0-F_
  6
Continuous
 62
     4
100
AcDbLine
 10
38257.28957717483
 20
20515.68500790052
 30
0.0
 11
38257.28957717483
 21
20615.68533782028
 31
0.0
  0
LINE
  5
1FA
330
22
100
AcDbEntity
  8
_0-F_
  6
Continuous
 62
     4
100
AcDbLine
 10
38657.29089685388
 20
21208.50413928776
 30
0.0
 11
39657.2917216533
 21
21208.50413928776
 31
0.0
  0
LINE
  5
1FB
330
22
100
AcDbEntity
  8
_0-F_
  6
Continuous
 62
     4
100
AcDbLine
 10
38257.28957717483
 20
20515.68500790052
 30
0.0
 11
38657.29089685388
 21
21208.50413928776
 31
0.0
  0
LINE
  5
1FC
330
22
100
AcDbEntity
  8
_0-F_
  6
Continuous
 62
     7
100
AcDbLine
 10
38286.7992504223
 20
16965.83660603185
 30
0.0
 11
38286.7992504223
 21
16915.8389154702
 31
0.0
  0
LINE
  5
1FD
330
22
100
AcDbEntity
  8
_0-F_
  6
Continuous
 62
     4
100
AcDbLine
 10
38286.7992504223
 20
16965.83660603185
 30
0.0
 11
38286.7992504223
 21
17065.83693595162
 31
0.0
  0
LINE
  5
1FE
330
22
100
AcDbEntity
  8
_0-F_
  6
Continuous
 62
     4
100
AcDbLine
 10
38686.80057010136
 20
17658.6557374191
 30
0.0
 11
39686.80139490076
 21
17658.6557374191
 31
0.0
  0
LINE
  5
1FF
330
22
100
AcDbEntity
  8
_0-F_
  6
Continuous
 62
     4
100
AcDbLine
 10
38286.7992504223
 20
16965.83660603185
 30
0.0
 11
38686.80057010136
 21
17658.6557374191
 31
0.0
  0
LINE
  5
200
330
22
100
AcDbEntity
  8
_0-F_
  6
Continuous
 62
     4
100
AcDbLine
 10
31533.93389727618
 20
23774.7074886332
 30
0.0
 11
31533.93389727618
 21
23874.70781855297
 31
0.0
  0
LINE
  5
201
330
22
100
AcDbEntity
  8
_0-F_
  6
Continuous
 62
     4
100
AcDbLine
 10
9609.310665646114
 20
24027.02435017248
 30
0.0
 11
10009.31198532517
 21
24719.84348155972
 31
0.0
  0
LINE
  5
202
330
22
100
AcDbEntity
  8
_0-F_
  6
Continuous
 62
     4
100
AcDbLine
 10
10563.55739284206
 20
22065.0838940914
 30
0.0
 11
10963.55871252111
 21
22757.90055108042
 31
0.0
  0
LINE
  5
203
330
22
100
AcDbEntity
  8
_0-F_
  6
Continuous
 62
     4
100
AcDbLine
 10
9609.310665646114
 20
24027.02435017248
 30
0.0
 11
9609.310665646114
 21
24127.02468009225
 31
0.0
  0
LINE
  5
204
330
22
100
AcDbEntity
  8
_0-F_
  6
Continuous
 62
     4
100
AcDbLine
 10
10563.55739284206
 20
22065.0838940914
 30
0.0
 11
10563.55739284206
 21
22165.08422401116
 31
0.0
  0
LINE
  5
205
330
22
100
AcDbEntity
  8
_0-F_
  6
Continuous
 62
     4
100
AcDbLine
 10
10963.55871252111
 20
22757.90055108042
 30
0.0
 11
13971.51142842061
 21
22757.90055108042
 31
0.0
  0
LINE
  5
206
330
22
100
AcDbEntity
  8
_0-F_
  6
Continuous
 62
     4
100
AcDbLine
 10
17128.08639938767
 20
20964.08679408612
 30
0.0
 11
17528.08771906672
 21
21656.90345107514
 31
0.0
  0
LINE
  5
207
330
22
100
AcDbEntity
  8
_0-F_
  6
Continuous
 62
     4
100
AcDbLine
 10
17128.08639938767
 20
20964.08679408612
 30
0.0
 11
17128.08639938767
 21
21064.088361205
 31
0.0
  0
LINE
  5
208
330
22
100
AcDbEntity
  8
_0-F_
  6
Continuous
 62
     4
100
AcDbLine
 10
17528.08771906672
 20
21656.90345107514
 30
0.0
 11
17728.08837890625
 21
21656.90345107514
 31
0.0
  0
LINE
  5
209
330
22
100
AcDbEntity
  8
_0-F_
  6
Continuous
 62
     4
100
AcDbLine
 10
10009.31198532517
 20
24719.84348155972
 30
0.0
 11
11948.37415540541
 21
24719.84348155972
 31
0.0
  0
LINE
  5
20A
330
22
100
AcDbEntity
  8
_0-F_
  6
Continuous
 62
     4
100
AcDbLine
 10
9773.717106999578
 20
12602.93930015664
 30
0.0
 11
9773.717106999578
 21
12502.93897023687
 31
0.0
  0
LINE
  5
20B
330
22
100
AcDbEntity
  8
_0-F_
  6
Continuous
 62
     4
100
AcDbLine
 10
10173.71842667863
 20
11910.11893157028
 30
0.0
 11
10973.72106603674
 21
11910.11893157028
 31
0.0
  0
LINE
  5
20C
330
22
100
AcDbEntity
  8
_0-F_
  6
Continuous
 62
     4
100
AcDbLine
 10
17128.08639938767
 20
22592.36330973751
 30
0.0
 11
17528.08771906672
 21
23285.17996672653
 31
0.0
  0
LINE
  5
20D
330
22
100
AcDbEntity
  8
_0-F_
  6
Continuous
 62
     4
100
AcDbLine
 10
17128.08639938767
 20
22592.36330973751
 30
0.0
 11
17128.08639938767
 21
22692.36363965728
 31
0.0
  0
LINE
  5
20E
330
22
100
AcDbEntity
  8
_0-F_
  6
Continuous
 62
     4
100
AcDbLine
 10
17528.08771906672
 20
23285.17996672653
 30
0.0
 11
17728.08837890625
 21
23285.17996672653
 31
0.0
  0
LINE
  5
20F
330
22
100
AcDbEntity
  8
_0-F_
  6
Continuous
 62
     4
100
AcDbLine
 10
20909.94675095017
 20
23906.65477405339
 30
0.0
 11
21309.94807062922
 21
24599.47143104241
 31
0.0
  0
LINE
  5
210
330
22
100
AcDbEntity
  8
_0-F_
  6
Continuous
 62
     4
100
AcDbLine
 10
20909.94675095017
 20
23906.65477405339
 30
0.0
 11
20909.94675095017
 21
24006.65510397316
 31
0.0
  0
LINE
  5
211
330
22
100
AcDbEntity
  8
_0-F_
  6
Continuous
 62
     4
100
AcDbLine
 10
21309.94807062922
 20
24599.47143104241
 30
0.0
 11
21509.9437816723
 21
24599.47143104241
 31
0.0
  0
LINE
  5
212
330
22
100
AcDbEntity
  8
_0-F_
  6
Continuous
 62
     4
100
AcDbLine
 10
20909.94675095017
 20
13202.94127967522
 30
0.0
 11
21309.94807062922
 21
13895.75669946513
 31
0.0
  0
LINE
  5
213
330
22
100
AcDbEntity
  8
_0-F_
  6
Continuous
 62
     4
100
AcDbLine
 10
20909.94675095017
 20
13202.94127967522
 30
0.0
 11
20909.94675095017
 21
13302.94037239587
 31
0.0
  0
LINE
  5
214
330
22
100
AcDbEntity
  8
_0-F_
  6
Continuous
 62
     4
100
AcDbLine
 10
21309.94807062922
 20
13895.75669946513
 30
0.0
 11
21509.9437816723
 21
13895.75669946513
 31
0.0
  0
LINE
  5
215
330
22
100
AcDbEntity
  8
_0-F_
  6
Continuous
 62
     4
100
AcDbLine
 10
20909.94675095017
 20
16802.74654453481
 30
0.0
 11
21309.94807062922
 21
17495.56320152383
 31
0.0
  0
LINE
  5
216
330
22
100
AcDbEntity
  8
_0-F_
  6
Continuous
 62
     4
100
AcDbLine
 10
20909.94675095017
 20
16802.74654453481
 30
0.0
 11
20909.94675095017
 21
16902.74687445457
 31
0.0
  0
LINE
  5
217
330
22
100
AcDbEntity
  8
_0-F_
  6
Continuous
 62
     4
100
AcDbLine
 10
21309.94807062922
 20
17495.56320152383
 30
0.0
 11
21509.9437816723
 21
17495.56320152383
 31
0.0
  0
LINE
  5
218
330
22
100
AcDbEntity
  8
_0-F_
  6
Continuous
 62
     4
100
AcDbLine
 10
9773.717106999578
 20
12602.93930015664
 30
0.0
 11
10173.71842667863
 21
11910.11893157028
 31
0.0
  0
LINE
  5
219
330
22
100
AcDbEntity
  8
_0-F_
  6
Continuous
 62
     4
100
AcDbLine
 10
20909.94675095017
 20
20352.74588469528
 30
0.0
 11
21309.94807062922
 21
21045.5625416843
 31
0.0
  0
LINE
  5
21A
330
22
100
AcDbEntity
  8
_0-F_
  6
Continuous
 62
     4
100
AcDbLine
 10
20909.94675095017
 20
20352.74588469528
 30
0.0
 11
20909.94675095017
 21
20452.74621461505
 31
0.0
  0
LINE
  5
21B
330
22
100
AcDbEntity
  8
_0-F_
  6
Continuous
 62
     4
100
AcDbLine
 10
21309.94807062922
 20
21045.5625416843
 30
0.0
 11
21509.9437816723
 21
21045.5625416843
 31
0.0
  0
LINE
  5
21C
330
22
100
AcDbEntity
  8
_0-6_
  6
Continuous
 62
     5
100
AcDbLine
 10
11967.57053684544
 20
13202.94127967522
 30
0.0
 11
9067.570866765203
 21
18225.88926122611
 31
0.0
  0
LINE
  5
21D
330
22
100
AcDbEntity
  8
_0-6_
  6
Continuous
 62
     5
100
AcDbLine
 10
9067.570866765203
 20
13302.94160959498
 30
0.0
 11
11909.83787742821
 21
13302.94160959498
 31
0.0
  0
LINE
  5
21E
330
22
100
AcDbEntity
  8
_0-6_
  6
Continuous
 62
     5
100
AcDbLine
 10
9167.571196684969
 20
18052.68509697885
 30
0.0
 11
9167.571196684969
 21
13202.94127967522
 31
0.0
  0
LINE
  5
21F
330
22
100
AcDbEntity
  8
_0-6_
  6
Continuous
 62
     5
100
AcDbLine
 10
9067.570866765203
 20
18202.94045487581
 30
0.0
 11
9080.821269267316
 21
18202.94045487581
 31
0.0
  0
LINE
  5
220
330
22
100
AcDbEntity
  8
_0-6_
  6
Continuous
 62
     5
100
AcDbLine
 10
9067.570866765203
 20
18102.94136215516
 30
0.0
 11
9138.55640308277
 21
18102.94136215516
 31
0.0
  0
LINE
  5
221
330
22
100
AcDbEntity
  8
_0-6_
  6
Continuous
 62
     5
100
AcDbLine
 10
9067.570866765203
 20
17902.94070231564
 30
0.0
 11
9254.026670713679
 21
17902.94070231564
 31
0.0
  0
LINE
  5
222
330
22
100
AcDbEntity
  8
_0-6_
  6
Continuous
 62
     5
100
AcDbLine
 10
9067.570866765203
 20
17802.94037239587
 30
0.0
 11
9311.76180452914
 21
17802.94037239587
 31
0.0
  0
LINE
  5
223
330
22
100
AcDbEntity
  8
_0-6_
  6
Continuous
 62
     5
100
AcDbLine
 10
9067.570866765203
 20
17702.94004247611
 30
0.0
 11
9369.496938344596
 21
17702.94004247611
 31
0.0
  0
LINE
  5
224
330
22
100
AcDbEntity
  8
_0-6_
  6
Continuous
 62
     5
100
AcDbLine
 10
9067.570866765203
 20
17602.94094975546
 30
0.0
 11
9427.229597761822
 21
17602.94094975546
 31
0.0
  0
LINE
  5
225
330
22
100
AcDbEntity
  8
_0-6_
  6
Continuous
 62
     5
100
AcDbLine
 10
9067.570866765203
 20
17502.94061983569
 30
0.0
 11
9484.967205975509
 21
17502.94061983569
 31
0.0
  0
LINE
  5
226
330
22
100
AcDbEntity
  8
_0-6_
  6
Continuous
 62
     5
100
AcDbLine
 10
9067.570866765203
 20
17102.94053735576
 30
0.0
 11
9715.907741237332
 21
17102.94053735576
 31
0.0
  0
LINE
  5
227
330
22
100
AcDbEntity
  8
_0-6_
  6
Continuous
 62
     5
100
AcDbLine
 10
9067.570866765203
 20
17002.94020743599
 30
0.0
 11
9773.64040065456
 21
17002.94020743599
 31
0.0
  0
LINE
  5
228
330
22
100
AcDbEntity
  8
_0-6_
  6
Continuous
 62
     5
100
AcDbLine
 10
9067.570866765203
 20
16902.94111471534
 30
0.0
 11
9831.375534470017
 21
16902.94111471534
 31
0.0
  0
LINE
  5
229
330
22
100
AcDbEntity
  8
_0-6_
  6
Continuous
 62
     5
100
AcDbLine
 10
9067.570866765203
 20
16802.94078479557
 30
0.0
 11
9889.110668285471
 21
16802.94078479557
 31
0.0
  0
LINE
  5
22A
330
22
100
AcDbEntity
  8
_0-6_
  6
Continuous
 62
     5
100
AcDbLine
 10
9067.570866765203
 20
16702.94045487581
 30
0.0
 11
9946.845802100932
 21
16702.94045487581
 31
0.0
  0
LINE
  5
22B
330
22
100
AcDbEntity
  8
_0-6_
  6
Continuous
 62
     5
100
AcDbLine
 10
9067.570866765203
 20
16602.94136215516
 30
0.0
 11
10004.58093591638
 21
16602.94136215516
 31
0.0
  0
LINE
  5
22C
330
22
100
AcDbEntity
  8
_0-6_
  6
Continuous
 62
     5
100
AcDbLine
 10
9067.570866765203
 20
16502.9410322354
 30
0.0
 11
10062.31606973184
 21
16502.9410322354
 31
0.0
  0
LINE
  5
22D
330
22
100
AcDbEntity
  8
_0-6_
  6
Continuous
 62
     5
100
AcDbLine
 10
9067.570866765203
 20
16402.94070231564
 30
0.0
 11
10120.0512035473
 21
16402.94070231564
 31
0.0
  0
LINE
  5
22E
330
22
100
AcDbEntity
  8
_0-6_
  6
Continuous
 62
     5
100
AcDbLine
 10
9067.570866765203
 20
16302.94037239587
 30
0.0
 11
10177.78633736275
 21
16302.94037239587
 31
0.0
  0
LINE
  5
22F
330
22
100
AcDbEntity
  8
_0-6_
  6
Continuous
 62
     5
100
AcDbLine
 10
9067.570866765203
 20
16202.94004247611
 30
0.0
 11
10235.52147117821
 21
16202.94004247611
 31
0.0
  0
LINE
  5
230
330
22
100
AcDbEntity
  8
_0-6_
  6
Continuous
 62
     5
100
AcDbLine
 10
9067.570866765203
 20
16102.94094975546
 30
0.0
 11
10293.25660499367
 21
16102.94094975546
 31
0.0
  0
LINE
  5
231
330
22
100
AcDbEntity
  8
_0-6_
  6
Continuous
 62
     5
100
AcDbLine
 10
9067.570866765203
 20
16002.94061983569
 30
0.0
 11
10350.99173880912
 21
16002.94061983569
 31
0.0
  0
LINE
  5
232
330
22
100
AcDbEntity
  8
_0-6_
  6
Continuous
 62
     5
100
AcDbLine
 10
9067.570866765203
 20
15902.94028991593
 30
0.0
 11
10408.72687262458
 21
15902.94028991593
 31
0.0
  0
LINE
  5
233
330
22
100
AcDbEntity
  8
_0-6_
  6
Continuous
 62
     5
100
AcDbLine
 10
9067.570866765203
 20
15802.94119719528
 30
0.0
 11
10466.46200644003
 21
15802.94119719528
 31
0.0
  0
LINE
  5
234
330
22
100
AcDbEntity
  8
_0-6_
  6
Continuous
 62
     5
100
AcDbLine
 10
9067.570866765203
 20
15702.94086727552
 30
0.0
 11
10524.19466585726
 21
15702.94086727552
 31
0.0
  0
LINE
  5
235
330
22
100
AcDbEntity
  8
_0-6_
  6
Continuous
 62
     5
100
AcDbLine
 10
9067.570866765203
 20
15502.94020743599
 30
0.0
 11
10639.6674078864
 21
15502.94020743599
 31
0.0
  0
LINE
  5
236
330
22
100
AcDbEntity
  8
_0-6_
  6
Continuous
 62
     5
100
AcDbLine
 10
9067.570866765203
 20
15402.94111471534
 30
0.0
 11
10697.40254170186
 21
15402.94111471534
 31
0.0
  0
LINE
  5
237
330
22
100
AcDbEntity
  8
_0-6_
  6
Continuous
 62
     5
100
AcDbLine
 10
9067.570866765203
 20
15302.94078479557
 30
0.0
 11
10755.13520111909
 21
15302.94078479557
 31
0.0
  0
LINE
  5
238
330
22
100
AcDbEntity
  8
_0-6_
  6
Continuous
 62
     5
100
AcDbLine
 10
9067.570866765203
 20
15102.94136215516
 30
0.0
 11
10870.60546875
 21
15102.94136215516
 31
0.0
  0
LINE
  5
239
330
22
100
AcDbEntity
  8
_0-6_
  6
Continuous
 62
     5
100
AcDbLine
 10
9067.570866765203
 20
15002.9410322354
 30
0.0
 11
10928.34060256545
 21
15002.9410322354
 31
0.0
  0
LINE
  5
23A
330
22
100
AcDbEntity
  8
_0-6_
  6
Continuous
 62
     5
100
AcDbLine
 10
9067.570866765203
 20
14902.94070231563
 30
0.0
 11
10986.07573638091
 21
14902.94070231563
 31
0.0
  0
LINE
  5
23B
330
22
100
AcDbEntity
  8
_0-6_
  6
Continuous
 62
     5
100
AcDbLine
 10
9067.570866765203
 20
14802.94037239587
 30
0.0
 11
11043.81334459459
 21
14802.94037239587
 31
0.0
  0
LINE
  5
23C
330
22
100
AcDbEntity
  8
_0-6_
  6
Continuous
 62
     5
100
AcDbLine
 10
9067.570866765203
 20
14702.94004247611
 30
0.0
 11
11101.54600401182
 21
14702.94004247611
 31
0.0
  0
LINE
  5
23D
330
22
100
AcDbEntity
  8
_0-6_
  6
Continuous
 62
     5
100
AcDbLine
 10
9067.570866765203
 20
14602.94094975546
 30
0.0
 11
11159.28113782728
 21
14602.94094975546
 31
0.0
  0
LINE
  5
23E
330
22
100
AcDbEntity
  8
_0-6_
  6
Continuous
 62
     5
100
AcDbLine
 10
9067.570866765203
 20
14502.94061983569
 30
0.0
 11
11217.01627164273
 21
14502.94061983569
 31
0.0
  0
LINE
  5
23F
330
22
100
AcDbEntity
  8
_0-6_
  6
Continuous
 62
     5
100
AcDbLine
 10
9067.570866765203
 20
14402.94028991593
 30
0.0
 11
11274.75140545819
 21
14402.94028991593
 31
0.0
  0
LINE
  5
240
330
22
100
AcDbEntity
  8
_0-6_
  6
Continuous
 62
     5
100
AcDbLine
 10
9067.570866765203
 20
14302.94119719528
 30
0.0
 11
11332.48653927365
 21
14302.94119719528
 31
0.0
  0
LINE
  5
241
330
22
100
AcDbEntity
  8
_0-6_
  6
Continuous
 62
     5
100
AcDbLine
 10
9067.570866765203
 20
14202.94086727552
 30
0.0
 11
11390.2216730891
 21
14202.94086727552
 31
0.0
  0
LINE
  5
242
330
22
100
AcDbEntity
  8
_0-6_
  6
Continuous
 62
     5
100
AcDbLine
 10
9067.570866765203
 20
14102.94053735575
 30
0.0
 11
11447.95680690456
 21
14102.94053735575
 31
0.0
  0
LINE
  5
243
330
22
100
AcDbEntity
  8
_0-6_
  6
Continuous
 62
     5
100
AcDbLine
 10
9067.570866765203
 20
14002.94020743599
 30
0.0
 11
11505.69194072001
 21
14002.94020743599
 31
0.0
  0
LINE
  5
244
330
22
100
AcDbEntity
  8
_0-6_
  6
Continuous
 62
     5
100
AcDbLine
 10
9067.570866765203
 20
13902.94111471534
 30
0.0
 11
11563.42707453547
 21
13902.94111471534
 31
0.0
  0
LINE
  5
245
330
22
100
AcDbEntity
  8
_0-6_
  6
Continuous
 62
     5
100
AcDbLine
 10
9067.570866765203
 20
13802.94078479557
 30
0.0
 11
11621.16220835093
 21
13802.94078479557
 31
0.0
  0
LINE
  5
246
330
22
100
AcDbEntity
  8
_0-6_
  6
Continuous
 62
     5
100
AcDbLine
 10
9067.570866765203
 20
13702.94045487581
 30
0.0
 11
11678.89734216638
 21
13702.94045487581
 31
0.0
  0
LINE
  5
247
330
22
100
AcDbEntity
  8
_0-6_
  6
Continuous
 62
     5
100
AcDbLine
 10
9067.570866765203
 20
13602.94012495604
 30
0.0
 11
11736.63247598184
 21
13602.94012495604
 31
0.0
  0
LINE
  5
248
330
22
100
AcDbEntity
  8
_0-6_
  6
Continuous
 62
     5
100
AcDbLine
 10
9067.570866765203
 20
13502.9410322354
 30
0.0
 11
11794.3676097973
 21
13502.9410322354
 31
0.0
  0
LINE
  5
249
330
22
100
AcDbEntity
  8
_0-6_
  6
Continuous
 62
     5
100
AcDbLine
 10
9067.570866765203
 20
13402.94070231563
 30
0.0
 11
11852.10274361275
 21
13402.94070231563
 31
0.0
  0
LINE
  5
24A
330
22
100
AcDbEntity
  8
_0-6_
  6
Continuous
 62
     5
100
AcDbLine
 10
9067.570866765203
 20
18002.9410322354
 30
0.0
 11
9196.291536898227
 21
18002.9410322354
 31
0.0
  0
LINE
  5
24B
330
22
100
AcDbEntity
  8
_0-6_
  6
Continuous
 62
     5
100
AcDbLine
 10
9267.571526604731
 20
17879.47969553248
 30
0.0
 11
9267.571526604731
 21
13202.94127967522
 31
0.0
  0
LINE
  5
24C
330
22
100
AcDbEntity
  8
_0-6_
  6
Continuous
 62
     5
100
AcDbLine
 10
11867.57020692567
 20
13376.1479183207
 30
0.0
 11
11867.57020692567
 21
13202.94127967522
 31
0.0
  0
LINE
  5
24D
330
22
100
AcDbEntity
  8
_0-6_
  6
Continuous
 62
     5
100
AcDbLine
 10
11767.56987700591
 20
13549.35208256796
 30
0.0
 11
11767.56987700591
 21
13202.94127967522
 31
0.0
  0
LINE
  5
24E
330
22
100
AcDbEntity
  8
_0-6_
  6
Continuous
 62
     5
100
AcDbLine
 10
11667.56954708615
 20
13722.55872121344
 30
0.0
 11
11667.56954708615
 21
13202.94127967522
 31
0.0
  0
LINE
  5
24F
330
22
100
AcDbEntity
  8
_0-6_
  6
Continuous
 62
     5
100
AcDbLine
 10
11567.57169156461
 20
13895.76288546069
 30
0.0
 11
11567.57169156461
 21
13202.94127967522
 31
0.0
  0
LINE
  5
250
330
22
100
AcDbEntity
  8
_0-6_
  6
Continuous
 62
     5
100
AcDbLine
 10
11467.57136164485
 20
14068.96828690706
 30
0.0
 11
11467.57136164485
 21
13202.94127967522
 31
0.0
  0
LINE
  5
251
330
22
100
AcDbEntity
  8
_0-6_
  6
Continuous
 62
     5
100
AcDbLine
 10
11367.57103172508
 20
14242.17245115432
 30
0.0
 11
11367.57103172508
 21
13202.94127967522
 31
0.0
  0
LINE
  5
252
330
22
100
AcDbEntity
  8
_0-6_
  6
Continuous
 62
     5
100
AcDbLine
 10
11267.57070180532
 20
14415.3790897998
 30
0.0
 11
11267.57070180532
 21
13202.94127967522
 31
0.0
  0
LINE
  5
253
330
22
100
AcDbEntity
  8
_0-6_
  6
Continuous
 62
     5
100
AcDbLine
 10
11167.57037188556
 20
14588.58325404706
 30
0.0
 11
11167.57037188556
 21
13202.94127967522
 31
0.0
  0
LINE
  5
254
330
22
100
AcDbEntity
  8
_0-6_
  6
Continuous
 62
     5
100
AcDbLine
 10
11067.57251636402
 20
14761.78865549341
 30
0.0
 11
11067.57251636402
 21
13202.94127967522
 31
0.0
  0
LINE
  5
255
330
22
100
AcDbEntity
  8
_0-6_
  6
Continuous
 62
     5
100
AcDbLine
 10
10967.57218644426
 20
14934.99405693979
 30
0.0
 11
10967.57218644426
 21
13202.94127967522
 31
0.0
  0
LINE
  5
256
330
22
100
AcDbEntity
  8
_0-6_
  6
Continuous
 62
     5
100
AcDbLine
 10
10867.57185652449
 20
15108.19945838616
 30
0.0
 11
10867.57185652449
 21
13202.94127967522
 31
0.0
  0
LINE
  5
257
330
22
100
AcDbEntity
  8
_0-6_
  6
Continuous
 62
     5
100
AcDbLine
 10
9067.570866765203
 20
15202.94045487581
 30
0.0
 11
10812.87280933277
 21
15202.94045487581
 31
0.0
  0
LINE
  5
258
330
22
100
AcDbEntity
  8
_0-6_
  6
Continuous
 62
     5
100
AcDbLine
 10
10767.57152660473
 20
15281.40362263341
 30
0.0
 11
10767.57152660473
 21
13202.94127967522
 31
0.0
  0
LINE
  5
259
330
22
100
AcDbEntity
  8
_0-6_
  6
Continuous
 62
     5
100
AcDbLine
 10
10667.57119668497
 20
15454.60778688067
 30
0.0
 11
10667.57119668497
 21
13202.94127967522
 31
0.0
  0
LINE
  5
25A
330
22
100
AcDbEntity
  8
_0-6_
  6
Continuous
 62
     5
100
AcDbLine
 10
10567.5708667652
 20
15627.81442552615
 30
0.0
 11
10567.5708667652
 21
13202.94127967522
 31
0.0
  0
LINE
  5
25B
330
22
100
AcDbEntity
  8
_0-6_
  6
Continuous
 62
     5
100
AcDbLine
 10
9067.570866765203
 20
15602.94053735576
 30
0.0
 11
10581.93227407095
 21
15602.94053735576
 31
0.0
  0
LINE
  5
25C
330
22
100
AcDbEntity
  8
_0-6_
  6
Continuous
 62
     5
100
AcDbLine
 10
10467.57053684544
 20
15801.0185897734
 30
0.0
 11
10467.57053684544
 21
13202.94127967522
 31
0.0
  0
LINE
  5
25D
330
22
100
AcDbEntity
  8
_0-6_
  6
Continuous
 62
     5
100
AcDbLine
 10
10367.57020692568
 20
15974.22399121977
 30
0.0
 11
10367.57020692568
 21
13202.94127967522
 31
0.0
  0
LINE
  5
25E
330
22
100
AcDbEntity
  8
_0-6_
  6
Continuous
 62
     5
100
AcDbLine
 10
10267.56987700591
 20
16147.42939266614
 30
0.0
 11
10267.56987700591
 21
13202.94127967522
 31
0.0
  0
LINE
  5
25F
330
22
100
AcDbEntity
  8
_0-6_
  6
Continuous
 62
     5
100
AcDbLine
 10
10167.56954708615
 20
16320.63479411251
 30
0.0
 11
10167.56954708615
 21
13202.94127967522
 31
0.0
  0
LINE
  5
260
330
22
100
AcDbEntity
  8
_0-6_
  6
Continuous
 62
     5
100
AcDbLine
 10
10067.57169156461
 20
16493.83895835977
 30
0.0
 11
10067.57169156461
 21
13202.94127967522
 31
0.0
  0
LINE
  5
261
330
22
100
AcDbEntity
  8
_0-6_
  6
Continuous
 62
     5
100
AcDbLine
 10
9967.571361644846
 20
16667.04435980613
 30
0.0
 11
9967.571361644846
 21
13202.94127967522
 31
0.0
  0
LINE
  5
262
330
22
100
AcDbEntity
  8
_0-6_
  6
Continuous
 62
     5
100
AcDbLine
 10
9867.571031725084
 20
16840.2497612525
 30
0.0
 11
9867.571031725084
 21
13202.94127967522
 31
0.0
  0
LINE
  5
263
330
22
100
AcDbEntity
  8
_0-6_
  6
Continuous
 62
     5
100
AcDbLine
 10
9767.57070180532
 20
17013.45516269887
 30
0.0
 11
9767.57070180532
 21
13202.94127967522
 31
0.0
  0
LINE
  5
264
330
22
100
AcDbEntity
  8
_0-6_
  6
Continuous
 62
     5
100
AcDbLine
 10
9667.570371885554
 20
17186.65932694612
 30
0.0
 11
9667.570371885554
 21
13202.94127967522
 31
0.0
  0
LINE
  5
265
330
22
100
AcDbEntity
  8
_0-6_
  6
Continuous
 62
     5
100
AcDbLine
 10
9067.570866765203
 20
17202.94086727552
 30
0.0
 11
9658.17013302365
 21
17202.94086727552
 31
0.0
  0
LINE
  5
266
330
22
100
AcDbEntity
  8
_0-6_
  6
Continuous
 62
     5
100
AcDbLine
 10
9567.570041965796
 20
17359.86472839249
 30
0.0
 11
9567.570041965796
 21
13202.94127967522
 31
0.0
  0
LINE
  5
267
330
22
100
AcDbEntity
  8
_0-6_
  6
Continuous
 62
     5
100
AcDbLine
 10
9067.570866765203
 20
17302.94119719528
 30
0.0
 11
9600.437473606421
 21
17302.94119719528
 31
0.0
  0
LINE
  5
268
330
22
100
AcDbEntity
  8
_0-6_
  6
Continuous
 62
     5
100
AcDbLine
 10
9467.572186444261
 20
17533.07012983886
 30
0.0
 11
9467.572186444261
 21
13202.94127967522
 31
0.0
  0
LINE
  5
269
330
22
100
AcDbEntity
  8
_0-6_
  6
Continuous
 62
     5
100
AcDbLine
 10
9067.570866765203
 20
17402.94152711505
 30
0.0
 11
9542.699865392735
 21
17402.94152711505
 31
0.0
  0
LINE
  5
26A
330
22
100
AcDbEntity
  8
_0-6_
  6
Continuous
 62
     5
100
AcDbLine
 10
9367.571856524492
 20
17706.27553128523
 30
0.0
 11
9367.571856524492
 21
13202.94127967522
 31
0.0
  0
LINE
  5
26B
330
22
100
AcDbEntity
  8
_0-6_
  6
Continuous
 62
     5
100
AcDbLine
 10
35000.06103515625
 20
13202.94127967522
 30
0.0
 11
28822.55018079603
 21
23902.70068568769
 31
0.0
  0
LINE
  5
26C
330
22
100
AcDbEntity
  8
_0-6_
  6
Continuous
 62
     5
100
AcDbLine
 10
28880.28531461149
 20
23802.70035576792
 30
0.0
 11
35067.5700419658
 21
23802.70035576792
 31
0.0
  0
LINE
  5
26D
330
22
100
AcDbEntity
  8
_0-6_
  6
Continuous
 62
     5
100
AcDbLine
 10
28995.7555822424
 20
23602.69969592839
 30
0.0
 11
35067.5700419658
 21
23602.69969592839
 31
0.0
  0
LINE
  5
26E
330
22
100
AcDbEntity
  8
_0-6_
  6
Continuous
 62
     5
100
AcDbLine
 10
29111.22584987332
 20
23402.70151048709
 30
0.0
 11
35067.5700419658
 21
23402.70151048709
 31
0.0
  0
LINE
  5
26F
330
22
100
AcDbEntity
  8
_0-6_
  6
Continuous
 62
     5
100
AcDbLine
 10
29053.49071605785
 20
23502.69936600863
 30
0.0
 11
35067.5700419658
 21
23502.69936600863
 31
0.0
  0
LINE
  5
270
330
22
100
AcDbEntity
  8
_0-6_
  6
Continuous
 62
     5
100
AcDbLine
 10
29226.69611750422
 20
23202.70085064756
 30
0.0
 11
35067.5700419658
 21
23202.70085064756
 31
0.0
  0
LINE
  5
271
330
22
100
AcDbEntity
  8
_0-6_
  6
Continuous
 62
     5
100
AcDbLine
 10
29168.96098368877
 20
23302.70118056732
 30
0.0
 11
35067.5700419658
 21
23302.70118056732
 31
0.0
  0
LINE
  5
272
330
22
100
AcDbEntity
  8
_0-6_
  6
Continuous
 62
     5
100
AcDbLine
 10
29284.43125131968
 20
23102.7005207278
 30
0.0
 11
35067.5700419658
 21
23102.7005207278
 31
0.0
  0
LINE
  5
273
330
22
100
AcDbEntity
  8
_0-6_
  6
Continuous
 62
     5
100
AcDbLine
 10
29399.90151895059
 20
22902.69986088828
 30
0.0
 11
35067.5700419658
 21
22902.69986088828
 31
0.0
  0
LINE
  5
274
330
22
100
AcDbEntity
  8
_0-6_
  6
Continuous
 62
     5
100
AcDbLine
 10
29342.16638513514
 20
23002.70019080804
 30
0.0
 11
35067.5700419658
 21
23002.70019080804
 31
0.0
  0
LINE
  5
275
330
22
100
AcDbEntity
  8
_0-6_
  6
Continuous
 62
     5
100
AcDbLine
 10
29515.37178658151
 20
22702.69920104874
 30
0.0
 11
35067.5700419658
 21
22702.69920104874
 31
0.0
  0
LINE
  5
276
330
22
100
AcDbEntity
  8
_0-6_
  6
Continuous
 62
     5
100
AcDbLine
 10
29457.63665276605
 20
22802.6995309685
 30
0.0
 11
35067.5700419658
 21
22802.6995309685
 31
0.0
  0
LINE
  5
277
330
22
100
AcDbEntity
  8
_0-6_
  6
Continuous
 62
     5
100
AcDbLine
 10
29573.10444599873
 20
22602.70134552721
 30
0.0
 11
35067.5700419658
 21
22602.70134552721
 31
0.0
  0
LINE
  5
278
330
22
100
AcDbEntity
  8
_0-6_
  6
Continuous
 62
     5
100
AcDbLine
 10
29746.30984744511
 20
22302.70035576792
 30
0.0
 11
35067.5700419658
 21
22302.70035576792
 31
0.0
  0
LINE
  5
279
330
22
100
AcDbEntity
  8
_0-6_
  6
Continuous
 62
     5
100
AcDbLine
 10
29804.04498126056
 20
22202.70002584815
 30
0.0
 11
35067.5700419658
 21
22202.70002584815
 31
0.0
  0
LINE
  5
27A
330
22
100
AcDbEntity
  8
_0-6_
  6
Continuous
 62
     5
100
AcDbLine
 10
29861.78258947424
 20
22102.69969592839
 30
0.0
 11
35067.5700419658
 21
22102.69969592839
 31
0.0
  0
LINE
  5
27B
330
22
100
AcDbEntity
  8
_0-6_
  6
Continuous
 62
     5
100
AcDbLine
 10
29919.51524889147
 20
22002.70060320774
 30
0.0
 11
35067.5700419658
 21
22002.70060320774
 31
0.0
  0
LINE
  5
27C
330
22
100
AcDbEntity
  8
_0-6_
  6
Continuous
 62
     5
100
AcDbLine
 10
29977.25038270694
 20
21902.70027328798
 30
0.0
 11
35067.5700419658
 21
21902.70027328798
 31
0.0
  0
LINE
  5
27D
330
22
100
AcDbEntity
  8
_0-6_
  6
Continuous
 62
     5
100
AcDbLine
 10
30034.98551652238
 20
21802.69994336821
 30
0.0
 11
35067.5700419658
 21
21802.69994336821
 31
0.0
  0
LINE
  5
27E
330
22
100
AcDbEntity
  8
_0-6_
  6
Continuous
 62
     5
100
AcDbLine
 10
30092.72065033784
 20
21702.70085064756
 30
0.0
 11
35067.5700419658
 21
21702.70085064756
 31
0.0
  0
LINE
  5
27F
330
22
100
AcDbEntity
  8
_0-6_
  6
Continuous
 62
     5
100
AcDbLine
 10
30150.4557841533
 20
21602.7005207278
 30
0.0
 11
35067.5700419658
 21
21602.7005207278
 31
0.0
  0
LINE
  5
280
330
22
100
AcDbEntity
  8
_0-6_
  6
Continuous
 62
     5
100
AcDbLine
 10
30208.19091796875
 20
21502.70019080804
 30
0.0
 11
35067.5700419658
 21
21502.70019080804
 31
0.0
  0
LINE
  5
281
330
22
100
AcDbEntity
  8
_0-6_
  6
Continuous
 62
     5
100
AcDbLine
 10
30265.92605178421
 20
21402.69986088827
 30
0.0
 11
35067.5700419658
 21
21402.69986088827
 31
0.0
  0
LINE
  5
282
330
22
100
AcDbEntity
  8
_0-6_
  6
Continuous
 62
     5
100
AcDbLine
 10
30323.66118559966
 20
21302.70076816763
 30
0.0
 11
35067.5700419658
 21
21302.70076816763
 31
0.0
  0
LINE
  5
283
330
22
100
AcDbEntity
  8
_0-6_
  6
Continuous
 62
     5
100
AcDbLine
 10
30381.39631941512
 20
21202.70043824786
 30
0.0
 11
35067.5700419658
 21
21202.70043824786
 31
0.0
  0
LINE
  5
284
330
22
100
AcDbEntity
  8
_0-6_
  6
Continuous
 62
     5
100
AcDbLine
 10
30439.13145323058
 20
21102.7001083281
 30
0.0
 11
35067.5700419658
 21
21102.7001083281
 31
0.0
  0
LINE
  5
285
330
22
100
AcDbEntity
  8
_0-6_
  6
Continuous
 62
     5
100
AcDbLine
 10
30496.86658704603
 20
21002.70101560745
 30
0.0
 11
35067.5700419658
 21
21002.70101560745
 31
0.0
  0
LINE
  5
286
330
22
100
AcDbEntity
  8
_0-6_
  6
Continuous
 62
     5
100
AcDbLine
 10
30554.60172086149
 20
20902.70068568768
 30
0.0
 11
35067.5700419658
 21
20902.70068568768
 31
0.0
  0
LINE
  5
287
330
22
100
AcDbEntity
  8
_0-6_
  6
Continuous
 62
     5
100
AcDbLine
 10
30612.33685467694
 20
20802.70035576792
 30
0.0
 11
35067.5700419658
 21
20802.70035576792
 31
0.0
  0
LINE
  5
288
330
22
100
AcDbEntity
  8
_0-6_
  6
Continuous
 62
     5
100
AcDbLine
 10
30670.0719884924
 20
20702.70002584816
 30
0.0
 11
35067.5700419658
 21
20702.70002584816
 31
0.0
  0
LINE
  5
289
330
22
100
AcDbEntity
  8
_0-6_
  6
Continuous
 62
     5
100
AcDbLine
 10
30785.54225612332
 20
20502.70060320774
 30
0.0
 11
35067.5700419658
 21
20502.70060320774
 31
0.0
  0
LINE
  5
28A
330
22
100
AcDbEntity
  8
_0-6_
  6
Continuous
 62
     5
100
AcDbLine
 10
30843.27738993877
 20
20402.70027328798
 30
0.0
 11
35067.5700419658
 21
20402.70027328798
 31
0.0
  0
LINE
  5
28B
330
22
100
AcDbEntity
  8
_0-6_
  6
Continuous
 62
     5
100
AcDbLine
 10
30901.01252375422
 20
20302.69994336821
 30
0.0
 11
35067.5700419658
 21
20302.69994336821
 31
0.0
  0
LINE
  5
28C
330
22
100
AcDbEntity
  8
_0-6_
  6
Continuous
 62
     5
100
AcDbLine
 10
30958.74765756968
 20
20202.70085064756
 30
0.0
 11
35067.5700419658
 21
20202.70085064756
 31
0.0
  0
LINE
  5
28D
330
22
100
AcDbEntity
  8
_0-6_
  6
Continuous
 62
     5
100
AcDbLine
 10
31016.48279138514
 20
20102.7005207278
 30
0.0
 11
35067.5700419658
 21
20102.7005207278
 31
0.0
  0
LINE
  5
28E
330
22
100
AcDbEntity
  8
_0-6_
  6
Continuous
 62
     5
100
AcDbLine
 10
31074.2179252006
 20
20002.70019080804
 30
0.0
 11
35067.5700419658
 21
20002.70019080804
 31
0.0
  0
LINE
  5
28F
330
22
100
AcDbEntity
  8
_0-6_
  6
Continuous
 62
     5
100
AcDbLine
 10
31131.95305901605
 20
19902.69986088827
 30
0.0
 11
35067.5700419658
 21
19902.69986088827
 31
0.0
  0
LINE
  5
290
330
22
100
AcDbEntity
  8
_0-6_
  6
Continuous
 62
     5
100
AcDbLine
 10
31189.68819283151
 20
19802.70076816762
 30
0.0
 11
35067.5700419658
 21
19802.70076816762
 31
0.0
  0
LINE
  5
291
330
22
100
AcDbEntity
  8
_0-6_
  6
Continuous
 62
     5
100
AcDbLine
 10
31247.42332664697
 20
19702.70043824785
 30
0.0
 11
35067.5700419658
 21
19702.70043824785
 31
0.0
  0
LINE
  5
292
330
22
100
AcDbEntity
  8
_0-6_
  6
Continuous
 62
     5
100
AcDbLine
 10
31305.15846046241
 20
19602.70010832809
 30
0.0
 11
35067.5700419658
 21
19602.70010832809
 31
0.0
  0
LINE
  5
293
330
22
100
AcDbEntity
  8
_0-6_
  6
Continuous
 62
     5
100
AcDbLine
 10
31362.89359427788
 20
19502.69977840833
 30
0.0
 11
35067.5700419658
 21
19502.69977840833
 31
0.0
  0
LINE
  5
294
330
22
100
AcDbEntity
  8
_0-6_
  6
Continuous
 62
     5
100
AcDbLine
 10
31478.36138751056
 20
19302.70035576792
 30
0.0
 11
35067.5700419658
 21
19302.70035576792
 31
0.0
  0
LINE
  5
295
330
22
100
AcDbEntity
  8
_0-6_
  6
Continuous
 62
     5
100
AcDbLine
 10
31420.6262536951
 20
19402.70068568768
 30
0.0
 11
35067.5700419658
 21
19402.70068568768
 31
0.0
  0
LINE
  5
296
330
22
100
AcDbEntity
  8
_0-6_
  6
Continuous
 62
     5
100
AcDbLine
 10
31536.09652132602
 20
19202.70002584816
 30
0.0
 11
35067.5700419658
 21
19202.70002584816
 31
0.0
  0
LINE
  5
297
330
22
100
AcDbEntity
  8
_0-6_
  6
Continuous
 62
     5
100
AcDbLine
 10
31593.8341295397
 20
19102.69969592839
 30
0.0
 11
35067.5700419658
 21
19102.69969592839
 31
0.0
  0
LINE
  5
298
330
22
100
AcDbEntity
  8
_0-6_
  6
Continuous
 62
     5
100
AcDbLine
 10
31651.56678895693
 20
19002.70060320774
 30
0.0
 11
35067.5700419658
 21
19002.70060320774
 31
0.0
  0
LINE
  5
299
330
22
100
AcDbEntity
  8
_0-6_
  6
Continuous
 62
     5
100
AcDbLine
 10
31709.30192277238
 20
18902.70027328798
 30
0.0
 11
35067.5700419658
 21
18902.70027328798
 31
0.0
  0
LINE
  5
29A
330
22
100
AcDbEntity
  8
_0-6_
  6
Continuous
 62
     5
100
AcDbLine
 10
31767.03705658784
 20
18802.69994336821
 30
0.0
 11
35067.5700419658
 21
18802.69994336821
 31
0.0
  0
LINE
  5
29B
330
22
100
AcDbEntity
  8
_0-6_
  6
Continuous
 62
     5
100
AcDbLine
 10
31882.50732421875
 20
18602.7005207278
 30
0.0
 11
35067.5700419658
 21
18602.7005207278
 31
0.0
  0
LINE
  5
29C
330
22
100
AcDbEntity
  8
_0-6_
  6
Continuous
 62
     5
100
AcDbLine
 10
31940.24245803421
 20
18502.70019080804
 30
0.0
 11
35067.5700419658
 21
18502.70019080804
 31
0.0
  0
LINE
  5
29D
330
22
100
AcDbEntity
  8
_0-6_
  6
Continuous
 62
     5
100
AcDbLine
 10
32055.71272566512
 20
18302.70076816763
 30
0.0
 11
35067.5700419658
 21
18302.70076816763
 31
0.0
  0
LINE
  5
29E
330
22
100
AcDbEntity
  8
_0-6_
  6
Continuous
 62
     5
100
AcDbLine
 10
31997.97759184967
 20
18402.69986088827
 30
0.0
 11
35067.5700419658
 21
18402.69986088827
 31
0.0
  0
LINE
  5
29F
330
22
100
AcDbEntity
  8
_0-6_
  6
Continuous
 62
     5
100
AcDbLine
 10
32113.44785948058
 20
18202.70043824785
 30
0.0
 11
35067.5700419658
 21
18202.70043824785
 31
0.0
  0
LINE
  5
2A0
330
22
100
AcDbEntity
  8
_0-6_
  6
Continuous
 62
     5
100
AcDbLine
 10
32171.18299329603
 20
18102.70010832809
 30
0.0
 11
35067.5700419658
 21
18102.70010832809
 31
0.0
  0
LINE
  5
2A1
330
22
100
AcDbEntity
  8
_0-6_
  6
Continuous
 62
     5
100
AcDbLine
 10
32228.91812711149
 20
18002.69977840833
 30
0.0
 11
35067.5700419658
 21
18002.69977840833
 31
0.0
  0
LINE
  5
2A2
330
22
100
AcDbEntity
  8
_0-6_
  6
Continuous
 62
     5
100
AcDbLine
 10
32286.65326092694
 20
17902.70068568768
 30
0.0
 11
35067.5700419658
 21
17902.70068568768
 31
0.0
  0
LINE
  5
2A3
330
22
100
AcDbEntity
  8
_0-6_
  6
Continuous
 62
     5
100
AcDbLine
 10
32402.12352855785
 20
17702.70002584815
 30
0.0
 11
35067.5700419658
 21
17702.70002584815
 31
0.0
  0
LINE
  5
2A4
330
22
100
AcDbEntity
  8
_0-6_
  6
Continuous
 62
     5
100
AcDbLine
 10
32459.85866237332
 20
17602.69969592839
 30
0.0
 11
35067.5700419658
 21
17602.69969592839
 31
0.0
  0
LINE
  5
2A5
330
22
100
AcDbEntity
  8
_0-6_
  6
Continuous
 62
     5
100
AcDbLine
 10
32517.59379618877
 20
17502.70060320774
 30
0.0
 11
35067.5700419658
 21
17502.70060320774
 31
0.0
  0
LINE
  5
2A6
330
22
100
AcDbEntity
  8
_0-6_
  6
Continuous
 62
     5
100
AcDbLine
 10
32575.32893000422
 20
17402.70027328798
 30
0.0
 11
35067.5700419658
 21
17402.70027328798
 31
0.0
  0
LINE
  5
2A7
330
22
100
AcDbEntity
  8
_0-6_
  6
Continuous
 62
     5
100
AcDbLine
 10
32633.06406381969
 20
17302.69994336821
 30
0.0
 11
35067.5700419658
 21
17302.69994336821
 31
0.0
  0
LINE
  5
2A8
330
22
100
AcDbEntity
  8
_0-6_
  6
Continuous
 62
     5
100
AcDbLine
 10
32690.79919763514
 20
17202.70085064756
 30
0.0
 11
35067.5700419658
 21
17202.70085064756
 31
0.0
  0
LINE
  5
2A9
330
22
100
AcDbEntity
  8
_0-6_
  6
Continuous
 62
     5
100
AcDbLine
 10
32806.26946526605
 20
17002.70019080804
 30
0.0
 11
35067.5700419658
 21
17002.70019080804
 31
0.0
  0
LINE
  5
2AA
330
22
100
AcDbEntity
  8
_0-6_
  6
Continuous
 62
     5
100
AcDbLine
 10
32864.00459908151
 20
16902.69986088827
 30
0.0
 11
35067.5700419658
 21
16902.69986088827
 31
0.0
  0
LINE
  5
2AB
330
22
100
AcDbEntity
  8
_0-6_
  6
Continuous
 62
     5
100
AcDbLine
 10
32979.4723923142
 20
16702.70043824786
 30
0.0
 11
35067.5700419658
 21
16702.70043824786
 31
0.0
  0
LINE
  5
2AC
330
22
100
AcDbEntity
  8
_0-6_
  6
Continuous
 62
     5
100
AcDbLine
 10
33037.20752612965
 20
16602.70010832809
 30
0.0
 11
35067.5700419658
 21
16602.70010832809
 31
0.0
  0
LINE
  5
2AD
330
22
100
AcDbEntity
  8
_0-6_
  6
Continuous
 62
     5
100
AcDbLine
 10
33094.94513434333
 20
16502.69977840833
 30
0.0
 11
35067.5700419658
 21
16502.69977840833
 31
0.0
  0
LINE
  5
2AE
330
22
100
AcDbEntity
  8
_0-6_
  6
Continuous
 62
     5
100
AcDbLine
 10
33210.41292757601
 20
16302.70035576791
 30
0.0
 11
35067.5700419658
 21
16302.70035576791
 31
0.0
  0
LINE
  5
2AF
330
22
100
AcDbEntity
  8
_0-6_
  6
Continuous
 62
     5
100
AcDbLine
 10
33325.88319520693
 20
16102.69969592839
 30
0.0
 11
35067.5700419658
 21
16102.69969592839
 31
0.0
  0
LINE
  5
2B0
330
22
100
AcDbEntity
  8
_0-6_
  6
Continuous
 62
     5
100
AcDbLine
 10
33441.35346283784
 20
15902.70027328797
 30
0.0
 11
35067.5700419658
 21
15902.70027328797
 31
0.0
  0
LINE
  5
2B1
330
22
100
AcDbEntity
  8
_0-6_
  6
Continuous
 62
     5
100
AcDbLine
 10
33499.08859665329
 20
15802.69994336821
 30
0.0
 11
35067.5700419658
 21
15802.69994336821
 31
0.0
  0
LINE
  5
2B2
330
22
100
AcDbEntity
  8
_0-6_
  6
Continuous
 62
     5
100
AcDbLine
 10
33614.55886428421
 20
15602.7005207278
 30
0.0
 11
35067.5700419658
 21
15602.7005207278
 31
0.0
  0
LINE
  5
2B3
330
22
100
AcDbEntity
  8
_0-6_
  6
Continuous
 62
     5
100
AcDbLine
 10
33672.29399809966
 20
15502.70019080803
 30
0.0
 11
35067.5700419658
 21
15502.70019080803
 31
0.0
  0
LINE
  5
2B4
330
22
100
AcDbEntity
  8
_0-6_
  6
Continuous
 62
     5
100
AcDbLine
 10
33556.82373046875
 20
15702.70085064756
 30
0.0
 11
35067.5700419658
 21
15702.70085064756
 31
0.0
  0
LINE
  5
2B5
330
22
100
AcDbEntity
  8
_0-6_
  6
Continuous
 62
     5
100
AcDbLine
 10
33787.76426573058
 20
15302.70076816762
 30
0.0
 11
35067.5700419658
 21
15302.70076816762
 31
0.0
  0
LINE
  5
2B6
330
22
100
AcDbEntity
  8
_0-6_
  6
Continuous
 62
     5
100
AcDbLine
 10
33845.49939954603
 20
15202.70043824786
 30
0.0
 11
35067.5700419658
 21
15202.70043824786
 31
0.0
  0
LINE
  5
2B7
330
22
100
AcDbEntity
  8
_0-6_
  6
Continuous
 62
     5
100
AcDbLine
 10
33960.96966717694
 20
15002.69977840833
 30
0.0
 11
35067.5700419658
 21
15002.69977840833
 31
0.0
  0
LINE
  5
2B8
330
22
100
AcDbEntity
  8
_0-6_
  6
Continuous
 62
     5
100
AcDbLine
 10
33903.23453336149
 20
15102.70010832809
 30
0.0
 11
35067.5700419658
 21
15102.70010832809
 31
0.0
  0
LINE
  5
2B9
330
22
100
AcDbEntity
  8
_0-6_
  6
Continuous
 62
     5
100
AcDbLine
 10
34018.7048009924
 20
14902.70068568768
 30
0.0
 11
35067.5700419658
 21
14902.70068568768
 31
0.0
  0
LINE
  5
2BA
330
22
100
AcDbEntity
  8
_0-6_
  6
Continuous
 62
     5
100
AcDbLine
 10
34076.43993480784
 20
14802.70035576791
 30
0.0
 11
35067.5700419658
 21
14802.70035576791
 31
0.0
  0
LINE
  5
2BB
330
22
100
AcDbEntity
  8
_0-6_
  6
Continuous
 62
     5
100
AcDbLine
 10
34134.17506862332
 20
14702.70002584815
 30
0.0
 11
35067.5700419658
 21
14702.70002584815
 31
0.0
  0
LINE
  5
2BC
330
22
100
AcDbEntity
  8
_0-6_
  6
Continuous
 62
     5
100
AcDbLine
 10
34249.64533625423
 20
14502.70060320774
 30
0.0
 11
35067.5700419658
 21
14502.70060320774
 31
0.0
  0
LINE
  5
2BD
330
22
100
AcDbEntity
  8
_0-6_
  6
Continuous
 62
     5
100
AcDbLine
 10
34191.91020243877
 20
14602.69969592839
 30
0.0
 11
35067.5700419658
 21
14602.69969592839
 31
0.0
  0
LINE
  5
2BE
330
22
100
AcDbEntity
  8
_0-6_
  6
Continuous
 62
     5
100
AcDbLine
 10
34307.38047006969
 20
14402.70027328797
 30
0.0
 11
35067.5700419658
 21
14402.70027328797
 31
0.0
  0
LINE
  5
2BF
330
22
100
AcDbEntity
  8
_0-6_
  6
Continuous
 62
     5
100
AcDbLine
 10
34365.11560388514
 20
14302.69994336821
 30
0.0
 11
35067.5700419658
 21
14302.69994336821
 31
0.0
  0
LINE
  5
2C0
330
22
100
AcDbEntity
  8
_0-6_
  6
Continuous
 62
     5
100
AcDbLine
 10
34422.84826330237
 20
14202.70085064756
 30
0.0
 11
35067.5700419658
 21
14202.70085064756
 31
0.0
  0
LINE
  5
2C1
330
22
100
AcDbEntity
  8
_0-6_
  6
Continuous
 62
     5
100
AcDbLine
 10
34480.58587151605
 20
14102.7005207278
 30
0.0
 11
35067.5700419658
 21
14102.7005207278
 31
0.0
  0
LINE
  5
2C2
330
22
100
AcDbEntity
  8
_0-6_
  6
Continuous
 62
     5
100
AcDbLine
 10
34538.3210053315
 20
14002.70019080803
 30
0.0
 11
35067.5700419658
 21
14002.70019080803
 31
0.0
  0
LINE
  5
2C3
330
22
100
AcDbEntity
  8
_0-6_
  6
Continuous
 62
     5
100
AcDbLine
 10
34596.05613914697
 20
13902.69986088827
 30
0.0
 11
35067.5700419658
 21
13902.69986088827
 31
0.0
  0
LINE
  5
2C4
330
22
100
AcDbEntity
  8
_0-6_
  6
Continuous
 62
     5
100
AcDbLine
 10
34653.79127296241
 20
13802.69953096851
 30
0.0
 11
35067.5700419658
 21
13802.69953096851
 31
0.0
  0
LINE
  5
2C5
330
22
100
AcDbEntity
  8
_0-6_
  6
Continuous
 62
     5
100
AcDbLine
 10
34826.99420001056
 20
13502.69977840833
 30
0.0
 11
35067.5700419658
 21
13502.69977840833
 31
0.0
  0
LINE
  5
2C6
330
22
100
AcDbEntity
  8
_0-6_
  6
Continuous
 62
     5
100
AcDbLine
 10
34769.25906619511
 20
13602.70010832809
 30
0.0
 11
35067.5700419658
 21
13602.70010832809
 31
0.0
  0
LINE
  5
2C7
330
22
100
AcDbEntity
  8
_0-6_
  6
Continuous
 62
     5
100
AcDbLine
 10
34884.72933382602
 20
13402.70068568768
 30
0.0
 11
35067.5700419658
 21
13402.70068568768
 31
0.0
  0
LINE
  5
2C8
330
22
100
AcDbEntity
  8
_0-6_
  6
Continuous
 62
     5
100
AcDbLine
 10
34942.46446764148
 20
13302.70035576791
 30
0.0
 11
35067.5700419658
 21
13302.70035576791
 31
0.0
  0
LINE
  5
2C9
330
22
100
AcDbEntity
  8
_0-6_
  6
Continuous
 62
     5
100
AcDbLine
 10
33167.57119668497
 20
23902.70068568769
 30
0.0
 11
33167.57119668497
 21
16376.90508417797
 31
0.0
  0
LINE
  5
2CA
330
22
100
AcDbEntity
  8
_0-6_
  6
Continuous
 62
     5
100
AcDbLine
 10
33267.5690522065
 20
23902.70068568769
 30
0.0
 11
33267.5690522065
 21
16203.70463152805
 31
0.0
  0
LINE
  5
2CB
330
22
100
AcDbEntity
  8
_0-6_
  6
Continuous
 62
     5
100
AcDbLine
 10
33152.67779376056
 20
16402.70068568768
 30
0.0
 11
35067.5700419658
 21
16402.70068568768
 31
0.0
  0
LINE
  5
2CC
330
22
100
AcDbEntity
  8
_0-6_
  6
Continuous
 62
     5
100
AcDbLine
 10
33367.56938212627
 20
23902.70068568769
 30
0.0
 11
33367.56938212627
 21
16030.49923008168
 31
0.0
  0
LINE
  5
2CD
330
22
100
AcDbEntity
  8
_0-6_
  6
Continuous
 62
     5
100
AcDbLine
 10
33268.14806139147
 20
16202.70002584815
 30
0.0
 11
35067.5700419658
 21
16202.70002584815
 31
0.0
  0
LINE
  5
2CE
330
22
100
AcDbEntity
  8
_0-6_
  6
Continuous
 62
     5
100
AcDbLine
 10
33467.56971204603
 20
23902.70068568769
 30
0.0
 11
33467.56971204603
 21
15857.29382863531
 31
0.0
  0
LINE
  5
2CF
330
22
100
AcDbEntity
  8
_0-6_
  6
Continuous
 62
     5
100
AcDbLine
 10
33567.57004196579
 20
23902.70068568769
 30
0.0
 11
33567.57004196579
 21
15684.08842718895
 31
0.0
  0
LINE
  5
2D0
330
22
100
AcDbEntity
  8
_0-6_
  6
Continuous
 62
     5
100
AcDbLine
 10
33383.61832902239
 20
16002.70060320774
 30
0.0
 11
35067.5700419658
 21
16002.70060320774
 31
0.0
  0
LINE
  5
2D1
330
22
100
AcDbEntity
  8
_0-6_
  6
Continuous
 62
     5
100
AcDbLine
 10
33667.57037188556
 20
23902.70068568769
 30
0.0
 11
33667.57037188556
 21
15510.88178854347
 31
0.0
  0
LINE
  5
2D2
330
22
100
AcDbEntity
  8
_0-6_
  6
Continuous
 62
     5
100
AcDbLine
 10
33767.57070180532
 20
23902.70068568769
 30
0.0
 11
33767.57070180532
 21
15337.6763870971
 31
0.0
  0
LINE
  5
2D3
330
22
100
AcDbEntity
  8
_0-6_
  6
Continuous
 62
     5
100
AcDbLine
 10
33867.57103172508
 20
23902.70068568769
 30
0.0
 11
33867.57103172508
 21
15164.47222284984
 31
0.0
  0
LINE
  5
2D4
330
22
100
AcDbEntity
  8
_0-6_
  6
Continuous
 62
     5
100
AcDbLine
 10
33730.02913191512
 20
15402.69986088827
 30
0.0
 11
35067.5700419658
 21
15402.69986088827
 31
0.0
  0
LINE
  5
2D5
330
22
100
AcDbEntity
  8
_0-6_
  6
Continuous
 62
     5
100
AcDbLine
 10
33967.56888724663
 20
23902.70068568769
 30
0.0
 11
33967.56888724663
 21
14991.2692958017
 31
0.0
  0
LINE
  5
2D6
330
22
100
AcDbEntity
  8
_0-6_
  6
Continuous
 62
     5
100
AcDbLine
 10
34067.56921716639
 20
23902.70068568769
 30
0.0
 11
34067.56921716639
 21
14818.06389435533
 31
0.0
  0
LINE
  5
2D7
330
22
100
AcDbEntity
  8
_0-6_
  6
Continuous
 62
     5
100
AcDbLine
 10
34167.56954708616
 20
23902.70068568769
 30
0.0
 11
34167.56954708616
 21
14644.85849290896
 31
0.0
  0
LINE
  5
2D8
330
22
100
AcDbEntity
  8
_0-6_
  6
Continuous
 62
     5
100
AcDbLine
 10
34267.56987700591
 20
23902.70068568769
 30
0.0
 11
34267.56987700591
 21
14471.65309146259
 31
0.0
  0
LINE
  5
2D9
330
22
100
AcDbEntity
  8
_0-6_
  6
Continuous
 62
     5
100
AcDbLine
 10
34367.57020692568
 20
23902.70068568769
 30
0.0
 11
34367.57020692568
 21
14298.44645281711
 31
0.0
  0
LINE
  5
2DA
330
22
100
AcDbEntity
  8
_0-6_
  6
Continuous
 62
     5
100
AcDbLine
 10
34467.57053684545
 20
23902.70068568769
 30
0.0
 11
34467.57053684545
 21
14125.24228856986
 31
0.0
  0
LINE
  5
2DB
330
22
100
AcDbEntity
  8
_0-6_
  6
Continuous
 62
     5
100
AcDbLine
 10
34567.5708667652
 20
23902.70068568769
 30
0.0
 11
34567.5708667652
 21
13952.03688712349
 31
0.0
  0
LINE
  5
2DC
330
22
100
AcDbEntity
  8
_0-6_
  6
Continuous
 62
     5
100
AcDbLine
 10
34667.57119668497
 20
23902.70068568769
 30
0.0
 11
34667.57119668497
 21
13778.83024847801
 31
0.0
  0
LINE
  5
2DD
330
22
100
AcDbEntity
  8
_0-6_
  6
Continuous
 62
     5
100
AcDbLine
 10
34767.56905220651
 20
23902.70068568769
 30
0.0
 11
34767.56905220651
 21
13605.62855862898
 31
0.0
  0
LINE
  5
2DE
330
22
100
AcDbEntity
  8
_0-6_
  6
Continuous
 62
     5
100
AcDbLine
 10
34711.52393237965
 20
13702.70043824785
 30
0.0
 11
35067.5700419658
 21
13702.70043824785
 31
0.0
  0
LINE
  5
2DF
330
22
100
AcDbEntity
  8
_0-6_
  6
Continuous
 62
     5
100
AcDbLine
 10
34967.56971204603
 20
23902.70068568769
 30
0.0
 11
34967.56971204603
 21
13259.21775573624
 31
0.0
  0
LINE
  5
2E0
330
22
100
AcDbEntity
  8
_0-6_
  6
Continuous
 62
     5
100
AcDbLine
 10
34867.56938212627
 20
23902.70068568769
 30
0.0
 11
34867.56938212627
 21
13432.42315718261
 31
0.0
  0
LINE
  5
2E1
330
22
100
AcDbEntity
  8
_0-6_
  6
Continuous
 62
     5
100
AcDbLine
 10
28867.5718565245
 20
23902.70068568769
 30
0.0
 11
28867.5718565245
 21
23824.72249998245
 31
0.0
  0
LINE
  5
2E2
330
22
100
AcDbEntity
  8
_0-6_
  6
Continuous
 62
     5
100
AcDbLine
 10
28967.57218644427
 20
23902.70068568769
 30
0.0
 11
28967.57218644427
 21
23651.51709853607
 31
0.0
  0
LINE
  5
2E3
330
22
100
AcDbEntity
  8
_0-6_
  6
Continuous
 62
     5
100
AcDbLine
 10
29067.57251636402
 20
23902.70068568769
 30
0.0
 11
29067.57251636402
 21
23478.30922269148
 31
0.0
  0
LINE
  5
2E4
330
22
100
AcDbEntity
  8
_0-6_
  6
Continuous
 62
     5
100
AcDbLine
 10
29167.57037188556
 20
23902.70068568769
 30
0.0
 11
29167.57037188556
 21
23305.10877004157
 31
0.0
  0
LINE
  5
2E5
330
22
100
AcDbEntity
  8
_0-6_
  6
Continuous
 62
     5
100
AcDbLine
 10
29267.57070180532
 20
23902.70068568769
 30
0.0
 11
29267.57070180532
 21
23131.9033685952
 31
0.0
  0
LINE
  5
2E6
330
22
100
AcDbEntity
  8
_0-6_
  6
Continuous
 62
     5
100
AcDbLine
 10
28938.02044842694
 20
23702.70002584816
 30
0.0
 11
35067.5700419658
 21
23702.70002584816
 31
0.0
  0
LINE
  5
2E7
330
22
100
AcDbEntity
  8
_0-6_
  6
Continuous
 62
     5
100
AcDbLine
 10
29467.57136164485
 20
23902.70068568769
 30
0.0
 11
29467.57136164485
 21
22785.49256570246
 31
0.0
  0
LINE
  5
2E8
330
22
100
AcDbEntity
  8
_0-6_
  6
Continuous
 62
     5
100
AcDbLine
 10
29367.57103172509
 20
23902.70068568769
 30
0.0
 11
29367.57103172509
 21
22958.69796714884
 31
0.0
  0
LINE
  5
2E9
330
22
100
AcDbEntity
  8
_0-6_
  6
Continuous
 62
     5
100
AcDbLine
 10
29567.57169156462
 20
23902.70068568769
 30
0.0
 11
29567.57169156462
 21
22612.28468985787
 31
0.0
  0
LINE
  5
2EA
330
22
100
AcDbEntity
  8
_0-6_
  6
Continuous
 62
     5
100
AcDbLine
 10
29667.57202148437
 20
23902.70068568769
 30
0.0
 11
29667.57202148437
 21
22439.0792884115
 31
0.0
  0
LINE
  5
2EB
330
22
100
AcDbEntity
  8
_0-6_
  6
Continuous
 62
     5
100
AcDbLine
 10
29767.56987700591
 20
23902.70068568769
 30
0.0
 11
29767.56987700591
 21
22265.87883576158
 31
0.0
  0
LINE
  5
2EC
330
22
100
AcDbEntity
  8
_0-6_
  6
Continuous
 62
     5
100
AcDbLine
 10
29630.84205421241
 20
22502.70101560745
 30
0.0
 11
35067.5700419658
 21
22502.70101560745
 31
0.0
  0
LINE
  5
2ED
330
22
100
AcDbEntity
  8
_0-6_
  6
Continuous
 62
     5
100
AcDbLine
 10
29967.57053684545
 20
23902.70068568769
 30
0.0
 11
29967.57053684545
 21
21919.46803286885
 31
0.0
  0
LINE
  5
2EE
330
22
100
AcDbEntity
  8
_0-6_
  6
Continuous
 62
     5
100
AcDbLine
 10
29867.57020692568
 20
23902.70068568769
 30
0.0
 11
29867.57020692568
 21
22092.67343431522
 31
0.0
  0
LINE
  5
2EF
330
22
100
AcDbEntity
  8
_0-6_
  6
Continuous
 62
     5
100
AcDbLine
 10
29688.57471362964
 20
22402.70068568769
 30
0.0
 11
35067.5700419658
 21
22402.70068568769
 31
0.0
  0
LINE
  5
2F0
330
22
100
AcDbEntity
  8
_0-6_
  6
Continuous
 62
     5
100
AcDbLine
 10
30067.5708667652
 20
23902.70068568769
 30
0.0
 11
30067.5708667652
 21
21746.26263142248
 31
0.0
  0
LINE
  5
2F1
330
22
100
AcDbEntity
  8
_0-6_
  6
Continuous
 62
     5
100
AcDbLine
 10
30167.57119668497
 20
23902.70068568769
 30
0.0
 11
30167.57119668497
 21
21573.05722997611
 31
0.0
  0
LINE
  5
2F2
330
22
100
AcDbEntity
  8
_0-6_
  6
Continuous
 62
     5
100
AcDbLine
 10
30267.57152660473
 20
23902.70068568769
 30
0.0
 11
30267.57152660473
 21
21399.85059133064
 31
0.0
  0
LINE
  5
2F3
330
22
100
AcDbEntity
  8
_0-6_
  6
Continuous
 62
     5
100
AcDbLine
 10
30367.5718565245
 20
23902.70068568769
 30
0.0
 11
30367.5718565245
 21
21226.64518988426
 31
0.0
  0
LINE
  5
2F4
330
22
100
AcDbEntity
  8
_0-6_
  6
Continuous
 62
     5
100
AcDbLine
 10
30467.57218644426
 20
23902.70068568769
 30
0.0
 11
30467.57218644426
 21
21053.44102563701
 31
0.0
  0
LINE
  5
2F5
330
22
100
AcDbEntity
  8
_0-6_
  6
Continuous
 62
     5
100
AcDbLine
 10
30567.57251636402
 20
23902.70068568769
 30
0.0
 11
30567.57251636402
 21
20880.23438699152
 31
0.0
  0
LINE
  5
2F6
330
22
100
AcDbEntity
  8
_0-6_
  6
Continuous
 62
     5
100
AcDbLine
 10
30667.57037188556
 20
23902.70068568769
 30
0.0
 11
30667.57037188556
 21
20707.03269714249
 31
0.0
  0
LINE
  5
2F7
330
22
100
AcDbEntity
  8
_0-6_
  6
Continuous
 62
     5
100
AcDbLine
 10
30767.57070180532
 20
23902.70068568769
 30
0.0
 11
30767.57070180532
 21
20533.82729569613
 31
0.0
  0
LINE
  5
2F8
330
22
100
AcDbEntity
  8
_0-6_
  6
Continuous
 62
     5
100
AcDbLine
 10
30867.57103172509
 20
23902.70068568769
 30
0.0
 11
30867.57103172509
 21
20360.62189424976
 31
0.0
  0
LINE
  5
2F9
330
22
100
AcDbEntity
  8
_0-6_
  6
Continuous
 62
     5
100
AcDbLine
 10
30967.57136164485
 20
23902.70068568769
 30
0.0
 11
30967.57136164485
 21
20187.41649280339
 31
0.0
  0
LINE
  5
2FA
330
22
100
AcDbEntity
  8
_0-6_
  6
Continuous
 62
     5
100
AcDbLine
 10
31067.57169156462
 20
23902.70068568769
 30
0.0
 11
31067.57169156462
 21
20014.21109135703
 31
0.0
  0
LINE
  5
2FB
330
22
100
AcDbEntity
  8
_0-6_
  6
Continuous
 62
     5
100
AcDbLine
 10
31167.57202148437
 20
23902.70068568769
 30
0.0
 11
31167.57202148437
 21
19841.00445271154
 31
0.0
  0
LINE
  5
2FC
330
22
100
AcDbEntity
  8
_0-6_
  6
Continuous
 62
     5
100
AcDbLine
 10
31267.56987700591
 20
23902.70068568769
 30
0.0
 11
31267.56987700591
 21
19667.80400006162
 31
0.0
  0
LINE
  5
2FD
330
22
100
AcDbEntity
  8
_0-6_
  6
Continuous
 62
     5
100
AcDbLine
 10
30727.80712230785
 20
20602.69969592839
 30
0.0
 11
35067.5700419658
 21
20602.69969592839
 31
0.0
  0
LINE
  5
2FE
330
22
100
AcDbEntity
  8
_0-6_
  6
Continuous
 62
     5
100
AcDbLine
 10
31467.57053684544
 20
23902.70068568769
 30
0.0
 11
31467.57053684544
 21
19321.39195996978
 31
0.0
  0
LINE
  5
2FF
330
22
100
AcDbEntity
  8
_0-6_
  6
Continuous
 62
     5
100
AcDbLine
 10
31367.57020692568
 20
23902.70068568769
 30
0.0
 11
31367.57020692568
 21
19494.59736141614
 31
0.0
  0
LINE
  5
300
330
22
100
AcDbEntity
  8
_0-6_
  6
Continuous
 62
     5
100
AcDbLine
 10
31567.5708667652
 20
23902.70068568769
 30
0.0
 11
31567.5708667652
 21
19148.18655852341
 31
0.0
  0
LINE
  5
301
330
22
100
AcDbEntity
  8
_0-6_
  6
Continuous
 62
     5
100
AcDbLine
 10
31667.57119668497
 20
23902.70068568769
 30
0.0
 11
31667.57119668497
 21
18974.98115707704
 31
0.0
  0
LINE
  5
302
330
22
100
AcDbEntity
  8
_0-6_
  6
Continuous
 62
     5
100
AcDbLine
 10
31767.57152660473
 20
23902.70068568769
 30
0.0
 11
31767.57152660473
 21
18801.77575563067
 31
0.0
  0
LINE
  5
303
330
22
100
AcDbEntity
  8
_0-6_
  6
Continuous
 62
     5
100
AcDbLine
 10
31867.57185652449
 20
23902.70068568769
 30
0.0
 11
31867.57185652449
 21
18628.5703541843
 31
0.0
  0
LINE
  5
304
330
22
100
AcDbEntity
  8
_0-6_
  6
Continuous
 62
     5
100
AcDbLine
 10
31967.57218644426
 20
23902.70068568769
 30
0.0
 11
31967.57218644426
 21
18455.36495273793
 31
0.0
  0
LINE
  5
305
330
22
100
AcDbEntity
  8
_0-6_
  6
Continuous
 62
     5
100
AcDbLine
 10
31824.7721904033
 20
18702.70085064755
 30
0.0
 11
35067.5700419658
 21
18702.70085064755
 31
0.0
  0
LINE
  5
306
330
22
100
AcDbEntity
  8
_0-6_
  6
Continuous
 62
     5
100
AcDbLine
 10
32067.5700419658
 20
23902.70068568769
 30
0.0
 11
32067.5700419658
 21
18282.16202568979
 31
0.0
  0
LINE
  5
307
330
22
100
AcDbEntity
  8
_0-6_
  6
Continuous
 62
     5
100
AcDbLine
 10
32167.57037188556
 20
23902.70068568769
 30
0.0
 11
32167.57037188556
 21
18108.95662424342
 31
0.0
  0
LINE
  5
308
330
22
100
AcDbEntity
  8
_0-6_
  6
Continuous
 62
     5
100
AcDbLine
 10
32267.57070180532
 20
23902.70068568769
 30
0.0
 11
32267.57070180532
 21
17935.75122279706
 31
0.0
  0
LINE
  5
309
330
22
100
AcDbEntity
  8
_0-6_
  6
Continuous
 62
     5
100
AcDbLine
 10
32367.57103172509
 20
23902.70068568769
 30
0.0
 11
32367.57103172509
 21
17762.54582135068
 31
0.0
  0
LINE
  5
30A
330
22
100
AcDbEntity
  8
_0-6_
  6
Continuous
 62
     5
100
AcDbLine
 10
32344.38839474241
 20
17802.70035576791
 30
0.0
 11
35067.5700419658
 21
17802.70035576791
 31
0.0
  0
LINE
  5
30B
330
22
100
AcDbEntity
  8
_0-6_
  6
Continuous
 62
     5
100
AcDbLine
 10
32567.57169156462
 20
23902.70068568769
 30
0.0
 11
32567.57169156462
 21
17416.13501845795
 31
0.0
  0
LINE
  5
30C
330
22
100
AcDbEntity
  8
_0-6_
  6
Continuous
 62
     5
100
AcDbLine
 10
32467.57136164485
 20
23902.70068568769
 30
0.0
 11
32467.57136164485
 21
17589.34041990432
 31
0.0
  0
LINE
  5
30D
330
22
100
AcDbEntity
  8
_0-6_
  6
Continuous
 62
     5
100
AcDbLine
 10
32667.57202148437
 20
23902.70068568769
 30
0.0
 11
32667.57202148437
 21
17242.92961701158
 31
0.0
  0
LINE
  5
30E
330
22
100
AcDbEntity
  8
_0-6_
  6
Continuous
 62
     5
100
AcDbLine
 10
32767.57235140415
 20
23902.70068568769
 30
0.0
 11
32767.57235140415
 21
17069.72421556522
 31
0.0
  0
LINE
  5
30F
330
22
100
AcDbEntity
  8
_0-6_
  6
Continuous
 62
     5
100
AcDbLine
 10
32867.57020692568
 20
23902.70068568769
 30
0.0
 11
32867.57020692568
 21
16896.52252571618
 31
0.0
  0
LINE
  5
310
330
22
100
AcDbEntity
  8
_0-6_
  6
Continuous
 62
     5
100
AcDbLine
 10
32967.57053684545
 20
23902.70068568769
 30
0.0
 11
32967.57053684545
 21
16723.31712426982
 31
0.0
  0
LINE
  5
311
330
22
100
AcDbEntity
  8
_0-6_
  6
Continuous
 62
     5
100
AcDbLine
 10
32748.5343314506
 20
17102.7005207278
 30
0.0
 11
35067.5700419658
 21
17102.7005207278
 31
0.0
  0
LINE
  5
312
330
22
100
AcDbEntity
  8
_0-F_
  6
Continuous
 62
     4
100
AcDbLine
 10
38317.56839236699
 20
13366.03381557049
 30
0.0
 11
38317.56839236699
 21
13466.03414549025
 31
0.0
  0
LINE
  5
313
330
22
100
AcDbEntity
  8
_0-F_
  6
Continuous
 62
     4
100
AcDbLine
 10
38717.56971204603
 20
14058.85294695774
 30
0.0
 11
39717.57053684544
 21
14058.85294695774
 31
0.0
  0
LINE
  5
314
330
22
100
AcDbEntity
  8
_0-F_
  6
Continuous
 62
     4
100
AcDbLine
 10
38317.56839236699
 20
13366.03381557049
 30
0.0
 11
38717.56971204603
 21
14058.85294695774
 31
0.0
  0
LINE
  5
315
330
22
100
AcDbEntity
  8
_0-0_
  6
CENTER1
 62
     4
100
AcDbLine
 10
9067.570866765203
 20
23757.35948266826
 30
0.0
 11
9067.570866765203
 21
25116.52663321725
 31
0.0
  0
LINE
  5
316
330
22
100
AcDbEntity
  8
_0-3_
  6
Continuous
 62
     6
100
AcDbLine
 10
9067.570866765203
 20
20476.79241657873
 30
0.0
 11
9067.570866765203
 21
23838.27972786463
 31
0.0
  0
LINE
  5
317
330
22
100
AcDbEntity
  8
_0-0_
  6
CENTER1
 62
     4
100
AcDbLine
 10
17067.57004196579
 20
25116.52663321725
 30
0.0
 11
17067.57004196579
 21
9102.942599354276
 31
0.0
  0
LINE
  5
318
330
22
100
AcDbEntity
  8
_0-0_
  6
Continuous
 62
     7
100
AcDbLine
 10
25042.57284628379
 20
23876.83827542586
 30
0.0
 11
25092.57548564189
 21
23876.83827542586
 31
0.0
  0
LINE
  5
319
330
22
100
AcDbEntity
  8
_0-0_
  6
Continuous
 62
     7
100
AcDbLine
 10
33042.56954708615
 20
23876.72445310745
 30
0.0
 11
33092.57218644426
 21
23876.72445310745
 31
0.0
  0
LINE
  5
31A
330
22
100
AcDbEntity
  8
_0-2_
  6
Continuous
 62
     7
100
AcDbLine
 10
25092.57053684544
 20
24026.84124470373
 30
0.0
 11
25092.57053684544
 21
23876.83827542586
 31
0.0
  0
LINE
  5
31B
330
22
100
AcDbEntity
  8
_0-2_
  6
Continuous
 62
     7
100
AcDbLine
 10
25042.57284628379
 20
24026.84124470373
 30
0.0
 11
25092.57053684544
 21
24026.84124470373
 31
0.0
  0
LINE
  5
31C
330
22
100
AcDbEntity
  8
_0-2_
  6
Continuous
 62
     7
100
AcDbLine
 10
25042.57284628379
 20
24026.84124470373
 30
0.0
 11
25042.57284628379
 21
23876.83827542586
 31
0.0
  0
LINE
  5
31D
330
22
100
AcDbEntity
  8
_0-2_
  6
Continuous
 62
     7
100
AcDbLine
 10
25042.57284628379
 20
23876.83827542586
 30
0.0
 11
25092.57053684544
 21
23876.83827542586
 31
0.0
  0
LINE
  5
31E
330
22
100
AcDbEntity
  8
_0-2_
  6
Continuous
 62
     7
100
AcDbLine
 10
33042.56954708615
 20
24026.72247358887
 30
0.0
 11
33092.56723764781
 21
24026.72247358887
 31
0.0
  0
LINE
  5
31F
330
22
100
AcDbEntity
  8
_0-2_
  6
Continuous
 62
     7
100
AcDbLine
 10
33042.56954708615
 20
23876.72445310745
 30
0.0
 11
33092.56723764781
 21
23876.72445310745
 31
0.0
  0
LINE
  5
320
330
22
100
AcDbEntity
  8
_0-2_
  6
Continuous
 62
     7
100
AcDbLine
 10
33042.56954708615
 20
24026.72247358887
 30
0.0
 11
33042.56954708615
 21
23876.72445310745
 31
0.0
  0
LINE
  5
321
330
22
100
AcDbEntity
  8
_0-2_
  6
Continuous
 62
     7
100
AcDbLine
 10
33092.56723764781
 20
24026.72247358887
 30
0.0
 11
33092.56723764781
 21
23876.72445310745
 31
0.0
  0
LINE
  5
322
330
22
100
AcDbEntity
  8
_0-2_
  6
Continuous
 62
     7
100
AcDbLine
 10
32905.57448928421
 20
23951.72346334816
 30
0.0
 11
33042.56954708615
 21
23951.72346334816
 31
0.0
  0
LINE
  5
323
330
22
100
AcDbEntity
  8
_0-2_
  6
Continuous
 62
     7
100
AcDbLine
 10
33229.57219304266
 20
23951.72346334816
 30
0.0
 11
33092.56723764781
 21
23951.72346334816
 31
0.0
  0
LINE
  5
324
330
22
100
AcDbEntity
  8
_0-2_
  6
Continuous
 62
     7
100
AcDbLine
 10
24905.57531408362
 20
23951.84223446302
 30
0.0
 11
25042.57284628379
 21
23951.84223446302
 31
0.0
  0
LINE
  5
325
330
22
100
AcDbEntity
  8
_0-2_
  6
Continuous
 62
     7
100
AcDbLine
 10
25229.57301784207
 20
23951.84223446302
 30
0.0
 11
25092.57053684544
 21
23951.84223446302
 31
0.0
  0
LINE
  5
326
330
22
100
AcDbEntity
  8
_0-3_
  6
Continuous
 62
     6
100
AcDbLine
 10
17067.57004196579
 20
23838.27972786463
 30
0.0
 11
17067.57004196579
 21
20476.94582926876
 31
0.0
  0
LINE
  5
327
330
22
100
AcDbEntity
  8
_0-0_
  6
CENTER1
 62
     4
100
AcDbLine
 10
25067.57169156461
 20
25102.94218695457
 30
0.0
 11
25067.57169156461
 21
23826.83811046597
 31
0.0
  0
LINE
  5
328
330
22
100
AcDbEntity
  8
_0-2_
  6
Continuous
 62
     7
100
AcDbLine
 10
9104.88974081503
 20
20476.79241657873
 30
0.0
 11
9104.88974081503
 21
20326.79439609731
 31
0.0
  0
LINE
  5
329
330
22
100
AcDbEntity
  8
_0-0_
  6
CENTER1
 62
     4
100
AcDbLine
 10
9067.570866765203
 20
23756.87944941234
 30
0.0
 11
9067.570866765203
 21
9102.942599354276
 31
0.0
  0
LINE
  5
32A
330
22
100
AcDbEntity
  8
_0-3_
  6
Continuous
 62
     6
100
AcDbLine
 10
9067.570866765203
 20
13302.77829931205
 30
0.0
 11
9067.570866765203
 21
20328.07365998033
 31
0.0
  0
LINE
  5
32B
330
22
100
AcDbEntity
  8
_0-0_
  6
Continuous
 62
     6
100
AcDbLine
 10
9067.570866765203
 20
16927.2483656919
 30
0.0
 11
9067.570866765203
 21
23757.35948266826
 31
0.0
  0
LINE
  5
32C
330
22
100
AcDbEntity
  8
_0-0_
  6
Continuous
 62
     6
100
AcDbLine
 10
9067.570866765203
 20
13452.07606509541
 30
0.0
 11
9067.570866765203
 21
16777.24787081226
 31
0.0
  0
LINE
  5
32D
330
22
100
AcDbEntity
  8
_0-3_
  6
Continuous
 62
     6
100
AcDbLine
 10
9105.067897487332
 20
13202.94127967522
 30
0.0
 11
17030.06806244721
 21
13202.94127967522
 31
0.0
  0
LINE
  5
32E
330
22
100
AcDbEntity
  8
_0-6_
  6
Continuous
 62
     5
100
AcDbLine
 10
17067.57004196579
 20
13453.96897973857
 30
0.0
 11
17067.57004196579
 21
13327.44804962877
 31
0.0
  0
LINE
  5
32F
330
22
100
AcDbEntity
  8
_0-3_
  6
Continuous
 62
     6
100
AcDbLine
 10
17067.57004196579
 20
13302.57292425926
 30
0.0
 11
17067.57004196579
 21
20328.17016151116
 31
0.0
  0
LINE
  5
330
330
22
100
AcDbEntity
  8
_0-2_
  6
Continuous
 62
     7
100
AcDbLine
 10
17029.59050358953
 20
20476.94582926876
 30
0.0
 11
17029.59050358953
 21
20326.94533438912
 31
0.0
  0
LINE
  5
331
330
22
100
AcDbEntity
  8
_0-3_
  6
Continuous
 62
     6
100
AcDbLine
 10
9104.88974081503
 20
20352.74588469528
 30
0.0
 11
17029.59050358953
 21
20352.74588469528
 31
0.0
  0
LINE
  5
332
330
22
100
AcDbEntity
  8
_0-3_
  6
Continuous
 62
     6
100
AcDbLine
 10
9104.006380648227
 20
16802.74654453481
 30
0.0
 11
17029.00159681165
 21
16802.74654453481
 31
0.0
  0
LINE
  5
333
330
22
100
AcDbEntity
  8
_0-3_
  6
Continuous
 62
     6
100
AcDbLine
 10
9217.672811972128
 20
23948.27910101708
 30
0.0
 11
16817.57169156461
 21
13344.23684159456
 31
0.0
  0
LINE
  5
334
330
22
100
AcDbEntity
  8
_0-3_
  6
Continuous
 62
     6
100
AcDbLine
 10
9317.574165962838
 20
13344.46201183316
 30
0.0
 11
16917.45077597128
 21
23948.27910101708
 31
0.0
  0
LINE
  5
335
330
22
100
AcDbEntity
  8
_0-3_
  6
Continuous
 62
     6
100
AcDbLine
 10
17317.57334116343
 20
13346.74464419697
 30
0.0
 11
24905.57531408362
 21
23961.32165406817
 31
0.0
  0
LINE
  5
336
330
22
100
AcDbEntity
  8
_0-3_
  6
Continuous
 62
     6
100
AcDbLine
 10
25067.57169156461
 20
23827.01131834183
 30
0.0
 11
25067.57169156461
 21
13302.6521050025
 31
0.0
  0
LINE
  5
337
330
22
100
AcDbEntity
  8
_0-0_
  6
CENTER1
 62
     4
100
AcDbLine
 10
25067.57169156461
 20
9102.942599354276
 30
0.0
 11
25067.57169156461
 21
23713.48345331859
 31
0.0
  0
LINE
  5
338
330
22
100
AcDbEntity
  8
_0-3_
  6
Continuous
 62
     6
100
AcDbLine
 10
17104.00060705236
 20
16802.74654453481
 30
0.0
 11
25028.27329893371
 21
16802.74654453481
 31
0.0
  0
LINE
  5
339
330
22
100
AcDbEntity
  8
_0-3_
  6
Continuous
 62
     6
100
AcDbLine
 10
33229.57219304266
 20
23959.18872279706
 30
0.0
 11
35067.5700419658
 21
21388.06998137497
 31
0.0
  0
LINE
  5
33A
330
22
100
AcDbEntity
  8
_0-6_
  6
Continuous
 62
     5
100
AcDbLine
 10
33067.5708667652
 20
23814.77047031606
 30
0.0
 11
33067.5708667652
 21
20477.38256055572
 31
0.0
  0
LINE
  5
33B
330
22
100
AcDbEntity
  8
_0-3_
  6
Continuous
 62
     6
100
AcDbLine
 10
25103.92307590794
 20
20352.74588469528
 30
0.0
 11
33028.99252401816
 21
20352.74588469528
 31
0.0
  0
LINE
  5
33C
330
22
100
AcDbEntity
  8
_0-3_
  6
Continuous
 62
     6
100
AcDbLine
 10
33103.99153425886
 20
20352.74588469528
 30
0.0
 11
35066.49615313556
 21
20352.74588469528
 31
0.0
  0
LINE
  5
33D
330
22
100
AcDbEntity
  8
_0-2_
  6
Continuous
 62
     7
100
AcDbLine
 10
25029.29275100296
 20
20477.0992419588
 30
0.0
 11
25029.29275100296
 21
20327.09627268092
 31
0.0
  0
LINE
  5
33E
330
22
100
AcDbEntity
  8
_0-3_
  6
Continuous
 62
     6
100
AcDbLine
 10
17104.58951383023
 20
20352.74588469528
 30
0.0
 11
25029.29275100296
 21
20352.74588469528
 31
0.0
  0
LINE
  5
33F
330
22
100
AcDbEntity
  8
_0-3_
  6
Continuous
 62
     6
100
AcDbLine
 10
17217.29340424409
 20
23948.27910101708
 30
0.0
 11
24817.57086676521
 21
13345.18701051348
 31
0.0
  0
LINE
  5
340
330
22
100
AcDbEntity
  8
_0-3_
  6
Continuous
 62
     6
100
AcDbLine
 10
25317.57251636402
 20
13344.6537776957
 30
0.0
 11
32905.57448928421
 21
23959.73556480508
 31
0.0
  0
LINE
  5
341
330
22
100
AcDbEntity
  8
_0-3_
  6
Continuous
 62
     6
100
AcDbLine
 10
35067.5700419658
 20
15792.43985112265
 30
0.0
 11
33317.56921716638
 21
13344.28138076263
 31
0.0
  0
LINE
  5
342
330
22
100
AcDbEntity
  8
_0-3_
  6
Continuous
 62
     6
100
AcDbLine
 10
25229.57301784207
 20
23958.47857050609
 30
0.0
 11
32817.56756756757
 21
13344.6723356824
 31
0.0
  0
LINE
  5
343
330
22
100
AcDbEntity
  8
_0-0_
  6
CENTER1
 62
     4
100
AcDbLine
 10
33067.56839236699
 20
9271.080433233075
 30
0.0
 11
33067.56839236699
 21
20327.24968537096
 31
0.0
  0
LINE
  5
344
330
22
100
AcDbEntity
  8
_0-0_
  6
CENTER1
 62
     4
100
AcDbLine
 10
33067.5708667652
 20
20477.38256055572
 30
0.0
 11
33067.5708667652
 21
20327.24844817185
 31
0.0
  0
LINE
  5
345
330
22
100
AcDbEntity
  8
_0-3_
  6
Continuous
 62
     6
100
AcDbLine
 10
33067.56839236699
 20
20327.83364335238
 30
0.0
 11
33067.56839236699
 21
13327.44557523054
 31
0.0
  0
LINE
  5
346
330
22
100
AcDbEntity
  8
_0-6_
  6
Continuous
 62
     5
100
AcDbLine
 10
33067.5708667652
 20
20327.24968537096
 30
0.0
 11
33067.5708667652
 21
16928.46329522104
 31
0.0
  0
LINE
  5
347
330
22
100
AcDbEntity
  8
_0-6_
  6
Continuous
 62
     5
100
AcDbLine
 10
33067.5708667652
 20
16776.01067169908
 30
0.0
 11
33067.5708667652
 21
16376.90508417797
 31
0.0
  0
LINE
  5
348
330
22
100
AcDbEntity
  8
_0-6_
  6
Continuous
 62
     5
100
AcDbLine
 10
32921.73725849873
 20
16802.70076816762
 30
0.0
 11
33029.24491263725
 21
16802.70076816762
 31
0.0
  0
LINE
  5
349
330
22
100
AcDbEntity
  8
_0-6_
  6
Continuous
 62
     5
100
AcDbLine
 10
33103.6748112859
 20
16802.70076816762
 30
0.0
 11
35067.5700419658
 21
16802.70076816762
 31
0.0
  0
LINE
  5
34A
330
22
100
AcDbEntity
  8
_0-3_
  6
Continuous
 62
     6
100
AcDbLine
 10
25103.99483345651
 20
16802.74654453481
 30
0.0
 11
33028.6485826647
 21
16802.74654453481
 31
0.0
  0
LINE
  5
34B
330
22
100
AcDbEntity
  8
_0-3_
  6
Continuous
 62
     6
100
AcDbLine
 10
33103.37540910051
 20
16802.74654453481
 30
0.0
 11
35067.5700419658
 21
16802.74654453481
 31
0.0
  0
LINE
  5
34C
330
22
100
AcDbEntity
  8
_0-3_
  6
Continuous
 62
     6
100
AcDbLine
 10
33104.9243823902
 20
13202.94127967522
 30
0.0
 11
35067.5700419658
 21
13202.94127967522
 31
0.0
  0
LINE
  5
34D
330
22
100
AcDbEntity
  8
_0-0_
  6
CENTER1
 62
     4
100
AcDbLine
 10
33067.5708667652
 20
16928.46329522104
 30
0.0
 11
33067.5708667652
 21
16777.25034521048
 31
0.0
  0
LINE
  5
34E
330
22
100
AcDbEntity
  8
_0-3_
  6
Continuous
 62
     6
100
AcDbLine
 10
17105.06707268792
 20
13202.94127967522
 30
0.0
 11
25029.70597550676
 21
13202.94127967522
 31
0.0
  0
LINE
  5
34F
330
22
100
AcDbEntity
  8
_0-3_
  6
Continuous
 62
     6
100
AcDbLine
 10
25104.40310916385
 20
13202.94127967522
 30
0.0
 11
33029.66556033574
 21
13202.94127967522
 31
0.0
  0
LINE
  5
350
330
22
100
AcDbEntity
  8
_0-6_
  6
DASHED1
 62
     5
100
AcDbLine
 10
37905.57119008656
 20
23965.42915512391
 30
0.0
 11
37817.56674276816
 21
13366.03381557049
 31
0.0
  0
LINE
  5
351
330
22
100
AcDbEntity
  8
_0-0_
  6
Continuous
 62
     3
100
AcDbLine
 10
33251.0326488598
 20
13102.94589855191
 30
0.0
 11
35690.36865234375
 21
13102.94589855191
 31
0.0
  0
LINE
  5
352
330
22
100
AcDbEntity
  8
_0-0_
  6
Continuous
 62
     3
100
AcDbLine
 10
36000.15093829181
 20
13102.94589855191
 30
0.0
 11
36067.56839236699
 21
13102.94589855191
 31
0.0
  0
LINE
  5
353
330
22
100
AcDbEntity
  8
ADD_LINE
  6
DOT
 62
     2
100
AcDbLine
 10
3378.381574476089
 20
20715.91949837244
 30
0.0
 11
3378.381574476089
 21
18445.91646311061
 31
0.0
  0
LINE
  5
354
330
22
100
AcDbEntity
  8
_0-9_
  6
Continuous
 62
     4
100
AcDbLine
 10
8490.212105415963
 20
16802.74530733569
 30
0.0
 11
5490.212105415963
 21
16802.74530733569
 31
0.0
  0
LINE
  5
355
330
22
100
AcDbEntity
  8
_0-9_
  6
Continuous
 62
     4
100
AcDbLine
 10
8490.212105415963
 20
20352.74588469528
 30
0.0
 11
5490.212105415963
 21
20352.74588469528
 31
0.0
  0
LINE
  5
356
330
22
100
AcDbEntity
  8
_0-0_
  6
Continuous
 62
     4
100
AcDbLine
 10
8490.212105415963
 20
10102.9446613528
 30
0.0
 11
4567.570866765203
 21
10102.9446613528
 31
0.0
  0
CIRCLE
  5
357
330
22
100
AcDbEntity
  8
_0-0_
  6
Continuous
 62
     7
100
AcDbCircle
 10
9381.030108477618
 20
24023.29295764714
 30
0.0
 40
15.00000019331236
  0
ARC
  5
358
330
22
100
AcDbEntity
  8
_0-0_
  6
Continuous
 62
     6
100
AcDbCircle
 10
9617.572681323899
 20
13202.57754313594
 30
0.0
 40
50.00114118730699
100
AcDbArc
 50
89.64202880859373
 51
270.3579711914062
  0
ARC
  5
359
330
22
100
AcDbEntity
  8
_0-0_
  6
Continuous
 62
     6
100
AcDbCircle
 10
9817.808408994933
 20
13202.57754313594
 30
0.0
 40
50.00022295359018
100
AcDbArc
 50
270.0879058837891
 51
89.91209411621095
  0
CIRCLE
  5
35A
330
22
100
AcDbEntity
  8
_0-0_
  6
Continuous
 62
     6
100
AcDbCircle
 10
9967.808903874578
 20
13202.57754313594
 30
0.0
 40
50.00000064437454
  0
CIRCLE
  5
35B
330
22
100
AcDbEntity
  8
_0-0_
  6
Continuous
 62
     7
100
AcDbCircle
 10
16754.11080025338
 20
24023.29295764714
 30
0.0
 40
15.00000019331236
  0
CIRCLE
  5
35C
330
22
100
AcDbEntity
  8
_0-0_
  6
Continuous
 62
     7
100
AcDbCircle
 10
17199.71527924409
 20
24023.28306005424
 30
0.0
 40
10.00000012887491
  0
CIRCLE
  5
35D
330
22
100
AcDbEntity
  8
_0-0_
  6
Continuous
 62
     7
100
AcDbCircle
 10
16935.4347022804
 20
24023.28306005424
 30
0.0
 40
10.00000012887491
  0
ARC
  5
35E
330
22
100
AcDbEntity
  8
_0-0_
  6
Continuous
 62
     6
100
AcDbCircle
 10
17067.495810019
 20
13503.97161909667
 30
0.0
 40
50.00114118730699
100
AcDbArc
 50
179.6420288085938
 51
0.3579711914061931
  0
CIRCLE
  5
35F
330
22
100
AcDbEntity
  8
_0-0_
  6
Continuous
 62
     6
100
AcDbCircle
 10
17067.495810019
 20
13854.20536724912
 30
0.0
 40
50.00000064437454
  0
CIRCLE
  5
360
330
22
100
AcDbEntity
  8
_0-0_
  6
Continuous
 62
     7
100
AcDbCircle
 10
17199.71033044763
 20
24023.28306005424
 30
0.0
 40
10.00000012887491
  0
CIRCLE
  5
361
330
22
100
AcDbEntity
  8
_0-0_
  6
Continuous
 62
     7
100
AcDbCircle
 10
16935.42975348395
 20
24023.28306005424
 30
0.0
 40
10.00000012887491
  0
CIRCLE
  5
362
330
22
100
AcDbEntity
  8
_0-0_
  6
Continuous
 62
     7
100
AcDbCircle
 10
16935.26644320102
 20
23973.27547189969
 30
0.0
 40
10.00000012887491
  0
CIRCLE
  5
363
330
22
100
AcDbEntity
  8
_0-0_
  6
Continuous
 62
     7
100
AcDbCircle
 10
17199.87858952703
 20
23973.27547189969
 30
0.0
 40
10.00000012887491
  0
CIRCLE
  5
364
330
22
100
AcDbEntity
  8
_0-0_
  6
Continuous
 62
     7
100
AcDbCircle
 10
17067.56756756757
 20
24023.28306005424
 30
0.0
 40
10.00000012887491
  0
ARC
  5
365
330
22
100
AcDbEntity
  8
_0-0_
  6
Continuous
 62
     6
100
AcDbCircle
 10
17067.64427391258
 20
13503.97161909667
 30
0.0
 40
50.00114118730699
100
AcDbArc
 50
179.6420288085938
 51
0.3579711914061931
  0
ARC
  5
366
330
22
100
AcDbEntity
  8
_0-0_
  6
Continuous
 62
     6
100
AcDbCircle
 10
17067.64427391258
 20
13704.20487236948
 30
0.0
 40
50.00022295359018
100
AcDbArc
 50
0.0879058837891062
 51
179.9120941162109
  0
CIRCLE
  5
367
330
22
100
AcDbEntity
  8
_0-0_
  6
Continuous
 62
     7
100
AcDbCircle
 10
17067.56756756757
 20
23973.27547189969
 30
0.0
 40
10.00000012887491
  0
CIRCLE
  5
368
330
22
100
AcDbEntity
  8
_0-0_
  6
Continuous
 62
     7
100
AcDbCircle
 10
17067.56756756757
 20
23903.27969487265
 30
0.0
 40
10.00000012887491
  0
CIRCLE
  5
369
330
22
100
AcDbEntity
  8
_0-0_
  6
Continuous
 62
     7
100
AcDbCircle
 10
24935.37696632179
 20
24002.10221123667
 30
0.0
 40
10.00000012887491
  0
CIRCLE
  5
36A
330
22
100
AcDbEntity
  8
_0-0_
  6
Continuous
 62
     7
100
AcDbCircle
 10
25199.44227063978
 20
24000.81057536251
 30
0.0
 40
10.00000012887491
  0
CIRCLE
  5
36B
330
22
100
AcDbEntity
  8
_0-0_
  6
Continuous
 62
     7
100
AcDbCircle
 10
9199.716104043497
 20
24023.27811125779
 30
0.0
 40
10.00000012887491
  0
CIRCLE
  5
36C
330
22
100
AcDbEntity
  8
_0-0_
  6
Continuous
 62
     7
100
AcDbCircle
 10
8935.435527079816
 20
24023.27811125779
 30
0.0
 40
10.00000012887491
  0
CIRCLE
  5
36D
330
22
100
AcDbEntity
  8
_0-0_
  6
Continuous
 62
     7
100
AcDbCircle
 10
9199.711155247042
 20
24023.27811125779
 30
0.0
 40
10.00000012887491
  0
CIRCLE
  5
36E
330
22
100
AcDbEntity
  8
_0-0_
  6
Continuous
 62
     7
100
AcDbCircle
 10
9067.568392366977
 20
23973.27547189969
 30
0.0
 40
10.00000012887491
  0
CIRCLE
  5
36F
330
22
100
AcDbEntity
  8
_0-0_
  6
Continuous
 62
     7
100
AcDbCircle
 10
9067.568392366977
 20
24023.27811125779
 30
0.0
 40
10.00000012887491
  0
CIRCLE
  5
370
330
22
100
AcDbEntity
  8
_0-0_
  6
Continuous
 62
     7
100
AcDbCircle
 10
9067.568392366977
 20
23903.27969487265
 30
0.0
 40
10.00000012887491
  0
CIRCLE
  5
371
330
22
100
AcDbEntity
  8
_0-0_
  6
Continuous
 62
     7
100
AcDbCircle
 10
8935.430578283362
 20
24023.27811125779
 30
0.0
 40
10.00000012887491
  0
CIRCLE
  5
372
330
22
100
AcDbEntity
  8
_0-0_
  6
Continuous
 62
     7
100
AcDbCircle
 10
8935.267268000421
 20
23973.27547189969
 30
0.0
 40
10.00000012887491
  0
CIRCLE
  5
373
330
22
100
AcDbEntity
  8
_0-0_
  6
Continuous
 62
     7
100
AcDbCircle
 10
25067.81418259079
 20
24001.67661474173
 30
0.0
 40
10.00000012887491
  0
CIRCLE
  5
374
330
22
100
AcDbEntity
  8
_0-0_
  6
Continuous
 62
     7
100
AcDbCircle
 10
25067.81418259079
 20
23902.0078541843
 30
0.0
 40
10.00000012887491
  0
CIRCLE
  5
375
330
22
100
AcDbEntity
  8
_0-0_
  6
Continuous
 62
     7
100
AcDbCircle
 10
33067.81088339316
 20
23901.88908306944
 30
0.0
 40
10.00000012887491
  0
CIRCLE
  5
376
330
22
100
AcDbEntity
  8
_0-0_
  6
Continuous
 62
     7
100
AcDbCircle
 10
32935.37614152239
 20
24001.98838891826
 30
0.0
 40
10.00000012887491
  0
CIRCLE
  5
377
330
22
100
AcDbEntity
  8
_0-0_
  6
Continuous
 62
     7
100
AcDbCircle
 10
33198.83521827492
 20
24002.10716003312
 30
0.0
 40
10.00000012887491
  0
CIRCLE
  5
378
330
22
100
AcDbEntity
  8
_0-0_
  6
Continuous
 62
     7
100
AcDbCircle
 10
33067.79108820735
 20
24002.06262086505
 30
0.0
 40
10.00000012887491
  0
CIRCLE
  5
379
330
22
100
AcDbEntity
  8
_0-0_
  6
Continuous
 62
     7
100
AcDbCircle
 10
33067.56591796875
 20
20352.41431533295
 30
0.0
 40
10.00000012887491
  0
CIRCLE
  5
37A
330
22
100
AcDbEntity
  8
_0-0_
  6
Continuous
 62
     7
100
AcDbCircle
 10
32905.79718512457
 20
20452.7610610044
 30
0.0
 40
10.00000012887491
  0
CIRCLE
  5
37B
330
22
100
AcDbEntity
  8
_0-0_
  6
Continuous
 62
     7
100
AcDbCircle
 10
33226.7216862859
 20
20452.81054896893
 30
0.0
 40
10.00000012887491
  0
CIRCLE
  5
37C
330
22
100
AcDbEntity
  8
_0-0_
  6
Continuous
 62
     7
100
AcDbCircle
 10
33067.56591796875
 20
20452.08307589038
 30
0.0
 40
10.00000012887491
  0
CIRCLE
  5
37D
330
22
100
AcDbEntity
  8
_0-0_
  6
Continuous
 62
     7
100
AcDbCircle
 10
25067.03227275127
 20
20352.26337704115
 30
0.0
 40
10.00000012887491
  0
CIRCLE
  5
37E
330
22
100
AcDbEntity
  8
_0-0_
  6
Continuous
 62
     7
100
AcDbCircle
 10
24906.09246331293
 20
20452.60764831437
 30
0.0
 40
10.00000012887491
  0
CIRCLE
  5
37F
330
22
100
AcDbEntity
  8
_0-0_
  6
Continuous
 62
     7
100
AcDbCircle
 10
25227.01696447424
 20
20452.65961067713
 30
0.0
 40
10.00000012887491
  0
CIRCLE
  5
380
330
22
100
AcDbEntity
  8
_0-0_
  6
Continuous
 62
     7
100
AcDbCircle
 10
25067.03227275127
 20
20451.93213759857
 30
0.0
 40
10.00000012887491
  0
CIRCLE
  5
381
330
22
100
AcDbEntity
  8
_0-0_
  6
Continuous
 62
     7
100
AcDbCircle
 10
17067.33249973606
 20
20352.11243874934
 30
0.0
 40
10.00000012887491
  0
CIRCLE
  5
382
330
22
100
AcDbEntity
  8
_0-0_
  6
Continuous
 62
     7
100
AcDbCircle
 10
16906.39269029771
 20
20452.45671002256
 30
0.0
 40
10.00000012887491
  0
CIRCLE
  5
383
330
22
100
AcDbEntity
  8
_0-0_
  6
Continuous
 62
     7
100
AcDbCircle
 10
17227.31719145904
 20
20452.50867238532
 30
0.0
 40
10.00000012887491
  0
CIRCLE
  5
384
330
22
100
AcDbEntity
  8
_0-0_
  6
Continuous
 62
     7
100
AcDbCircle
 10
17067.33249973606
 20
20451.78119930677
 30
0.0
 40
10.00000012887491
  0
CIRCLE
  5
385
330
22
100
AcDbEntity
  8
_0-0_
  6
Continuous
 62
     7
100
AcDbCircle
 10
9067.63272672086
 20
20351.9590260593
 30
0.0
 40
10.00000012887491
  0
CIRCLE
  5
386
330
22
100
AcDbEntity
  8
_0-0_
  6
Continuous
 62
     7
100
AcDbCircle
 10
8906.692917282517
 20
20452.30577173076
 30
0.0
 40
10.00000012887491
  0
CIRCLE
  5
387
330
22
100
AcDbEntity
  8
_0-0_
  6
Continuous
 62
     7
100
AcDbCircle
 10
9067.63272672086
 20
20451.62778661673
 30
0.0
 40
10.00000012887491
  0
CIRCLE
  5
388
330
22
100
AcDbEntity
  8
_0-0_
  6
Continuous
 62
     7
100
AcDbCircle
 10
33068.02863043708
 20
16802.32218523899
 30
0.0
 40
10.00000012887491
  0
CIRCLE
  5
389
330
22
100
AcDbEntity
  8
_0-0_
  6
Continuous
 62
     7
100
AcDbCircle
 10
32876.56959327492
 20
16902.63552653439
 30
0.0
 40
10.00000012887491
  0
CIRCLE
  5
38A
330
22
100
AcDbEntity
  8
_0-0_
  6
Continuous
 62
     7
100
AcDbCircle
 10
33257.60217615076
 20
16901.31667227974
 30
0.0
 40
10.00000012887491
  0
CIRCLE
  5
38B
330
22
100
AcDbEntity
  8
_0-0_
  6
Continuous
 62
     7
100
AcDbCircle
 10
33068.02863043708
 20
16901.99094579641
 30
0.0
 40
10.00000012887491
  0
CIRCLE
  5
38C
330
22
100
AcDbEntity
  8
_0-0_
  6
Continuous
 62
     7
100
AcDbCircle
 10
33067.80593459671
 20
13202.61218471111
 30
0.0
 40
10.00000012887491
  0
CIRCLE
  5
38D
330
22
100
AcDbEntity
  8
_0-0_
  6
Continuous
 62
     7
100
AcDbCircle
 10
32847.86409945101
 20
13302.68179778122
 30
0.0
 40
10.00000012887491
  0
CIRCLE
  5
38E
330
22
100
AcDbEntity
  8
_0-0_
  6
Continuous
 62
     7
100
AcDbCircle
 10
33287.59930584882
 20
13302.38486999405
 30
0.0
 40
10.00000012887491
  0
CIRCLE
  5
38F
330
22
100
AcDbEntity
  8
_0-0_
  6
Continuous
 62
     7
100
AcDbCircle
 10
33067.80593459671
 20
13302.28094526854
 30
0.0
 40
10.00000012887491
  0
CIRCLE
  5
390
330
22
100
AcDbEntity
  8
_0-0_
  6
Continuous
 62
     7
100
AcDbCircle
 10
9226.298564189191
 20
20452.30577173076
 30
0.0
 40
10.00000012887491
  0
CIRCLE
  5
391
330
22
100
AcDbEntity
  8
_0-0_
  6
Continuous
 62
     7
100
AcDbCircle
 10
25066.74029376056
 20
16802.41497517248
 30
0.0
 40
10.00000012887491
  0
CIRCLE
  5
392
330
22
100
AcDbEntity
  8
_0-0_
  6
Continuous
 62
     7
100
AcDbCircle
 10
24876.57289247255
 20
16902.63305213616
 30
0.0
 40
10.00000012887491
  0
CIRCLE
  5
393
330
22
100
AcDbEntity
  8
_0-0_
  6
Continuous
 62
     7
100
AcDbCircle
 10
25257.6054753484
 20
16901.31667227974
 30
0.0
 40
10.00000012887491
  0
CIRCLE
  5
394
330
22
100
AcDbEntity
  8
_0-0_
  6
Continuous
 62
     7
100
AcDbCircle
 10
25066.74029376056
 20
16902.08373572991
 30
0.0
 40
10.00000012887491
  0
CIRCLE
  5
395
330
22
100
AcDbEntity
  8
_0-0_
  6
Continuous
 62
     7
100
AcDbCircle
 10
17066.74359295819
 20
16802.41497517248
 30
0.0
 40
10.00000012887491
  0
CIRCLE
  5
396
330
22
100
AcDbEntity
  8
_0-0_
  6
Continuous
 62
     7
100
AcDbCircle
 10
16876.57866606841
 20
16902.63305213616
 30
0.0
 40
10.00000012887491
  0
CIRCLE
  5
397
330
22
100
AcDbEntity
  8
_0-0_
  6
Continuous
 62
     7
100
AcDbCircle
 10
17257.61124894425
 20
16901.3141978815
 30
0.0
 40
10.00000012887491
  0
CIRCLE
  5
398
330
22
100
AcDbEntity
  8
_0-0_
  6
Continuous
 62
     7
100
AcDbCircle
 10
17066.74359295819
 20
16902.08373572991
 30
0.0
 40
10.00000012887491
  0
CIRCLE
  5
399
330
22
100
AcDbEntity
  8
_0-0_
  6
Continuous
 62
     7
100
AcDbCircle
 10
9066.749366554057
 20
16802.41497517248
 30
0.0
 40
10.00000012887491
  0
CIRCLE
  5
39A
330
22
100
AcDbEntity
  8
_0-0_
  6
Continuous
 62
     7
100
AcDbCircle
 10
8876.584439664275
 20
16902.63305213616
 30
0.0
 40
10.00000012887491
  0
CIRCLE
  5
39B
330
22
100
AcDbEntity
  8
_0-0_
  6
Continuous
 62
     7
100
AcDbCircle
 10
9257.617022540118
 20
16901.31172348329
 30
0.0
 40
10.00000012887491
  0
CIRCLE
  5
39C
330
22
100
AcDbEntity
  8
_0-0_
  6
Continuous
 62
     7
100
AcDbCircle
 10
9066.749366554057
 20
16902.08373572991
 30
0.0
 40
10.00000012887491
  0
CIRCLE
  5
39D
330
22
100
AcDbEntity
  8
_0-0_
  6
Continuous
 62
     7
100
AcDbCircle
 10
25067.80923379435
 20
13202.61218471111
 30
0.0
 40
10.00000012887491
  0
CIRCLE
  5
39E
330
22
100
AcDbEntity
  8
_0-0_
  6
Continuous
 62
     7
100
AcDbCircle
 10
24847.86739864865
 20
13302.68179778122
 30
0.0
 40
10.00000012887491
  0
CIRCLE
  5
39F
330
22
100
AcDbEntity
  8
_0-0_
  6
Continuous
 62
     7
100
AcDbCircle
 10
25287.60260504645
 20
13302.38734439228
 30
0.0
 40
10.00000012887491
  0
CIRCLE
  5
3A0
330
22
100
AcDbEntity
  8
_0-0_
  6
Continuous
 62
     7
100
AcDbCircle
 10
25067.80923379435
 20
13302.28094526854
 30
0.0
 40
10.00000012887491
  0
CIRCLE
  5
3A1
330
22
100
AcDbEntity
  8
_0-0_
  6
Continuous
 62
     7
100
AcDbCircle
 10
17067.81005859375
 20
13202.61218471111
 30
0.0
 40
10.00000012887491
  0
CIRCLE
  5
3A2
330
22
100
AcDbEntity
  8
_0-0_
  6
Continuous
 62
     7
100
AcDbCircle
 10
16847.86822344806
 20
13302.68179778122
 30
0.0
 40
10.00000012887491
  0
CIRCLE
  5
3A3
330
22
100
AcDbEntity
  8
_0-0_
  6
Continuous
 62
     7
100
AcDbCircle
 10
17287.60342984586
 20
13302.38734439228
 30
0.0
 40
10.00000012887491
  0
CIRCLE
  5
3A4
330
22
100
AcDbEntity
  8
_0-0_
  6
Continuous
 62
     7
100
AcDbCircle
 10
17067.81005859375
 20
13302.28094526854
 30
0.0
 40
10.00000012887491
  0
CIRCLE
  5
3A5
330
22
100
AcDbEntity
  8
_0-0_
  6
Continuous
 62
     7
100
AcDbCircle
 10
9067.81088339316
 20
13202.61218471111
 30
0.0
 40
10.00000012887491
  0
CIRCLE
  5
3A6
330
22
100
AcDbEntity
  8
_0-0_
  6
Continuous
 62
     7
100
AcDbCircle
 10
8847.869048247467
 20
13302.68179778122
 30
0.0
 40
10.00000012887491
  0
CIRCLE
  5
3A7
330
22
100
AcDbEntity
  8
_0-0_
  6
Continuous
 62
     7
100
AcDbCircle
 10
9287.60425464527
 20
13302.38734439228
 30
0.0
 40
10.00000012887491
  0
CIRCLE
  5
3A8
330
22
100
AcDbEntity
  8
_0-0_
  6
Continuous
 62
     7
100
AcDbCircle
 10
9067.81088339316
 20
13302.28094526854
 30
0.0
 40
10.00000012887491
  0
CIRCLE
  5
3A9
330
22
100
AcDbEntity
  8
_0-0_
  6
Continuous
 62
     7
100
AcDbCircle
 10
9199.716104043497
 20
23973.28042069613
 30
0.0
 40
10.00000012887491
  0
CIRCLE
  5
3AA
330
22
100
AcDbEntity
  8
_0-0_
  6
Continuous
 62
     7
100
AcDbCircle
 10
9199.711155247042
 20
23973.28042069613
 30
0.0
 40
10.00000012887491
  0
CIRCLE
  5
3AB
330
22
100
AcDbEntity
  8
_0-0_
  6
Continuous
 62
     6
100
AcDbCircle
 10
9067.496634818411
 20
13844.53789337877
 30
0.0
 40
50.00000064437454
  0
ARC
  5
3AC
330
22
100
AcDbEntity
  8
_0-0_
  6
Continuous
 62
     6
100
AcDbCircle
 10
9067.645098711992
 20
13694.53987289735
 30
0.0
 40
50.00022295359018
100
AcDbArc
 50
0.0879058837891062
 51
179.9120941162109
  0
CIRCLE
  5
3AD
330
22
100
AcDbEntity
  8
_0-0_
  6
Continuous
 62
     6
100
AcDbCircle
 10
9067.645098711992
 20
13844.53789337877
 30
0.0
 40
50.00000064437454
  0
ARC
  5
3AE
330
22
100
AcDbEntity
  8
_0-0_
  6
Continuous
 62
     6
100
AcDbCircle
 10
25067.49745961782
 20
13503.97161909667
 30
0.0
 40
50.00114118730699
100
AcDbArc
 50
179.6420288085938
 51
0.3579711914061931
  0
CIRCLE
  5
3AF
330
22
100
AcDbEntity
  8
_0-0_
  6
Continuous
 62
     6
100
AcDbCircle
 10
25067.49745961782
 20
13854.20536724912
 30
0.0
 40
50.00000064437454
  0
ARC
  5
3B0
330
22
100
AcDbEntity
  8
_0-0_
  6
Continuous
 62
     6
100
AcDbCircle
 10
25067.64592351141
 20
13503.97161909667
 30
0.0
 40
50.00114118730699
100
AcDbArc
 50
179.6420288085938
 51
0.3579711914061931
  0
ARC
  5
3B1
330
22
100
AcDbEntity
  8
_0-0_
  6
Continuous
 62
     6
100
AcDbCircle
 10
25067.64592351141
 20
13704.20487236948
 30
0.0
 40
50.00022295359018
100
AcDbArc
 50
0.0879058837891062
 51
179.9120941162109
  0
ARC
  5
3B2
330
22
100
AcDbEntity
  8
_0-0_
  6
Continuous
 62
     6
100
AcDbCircle
 10
33067.49416042019
 20
13503.96914469844
 30
0.0
 40
50.00114118730699
100
AcDbArc
 50
179.6420288085938
 51
0.3579711914061931
  0
ARC
  5
3B3
330
22
100
AcDbEntity
  8
_0-0_
  6
Continuous
 62
     6
100
AcDbCircle
 10
33067.64262431377
 20
13503.96914469844
 30
0.0
 40
50.00114118730699
100
AcDbArc
 50
179.6420288085938
 51
0.3579711914061931
  0
ARC
  5
3B4
330
22
100
AcDbEntity
  8
_0-0_
  6
Continuous
 62
     6
100
AcDbCircle
 10
33067.64262431377
 20
13704.20487236948
 30
0.0
 40
50.00022295359018
100
AcDbArc
 50
0.0879058837891062
 51
179.9120941162109
  0
CIRCLE
  5
3B5
330
22
100
AcDbEntity
  8
_0-0_
  6
Continuous
 62
     6
100
AcDbCircle
 10
33067.64262431377
 20
13854.20536724912
 30
0.0
 40
50.00000064437454
  0
CIRCLE
  5
3B6
330
22
100
AcDbEntity
  8
_0-3_
  6
Continuous
 62
     6
100
AcDbCircle
 10
9611.218426678632
 20
13756.45921411356
 30
0.0
 40
50.00000064437454
  0
CIRCLE
  5
3B7
330
22
100
AcDbEntity
  8
_0-0_
  6
Continuous
 62
     7
100
AcDbCircle
 10
33287.27268528294
 20
13302.68179778122
 30
0.0
 40
10.00000012887491
  0
ARC
  5
3B8
330
22
100
AcDbEntity
  8
_0-3_
  6
Continuous
 62
     6
100
AcDbCircle
 10
9067.573341163429
 20
13494.37590277488
 30
0.0
 40
50.07278758126337
100
AcDbArc
 50
179.5972442626953
 51
0.2555236816406818
  0
ARC
  5
3B9
330
22
100
AcDbEntity
  8
_0-3_
  6
Continuous
 62
     6
100
AcDbCircle
 10
9524.807491817993
 20
13633.60657937433
 30
0.0
 40
50.00024711763535
100
AcDbArc
 50
324.3702850341797
 51
144.3702850341797
  0
ARC
  5
3BA
330
22
100
AcDbEntity
  8
_0-3_
  6
Continuous
 62
     6
100
AcDbCircle
 10
9408.29797693201
 20
13471.04727629684
 30
0.0
 40
50.00024711763535
100
AcDbArc
 50
144.3706512451172
 51
324.3706512451173
  0
CIRCLE
  5
3BB
330
22
100
AcDbEntity
  8
_0-3_
  6
Continuous
 62
     6
100
AcDbCircle
 10
17611.21760187922
 20
13756.46045131268
 30
0.0
 40
50.00000064437454
  0
ARC
  5
3BC
330
22
100
AcDbEntity
  8
_0-3_
  6
Continuous
 62
     6
100
AcDbCircle
 10
17524.80666701858
 20
13633.60781657344
 30
0.0
 40
50.00024711763535
100
AcDbArc
 50
324.3702850341797
 51
144.3702850341797
  0
ARC
  5
3BD
330
22
100
AcDbEntity
  8
_0-3_
  6
Continuous
 62
     6
100
AcDbCircle
 10
17408.2971521326
 20
13471.04851349596
 30
0.0
 40
50.00024711763535
100
AcDbArc
 50
144.3706512451172
 51
324.3706512451173
  0
CIRCLE
  5
3BE
330
22
100
AcDbEntity
  8
_0-3_
  6
Continuous
 62
     6
100
AcDbCircle
 10
16523.92495645059
 20
13756.45921411356
 30
0.0
 40
50.00000064437454
  0
ARC
  5
3BF
330
22
100
AcDbEntity
  8
_0-3_
  6
Continuous
 62
     6
100
AcDbCircle
 10
16610.33589131123
 20
13633.60657937433
 30
0.0
 40
50.00024711763535
100
AcDbArc
 50
35.62971496582033
 51
215.6297149658203
  0
ARC
  5
3C0
330
22
100
AcDbEntity
  8
_0-3_
  6
Continuous
 62
     6
100
AcDbCircle
 10
16726.84293179898
 20
13471.04727629684
 30
0.0
 40
50.00024711763535
100
AcDbArc
 50
215.6291351318359
 51
35.62913513183591
  0
CIRCLE
  5
3C1
330
22
100
AcDbEntity
  8
_0-3_
  6
Continuous
 62
     6
100
AcDbCircle
 10
24523.92413165118
 20
13756.45921411356
 30
0.0
 40
50.00000064437454
  0
ARC
  5
3C2
330
22
100
AcDbEntity
  8
_0-3_
  6
Continuous
 62
     6
100
AcDbCircle
 10
24610.33506651183
 20
13633.60657937433
 30
0.0
 40
50.00024711763535
100
AcDbArc
 50
35.62971496582033
 51
215.6297149658203
  0
ARC
  5
3C3
330
22
100
AcDbEntity
  8
_0-3_
  6
Continuous
 62
     6
100
AcDbCircle
 10
24726.84210699958
 20
13471.04727629684
 30
0.0
 40
50.00024711763535
100
AcDbArc
 50
215.6291351318359
 51
35.62913513183591
  0
CIRCLE
  5
3C4
330
22
100
AcDbEntity
  8
_0-3_
  6
Continuous
 62
     6
100
AcDbCircle
 10
32523.92330685177
 20
13756.45921411356
 30
0.0
 40
50.00000064437454
  0
ARC
  5
3C5
330
22
100
AcDbEntity
  8
_0-3_
  6
Continuous
 62
     6
100
AcDbCircle
 10
32610.33424171241
 20
13633.60657937433
 30
0.0
 40
50.00024711763535
100
AcDbArc
 50
35.62971496582033
 51
215.6297149658203
  0
ARC
  5
3C6
330
22
100
AcDbEntity
  8
_0-3_
  6
Continuous
 62
     6
100
AcDbCircle
 10
32726.8437565984
 20
13471.04727629684
 30
0.0
 40
50.00024711763535
100
AcDbArc
 50
215.6291351318359
 51
35.62913513183591
  0
CIRCLE
  5
3C7
330
22
100
AcDbEntity
  8
_0-3_
  6
Continuous
 62
     6
100
AcDbCircle
 10
33611.19368269636
 20
13756.46045131268
 30
0.0
 40
50.00000064437454
  0
ARC
  5
3C8
330
22
100
AcDbEntity
  8
_0-3_
  6
Continuous
 62
     6
100
AcDbCircle
 10
33524.78274783574
 20
13633.60781657344
 30
0.0
 40
50.00024711763535
100
AcDbArc
 50
324.3702850341797
 51
144.3702850341797
  0
ARC
  5
3C9
330
22
100
AcDbEntity
  8
_0-3_
  6
Continuous
 62
     6
100
AcDbCircle
 10
33408.27570734798
 20
13471.04851349596
 30
0.0
 40
50.00024711763535
100
AcDbArc
 50
144.3706512451172
 51
324.3706512451173
  0
CIRCLE
  5
3CA
330
22
100
AcDbEntity
  8
_0-3_
  6
Continuous
 62
     6
100
AcDbCircle
 10
25611.21677707982
 20
13756.46045131268
 30
0.0
 40
50.00000064437454
  0
ARC
  5
3CB
330
22
100
AcDbEntity
  8
_0-3_
  6
Continuous
 62
     6
100
AcDbCircle
 10
25524.80584221917
 20
13633.60781657344
 30
0.0
 40
50.00024711763535
100
AcDbArc
 50
324.3702850341797
 51
144.3702850341797
  0
ARC
  5
3CC
330
22
100
AcDbEntity
  8
_0-3_
  6
Continuous
 62
     6
100
AcDbCircle
 10
25408.29880173142
 20
13471.04851349596
 30
0.0
 40
50.00024711763535
100
AcDbArc
 50
144.3706512451172
 51
324.3706512451173
  0
ARC
  5
3CD
330
22
100
AcDbEntity
  8
_0-0_
  6
Continuous
 62
     6
100
AcDbCircle
 10
9110.82582216005
 20
23891.15761796175
 30
0.0
 40
68.31585877650494
100
AcDbArc
 50
182.4142456054686
 51
230.7162933349609
  0
ARC
  5
3CE
330
22
100
AcDbEntity
  8
_0-0_
  6
Continuous
 62
     6
100
AcDbCircle
 10
9024.315911370356
 20
23891.15761796175
 30
0.0
 40
68.31585877650494
100
AcDbArc
 50
309.2837066650391
 51
357.5857543945312
  0
ARC
  5
3CF
330
22
100
AcDbEntity
  8
_0-0_
  6
Continuous
 62
     6
100
AcDbCircle
 10
17110.82499736064
 20
23891.15761796175
 30
0.0
 40
68.31585877650494
100
AcDbArc
 50
182.4142456054686
 51
230.7162933349609
  0
ARC
  5
3D0
330
22
100
AcDbEntity
  8
_0-0_
  6
Continuous
 62
     6
100
AcDbCircle
 10
17024.31508657094
 20
23891.15761796175
 30
0.0
 40
68.31585877650494
100
AcDbArc
 50
309.2837066650391
 51
357.5857543945312
  0
ARC
  5
3D1
330
22
100
AcDbEntity
  8
_0-0_
  6
Continuous
 62
     6
100
AcDbCircle
 10
25110.82664695946
 20
23879.71600056311
 30
0.0
 40
68.31585877650494
100
AcDbArc
 50
182.4142456054686
 51
230.7162933349609
  0
ARC
  5
3D2
330
22
100
AcDbEntity
  8
_0-0_
  6
Continuous
 62
     6
100
AcDbCircle
 10
25024.31673616977
 20
23879.71600056311
 30
0.0
 40
68.31585877650494
100
AcDbArc
 50
309.2837066650391
 51
357.5857543945312
  0
ARC
  5
3D3
330
22
100
AcDbEntity
  8
_0-0_
  6
Continuous
 62
     6
100
AcDbCircle
 10
33110.82334776183
 20
23879.60217824469
 30
0.0
 40
68.31585877650494
100
AcDbArc
 50
182.4142456054686
 51
230.7162933349609
  0
ARC
  5
3D4
330
22
100
AcDbEntity
  8
_0-0_
  6
Continuous
 62
     6
100
AcDbCircle
 10
33024.31343697213
 20
23879.60217824469
 30
0.0
 40
68.31585877650494
100
AcDbArc
 50
309.2837066650391
 51
357.5857543945312
  0
CIRCLE
  5
3D5
330
22
100
AcDbEntity
  8
_0-9_
  6
Continuous
 62
     4
100
AcDbCircle
 10
8490.212105415963
 20
24402.93987751623
 30
0.0
 40
300.0000038662473
  0
CIRCLE
  5
3D6
330
22
100
AcDbEntity
  8
_0-9_
  6
Continuous
 62
     4
100
AcDbCircle
 10
8502.000138566302
 20
20652.5142810213
 30
0.0
 40
300.0000038662473
  0
CIRCLE
  5
3D7
330
22
100
AcDbEntity
  8
_0-9_
  6
Continuous
 62
     4
100
AcDbCircle
 10
8444.15860562711
 20
13609.86349119338
 30
0.0
 40
300.0000038662473
  0
CIRCLE
  5
3D8
330
22
100
AcDbEntity
  8
_0-9_
  6
Continuous
 62
     4
100
AcDbCircle
 10
8502.000138566302
 20
17102.51370366171
 30
0.0
 40
300.0000038662473
  0
TEXT
  5
3D9
330
22
100
AcDbEntity
  8
_0-0_
 62
     4
100
AcDbText
 10
5017.569877005911
 20
11290.44527995235
 30
0.0
 40
250.0
  1
3,000
 50
90.0
100
AcDbText
  0
TEXT
  5
3DA
330
22
100
AcDbEntity
  8
_0-0_
 62
     4
100
AcDbText
 10
4486.930228568411
 20
16790.46981773477
 30
0.0
 40
250.0
  1
14,000
 50
90.0
100
AcDbText
  0
TEXT
  5
3DB
330
22
100
AcDbEntity
  8
_0-0_
 62
     4
100
AcDbText
 10
4992.217192778716
 20
18290.46981773477
 30
0.0
 40
250.0
  1
11,000
 50
90.0
100
AcDbText
  0
TEXT
  5
3DC
330
22
100
AcDbEntity
  8
_0-9_
 62
     4
100
AcDbText
 10
5435.569969383445
 20
18259.424574188
 30
0.0
 40
250.0
  1
3,550
 50
90.0
100
AcDbText
  0
TEXT
  5
3DD
330
22
100
AcDbEntity
  8
_0-9_
 62
     4
100
AcDbText
 10
5435.569969383445
 20
13137.21487058791
 30
0.0
 40
250.0
  1
50
 50
90.0
100
AcDbText
  0
TEXT
  5
3DE
330
22
100
AcDbEntity
  8
_0-9_
 62
     4
100
AcDbText
 10
5440.21194045608
 20
11102.9431148539
 30
0.0
 40
250.0
  1
2,600
 50
90.0
100
AcDbText
  0
TEXT
  5
3DF
330
22
100
AcDbEntity
  8
_0-9_
 62
     4
100
AcDbText
 10
5435.569969383445
 20
12671.21908201369
 30
0.0
 40
250.0
  1
400
 50
90.0
100
AcDbText
  0
TEXT
  5
3E0
330
22
100
AcDbEntity
  8
_0-9_
 62
     4
100
AcDbText
 10
5440.21194045608
 20
23742.6491852126
 30
0.0
 40
250.0
  1
200
 50
90.0
100
AcDbText
  0
TEXT
  5
3E1
330
22
100
AcDbEntity
  8
_0-9_
 62
     4
100
AcDbText
 10
5440.21194045608
 20
21842.64889653281
 30
0.0
 40
250.0
  1
3,550
 50
90.0
100
AcDbText
  0
TEXT
  5
3E2
330
22
100
AcDbEntity
  8
_0-9_
 62
     4
100
AcDbText
 10
5451.21311497044
 20
14564.28569446354
 30
0.0
 40
250.0
  1
3,650
 50
90.0
100
AcDbText
  0
TEXT
  5
3E3
330
22
100
AcDbEntity
  8
_0-F_
 62
     4
100
AcDbText
 10
6628.808820569837
 20
13359.07333335976
 30
0.0
 40
250.0
  1
ＧＬ
100
AcDbText
  0
TEXT
  5
3E4
330
22
100
AcDbEntity
  8
_0-F_
 62
     7
100
AcDbText
 10
38705.25232263513
 20
24824.07750684478
 30
0.0
 40
300.0
  1
ﾊﾞﾝﾄﾞ
100
AcDbText
  0
TEXT
  5
3E5
330
22
100
AcDbEntity
  8
_0-F_
 62
     7
100
AcDbText
 10
38732.97300596495
 20
21274.33302970162
 30
0.0
 40
300.0
  1
ﾊﾞﾝﾄﾞ
100
AcDbText
  0
TEXT
  5
3E6
330
22
100
AcDbEntity
  8
_0-F_
 62
     7
100
AcDbText
 10
38762.48267921241
 20
17724.48462783295
 30
0.0
 40
300.0
  1
ﾊﾞﾝﾄﾞ
100
AcDbText
  0
TEXT
  5
3E7
330
22
100
AcDbEntity
  8
_0-F_
 62
     7
100
AcDbText
 10
10151.60448228991
 20
24783.3934512071
 30
0.0
 40
300.0
  1
ｼﾞｮｲﾝﾄﾋﾞｰﾑ
100
AcDbText
  0
TEXT
  5
3E8
330
22
100
AcDbEntity
  8
_0-F_
 62
     7
100
AcDbText
 10
10272.76384508288
 20
11958.06410880318
 30
0.0
 40
300.0
  1
ﾈｶｾ
100
AcDbText
  0
TEXT
  5
3E9
330
22
100
AcDbEntity
  8
_0-F_
 62
     7
100
AcDbText
 10
38793.25182115709
 20
14124.68183737159
 30
0.0
 40
300.0
  1
ﾊﾞﾝﾄﾞ
100
AcDbText
  0
TEXT
  5
3EA
330
22
100
AcDbEntity
  8
_0-9_
 62
     7
100
AcDbText
 10
8340.212105415963
 20
24252.93938263658
 30
0.0
 40
300.0
  1
Ａ
100
AcDbText
  0
TEXT
  5
3EB
330
22
100
AcDbEntity
  8
_0-9_
 62
     7
100
AcDbText
 10
8352.000138566301
 20
20502.51378614165
 30
0.0
 40
300.0
  1
Ｂ
100
AcDbText
  0
TEXT
  5
3EC
330
22
100
AcDbEntity
  8
_0-9_
 62
     7
100
AcDbText
 10
8294.15860562711
 20
13459.86299631373
 30
0.0
 40
300.0
  1
Ｃ
100
AcDbText
  0
TEXT
  5
3ED
330
22
100
AcDbEntity
  8
_0-9_
 62
     7
100
AcDbText
 10
8352.000138566301
 20
16952.51320878206
 30
0.0
 40
300.0
  1
Ｂ
100
AcDbText
  0
POINT
  5
3EE
330
22
100
AcDbEntity
  8
_0-0_
 62
     4
100
AcDbPoint
 10
4567.570866765203
 20
24102.93888775693
 30
0.0
  0
POINT
  5
3EF
330
22
100
AcDbEntity
  8
_0-0_
 62
     4
100
AcDbPoint
 10
4567.570866765203
 20
10102.9446613528
 30
0.0
  0
POINT
  5
3F0
330
22
100
AcDbEntity
  8
_0-0_
 62
     4
100
AcDbPoint
 10
5067.570041965794
 20
10102.9446613528
 30
0.0
  0
POINT
  5
3F1
330
22
100
AcDbEntity
  8
_0-0_
 62
     4
100
AcDbPoint
 10
5067.570041965794
 20
13102.94589855191
 30
0.0
  0
POINT
  5
3F2
330
22
100
AcDbEntity
  8
_0-0_
 62
     4
100
AcDbPoint
 10
5067.570041965794
 20
24102.93888775693
 30
0.0
  0
POINT
  5
3F3
330
22
100
AcDbEntity
  8
_0-0_
 62
     4
100
AcDbPoint
 10
9067.575815561658
 20
7702.043485518763
 30
0.0
  0
POINT
  5
3F4
330
22
100
AcDbEntity
  8
_0-0_
 62
     4
100
AcDbPoint
 10
17067.57004196579
 20
7702.043485518763
 30
0.0
  0
POINT
  5
3F5
330
22
100
AcDbEntity
  8
_0-0_
 62
     4
100
AcDbPoint
 10
25067.57169156461
 20
7702.043485518763
 30
0.0
  0
POINT
  5
3F6
330
22
100
AcDbEntity
  8
_0-0_
 62
     4
100
AcDbPoint
 10
33067.56839236699
 20
7702.043485518763
 30
0.0
  0
POINT
  5
3F7
330
22
100
AcDbEntity
  8
_0-9_
 62
     4
100
AcDbPoint
 10
5490.212105415963
 20
24102.93888775693
 30
0.0
  0
POINT
  5
3F8
330
22
100
AcDbEntity
  8
_0-9_
 62
     4
100
AcDbPoint
 10
5490.212105415963
 20
23902.93822791741
 30
0.0
  0
POINT
  5
3F9
330
22
100
AcDbEntity
  8
_0-9_
 62
     4
100
AcDbPoint
 10
5490.056218327705
 20
20352.74588469528
 30
0.0
  0
POINT
  5
3FA
330
22
100
AcDbEntity
  8
_0-9_
 62
     4
100
AcDbPoint
 10
5490.504084406672
 20
16801.86813316445
 30
0.0
  0
POINT
  5
3FB
330
22
100
AcDbEntity
  8
_0-9_
 62
     4
100
AcDbPoint
 10
5490.212105415963
 20
13202.94127967522
 30
0.0
  0
POINT
  5
3FC
330
22
100
AcDbEntity
  8
_0-9_
 62
     4
100
AcDbPoint
 10
5490.212105415963
 20
13102.94094975546
 30
0.0
  0
POINT
  5
3FD
330
22
100
AcDbEntity
  8
_0-9_
 62
     4
100
AcDbPoint
 10
5490.212105415963
 20
12702.94086727552
 30
0.0
  0
POINT
  5
3FE
330
22
100
AcDbEntity
  8
_0-9_
 62
     4
100
AcDbPoint
 10
5490.212105415963
 20
10102.94342415368
 30
0.0
  0
LINE
  5
3FF
330
22
100
AcDbEntity
  8
_0-F_
  6
Continuous
 62
     4
100
AcDbLine
 10
31533.93389727618
 20
23774.7074886332
 30
0.0
 11
32976.31857920229
 21
26272.99071403359
 31
0.0
  0
LINE
  5
400
330
22
100
AcDbEntity
  8
_0-F_
  6
Continuous
 62
     4
100
AcDbLine
 10
33663.54062180154
 20
26272.99071403359
 30
0.0
 11
32976.31857920229
 21
26272.99071403359
 31
0.0
  0
LINE
  5
401
330
22
100
AcDbEntity
  8
_0-F_
  6
Continuous
 62
     4
100
AcDbLine
 10
33663.54062180154
 20
25464.28430265356
 30
0.0
 11
33845.94583585348
 21
25464.28430265356
 31
0.0
  0
TEXT
  5
402
330
22
100
AcDbEntity
  8
_0-F_
 62
     7
100
AcDbText
 10
33729.54087377928
 20
25498.69250281885
 30
0.0
 40
300.0
  1
（KSP-24 37.5㎜目 ｽｰﾊﾟｰﾎﾟﾘｴﾁﾚﾝ）
100
AcDbText
  0
TEXT
  5
403
330
22
100
AcDbEntity
  8
_0-F_
 62
     7
100
AcDbText
 10
33729.54087377928
 20
25920.19295484372
 30
0.0
 40
300.0
  1
（KRP-40 1800D/18本×40㎜目 ｴｺﾛﾈｯﾄ）
100
AcDbText
  0
TEXT
  5
404
330
22
100
AcDbEntity
  8
_0-0_
 62
     7
100
AcDbText
 10
7922.257992062611
 20
21451.01005381401
 30
0.0
 40
300.0
  1
PC　POLE
 50
90.0
100
AcDbText
  0
TEXT
  5
405
330
22
100
AcDbEntity
  8
_0-0_
 62
     7
100
AcDbText
 10
8308.535992400374
 20
21257.87105364512
 30
0.0
 40
300.0
  1
14-19-1000
 50
90.0
100
AcDbText
  0
TEXT
  5
406
330
22
100
AcDbEntity
  8
_0-0_
 62
     4
100
AcDbText
 10
12400.04157572029
 20
7327.626838336819
 30
0.0
 40
250.0
  1
（10,500）
100
AcDbText
  0
TEXT
  5
407
330
22
100
AcDbEntity
  8
_0-0_
 62
     4
100
AcDbText
 10
20820.54184153624
 20
7752.043650478643
 30
0.0
 40
250.0
  1
7,500
100
AcDbText
  0
TEXT
  5
408
330
22
100
AcDbEntity
  8
_0-0_
 62
     4
100
AcDbText
 10
20465.51110709236
 20
7327.626838336819
 30
0.0
 40
250.0
  1
（10,500）
100
AcDbText
  0
TEXT
  5
409
330
22
100
AcDbEntity
  8
_0-0_
 62
     4
100
AcDbText
 10
28805.35257741188
 20
7752.043650478643
 30
0.0
 40
250.0
  1
7,500
100
AcDbText
  0
TEXT
  5
40A
330
22
100
AcDbEntity
  8
_0-0_
 62
     4
100
AcDbText
 10
28450.321842968
 20
7327.626838336819
 30
0.0
 40
250.0
  1
（10,500）
100
AcDbText
  0
TEXT
  5
40B
330
22
100
AcDbEntity
  8
_0-F_
 62
     7
100
AcDbText
 10
11120.27744602513
 20
22791.80475557789
 30
0.0
 40
300.0
  1
ﾌﾞﾚｰｽﾜｲﾔｰ　55m㎡
100
AcDbText
  0
TEXT
  5
40C
330
22
100
AcDbEntity
  8
_0-F_
 62
     7
100
AcDbText
 10
21541.03690482475
 20
24487.03230123877
 30
0.0
 40
300.0
  1
横ﾜｲﾔｰ 38m㎡
100
AcDbText
  0
TEXT
  5
40D
330
22
100
AcDbEntity
  8
_0-F_
 62
     7
100
AcDbText
 10
21541.03690482475
 20
20933.12341188067
 30
0.0
 40
300.0
  1
横ﾜｲﾔｰ 38m㎡
100
AcDbText
  0
TEXT
  5
40E
330
22
100
AcDbEntity
  8
_0-F_
 62
     7
100
AcDbText
 10
21541.03690482475
 20
17383.1240717202
 30
0.0
 40
300.0
  1
横ﾜｲﾔｰ 38m㎡
100
AcDbText
  0
TEXT
  5
40F
330
22
100
AcDbEntity
  8
_0-F_
 62
     7
100
AcDbText
 10
21541.03690482475
 20
13783.3175696615
 30
0.0
 40
300.0
  1
横ﾜｲﾔｰ 38m㎡
100
AcDbText
  0
LINE
  5
410
330
22
100
AcDbEntity
  8
_0-F_
  6
Continuous
 62
     4
100
AcDbLine
 10
26369.130815182
 20
23914.01115998033
 30
0.0
 11
26769.13213486105
 21
24606.83029136758
 31
0.0
  0
LINE
  5
411
330
22
100
AcDbEntity
  8
_0-F_
  6
Continuous
 62
     4
100
AcDbLine
 10
26369.130815182
 20
23914.01115998033
 30
0.0
 11
26369.130815182
 21
24014.01148990009
 31
0.0
  0
TEXT
  5
412
330
22
100
AcDbEntity
  8
_0-F_
 62
     7
100
AcDbText
 10
17759.17655326225
 20
21544.46432127151
 30
0.0
 40
300.0
  1
縦ﾜｲﾔｰ 38m㎡
100
AcDbText
  0
TEXT
  5
413
330
22
100
AcDbEntity
  8
_0-F_
 62
     7
100
AcDbText
 10
33919.17523896263
 20
26790.24386806652
 30
0.0
 40
300.0
  1
NET
100
AcDbText
  0
TEXT
  5
414
330
22
100
AcDbEntity
  8
_0-F_
 62
     7
100
AcDbText
 10
33902.0699714637
 20
26343.14485254709
 30
0.0
 40
300.0
  1
ｸﾚﾓﾅ250D/80本×37.5㎜目
100
AcDbText
  0
LINE
  5
415
330
22
100
AcDbEntity
  8
_0-F_
  6
Continuous
 62
     4
100
AcDbLine
 10
33663.54062180154
 20
26679.89560476416
 30
0.0
 11
33845.94583585348
 21
26679.89560476416
 31
0.0
  0
LINE
  5
416
330
22
100
AcDbEntity
  8
_0-F_
  6
Continuous
 62
     4
100
AcDbLine
 10
33663.54062180154
 20
26679.89560476416
 30
0.0
 11
33663.54062180154
 21
25464.28430265356
 31
0.0
  0
TEXT
  5
417
330
22
100
AcDbEntity
  8
_0-F_
 62
     7
100
AcDbText
 10
4837.045428454766
 20
6693.940654464782
 30
0.0
 40
400.0
  1
設計条件
100
AcDbText
  0
TEXT
  5
418
330
22
100
AcDbEntity
  8
_0-F_
 62
     7
100
AcDbText
 10
5837.045428454766
 20
5243.940654464781
 30
0.0
 40
300.0
  1
基準風速・・・３４ｍ／ｓｅｃ
100
AcDbText
  0
TEXT
  5
419
330
22
100
AcDbEntity
  8
_0-F_
 62
     7
100
AcDbText
 10
5837.045428454766
 20
4743.940654464781
 30
0.0
 40
300.0
  1
地表面粗度区分・・・Ⅲ
100
AcDbText
  0
TEXT
  5
41A
330
22
100
AcDbEntity
  8
_0-F_
 62
     7
100
AcDbText
 10
5837.045428454766
 20
4243.940654464781
 30
0.0
 40
300.0
  1
基礎　普通土質（Ｂ）を選定
100
AcDbText
  0
TEXT
  5
41B
330
22
100
AcDbEntity
  8
_0-F_
 62
     7
100
AcDbText
 10
5337.045428454766
 20
6243.940654464782
 30
0.0
 40
300.0
  1
・設計荷重　建築基準法・同施工令
100
AcDbText
  0
TEXT
  5
41C
330
22
100
AcDbEntity
  8
_0-F_
 62
     7
100
AcDbText
 10
5576.503306977404
 20
5743.940654464782
 30
0.0
 40
300.0
  1
（平成１２年６月）に基づく風圧力による。
100
AcDbText
  0
TEXT
  5
41D
330
22
100
AcDbEntity
  8
_0-F_
 62
     7
100
AcDbText
 10
26855.15260968157
 20
24656.5236309474
 30
0.0
 40
300.0
  1
ﾎﾟﾘﾛｰﾌﾟ4φにてかがりどめ
100
AcDbText
  0
LINE
  5
41E
330
22
100
AcDbEntity
  8
_0-F_
  6
Continuous
 62
     4
100
AcDbLine
 10
26769.13213486105
 20
24606.83029136758
 30
0.0
 11
31195.17526252696
 21
24606.83029136758
 31
0.0
  0
TEXT
  5
41F
330
22
100
AcDbEntity
  8
_0-F_
 62
     7
100
AcDbText
 10
17766.71868401605
 20
23168.81644133591
 30
0.0
 40
300.0
  1
ﾎﾟﾘﾛｰﾌﾟ6φ押え
100
AcDbText
  0
ENDSEC
  0
SECTION
  2
OBJECTS
  0
DICTIONARY
  5
C
330
0
100
AcDbDictionary
281
     1
  3
ACAD_COLOR
350
1B
  3
ACAD_GROUP
350
D
  3
ACAD_LAYOUT
350
19
  3
ACAD_MATERIAL
350
1A
  3
ACAD_MLINESTYLE
350
16
  3
ACAD_PLOTSETTINGS
350
18
  3
ACAD_PLOTSTYLENAME
350
E
  3
ACAD_TABLESTYLE
350
1C
  3
ACDBHEADERROUNDTRIPXREC
350
9F3
  3
AcDbVariableDictionary
350
70A
  3
ADE_QUERY_LIBRARY
350
708
  3
AEC_VARS
350
447
  3
ASE_INDEX_DICTIONARY
350
704
  3
Autodesk_MAP
350
449
  3
Root
350
719
1001
ADE
1000
ADE02C004
1000
[Query]
1000
CaseSensitiveMatch=0
1000
SaveCurrQueryInSession=1
1000
MkSelSetWithQryObj=0
1000
ShowBlockAsInsPt=0
1000
CreateAssociativeHatchObjects=0
1000
ReferenceBoundaryForAreaLocation=1
1000
ShowImageAsBoundary=1
1000
DefaultJoinOperator=2
1000
ColorForAdd=red
1000
ColorForRemove=red
1000
BlockLocnForQuery=1
1000
TextLocnForQuery=1
1000
IncludeAllObjectsInGroups=0
1000
AlwaysUseLibraryDefinitions=0
1000
PreviewDefinitionsFrom=2
1000
[Save Back]
1000
RedefineBlockDefinitions=1
1000
RedefineLayerDefinitions=1
1000
RedefineTextStyleDefinitions=1
1000
RemoveUnusedGroups=1
1000
EraseSavedBackObjects=1
1000
RemoveLockAfterSave=1
1000
CreateHistoryFileOfChanges=0
1000
CreateBackupFileOfSourceDwg=1
1000
DontAddObjectsToSaveSet=0
1000
MarkObjectsForEditingWithoutPrompting=0
1000
[Coordinate Transformation]
1000
RestoreLastActiveDwgsOnStartup=1
1000
ActivateDwgsOnAttach=1
1000
AdjustSizesAndScalesForChangesInUnits=1
1000
AdjustRotationsForMapDistortions=1
1000
AdjustSizesAndScalesForMapDistortions=1
1000
AdjustElevations=1
1000
AdjustZeroRotationObjects=1
1000
ReconnectDbOnWSOpen=1
1000
NoOfSQLConditionsInHistory=10
  0
DICTIONARY
  5
1B
102
{ACAD_REACTORS
330
C
102
}
330
C
100
AcDbDictionary
281
     1
  0
DICTIONARY
  5
D
102
{ACAD_REACTORS
330
C
102
}
330
C
100
AcDbDictionary
281
     1
  0
DICTIONARY
  5
19
102
{ACAD_REACTORS
330
C
102
}
330
C
100
AcDbDictionary
281
     1
  3
Model
350
25
  3
レイアウト1
350
21
  0
DICTIONARY
  5
1A
102
{ACAD_REACTORS
330
C
102
}
330
C
100
AcDbDictionary
281
     1
  0
DICTIONARY
  5
16
102
{ACAD_REACTORS
330
C
102
}
330
C
100
AcDbDictionary
281
     1
  3
Standard
350
17
  0
DICTIONARY
  5
18
102
{ACAD_REACTORS
330
C
102
}
330
C
100
AcDbDictionary
281
     1
  0
ACDBDICTIONARYWDFLT
  5
E
102
{ACAD_REACTORS
330
C
102
}
330
C
100
AcDbDictionary
281
     1
  3
Normal
350
F
100
AcDbDictionaryWithDefault
340
F
  0
DICTIONARY
  5
1C
102
{ACAD_REACTORS
330
C
102
}
330
C
100
AcDbDictionary
281
     1
  3
Legend
350
44D
  3
Standard
350
1D
  0
DICTIONARY
  5
9F3
102
{ACAD_REACTORS
330
C
102
}
330
C
100
AcDbDictionary
281
     1
  0
DICTIONARY
  5
70A
102
{ACAD_REACTORS
330
C
102
}
330
C
100
AcDbDictionary
281
     1
  3
CTABLESTYLE
350
70B
  3
DIMASSOC
350
70C
  3
PROJECTNAME
350
70D
  0
DICTIONARY
  5
708
102
{ACAD_REACTORS
330
C
102
}
330
C
100
AcDbDictionary
281
     1
  3
_CurrQry
350
9F1
  0
DICTIONARY
  5
447
102
{ACAD_REACTORS
330
C
102
}
330
C
100
AcDbDictionary
281
     1
  3
AEC_VARS_DWG_SETUP
350
73E
  0
DICTIONARY
  5
704
102
{ACAD_REACTORS
330
C
102
}
330
C
100
AcDbDictionary
281
     1
  3
ASEBlockHierarchyIndexRecord
350
706
1001
DCO15
1040
1621942778.531
  0
DICTIONARY
  5
449
102
{ACAD_REACTORS
330
C
102
}
330
C
100
AcDbDictionary
281
     1
  3
MAP_DISPLAY_MANAGEMENT_DICTIONARY
350
44A
  3
MAP_DISPLAY_STYLELIBRARY_DICTIONARY
350
44B
  0
LAYOUT
  5
25
102
{ACAD_XDICTIONARY
360
9F6
102
}
102
{ACAD_REACTORS
330
19
102
}
330
19
100
AcDbPlotSettings
  1

  2
DCColor a450_newosk
  4

  6

 40
0.0
 41
0.0
 42
0.0
 43
0.0
 44
0.0
 45
0.0
 46
0.0
 47
0.0
 48
0.0
 49
0.0
140
0.0
141
0.0
142
1.0
143
1.0
 70
  1712
 72
     0
 73
     0
 74
     0
  7

 75
     0
147
1.0
148
0.0
149
0.0
100
AcDbLayout
  1
Model
 70
     1
 71
     0
 10
0.0
 20
0.0
 11
12.0
 21
9.0
 12
0.0
 22
0.0
 32
0.0
 14
0.0
 24
0.0
 34
0.0
 15
0.0
 25
0.0
 35
0.0
146
0.0
 13
0.0
 23
0.0
 33
0.0
 16
1.0
 26
0.0
 36
0.0
 17
0.0
 27
1.0
 37
0.0
 76
     0
330
22
  0
LAYOUT
  5
21
102
{ACAD_XDICTIONARY
360
9F4
102
}
102
{ACAD_REACTORS
330
19
102
}
330
19
100
AcDbPlotSettings
  1

  2
DCColor a450_newosk
  4

  6

 40
0.0
 41
0.0
 42
0.0
 43
0.0
 44
0.0
 45
0.0
 46
0.0
 47
0.0
 48
0.0
 49
0.0
140
0.0
141
0.0
142
1.0
143
1.0
 70
   688
 72
     0
 73
     0
 74
     5
  7

 75
    16
147
1.0
148
0.0
149
0.0
100
AcDbLayout
  1
レイアウト1
 70
     1
 71
     1
 10
0.0
 20
0.0
 11
12.0
 21
9.0
 12
0.0
 22
0.0
 32
0.0
 14
1.000000000000000E+20
 24
1.000000000000000E+20
 34
1.000000000000000E+20
 15
-1.000000000000000E+20
 25
-1.000000000000000E+20
 35
-1.000000000000000E+20
146
0.0
 13
0.0
 23
0.0
 33
0.0
 16
1.0
 26
0.0
 36
0.0
 17
0.0
 27
1.0
 37
0.0
 76
     0
330
1E
  0
MLINESTYLE
  5
17
102
{ACAD_REACTORS
330
16
102
}
330
16
100
AcDbMlineStyle
  2
STANDARD
 70
     0
  3

 62
   256
 51
90.0
 52
90.0
 71
     2
 49
0.5
 62
   256
  6
BYLAYER
 49
-0.5
 62
   256
  6
BYLAYER
  0
ACDBPLACEHOLDER
  5
F
102
{ACAD_REACTORS
330
E
102
}
330
E
  0
TABLESTYLE
  5
44D
102
{ACAD_REACTORS
330
1C
102
}
330
1C
100
AcDbTableStyle
  3

 70
     0
 71
     1
 40
0.06
 41
0.06
280
     0
281
     0
  7
STANDARD
140
0.4
170
     4
 62
     0
 63
     7
283
     0
274
    -2
284
     0
 64
     0
275
    -2
285
     0
 65
     0
276
    -2
286
     1
 66
     0
277
    -2
287
     1
 67
     0
278
    -2
288
     0
 68
     0
279
    -2
289
     1
 69
     0
  7
STANDARD
140
0.5
170
     5
 62
     0
 63
     7
283
     0
274
    -2
284
     1
 64
     0
275
    -2
285
     0
 65
     0
276
    -2
286
     1
 66
     0
277
    -2
287
     1
 67
     0
278
    -2
288
     0
 68
     0
279
    -2
289
     1
 69
     0
  7
STANDARD
140
0.4
170
     4
 62
     0
 63
     7
283
     0
274
    -2
284
     1
 64
     0
275
    -2
285
     0
 65
     0
276
    -2
286
     1
 66
     0
277
    -2
287
     1
 67
     0
278
    -2
288
     0
 68
     0
279
    -2
289
     1
 69
     0
  0
TABLESTYLE
  5
1D
102
{ACAD_REACTORS
330
1C
102
}
330
1C
100
AcDbTableStyle
  3
Standard
 70
     0
 71
     0
 40
0.06
 41
0.06
280
     0
281
     0
  7
STANDARD
140
0.18
170
     2
 62
     0
 63
     7
283
     0
274
    -2
284
     1
 64
     0
275
    -2
285
     1
 65
     0
276
    -2
286
     1
 66
     0
277
    -2
287
     1
 67
     0
278
    -2
288
     1
 68
     0
279
    -2
289
     1
 69
     0
  7
STANDARD
140
0.25
170
     5
 62
     0
 63
     7
283
     0
274
    -2
284
     1
 64
     0
275
    -2
285
     1
 65
     0
276
    -2
286
     1
 66
     0
277
    -2
287
     1
 67
     0
278
    -2
288
     1
 68
     0
279
    -2
289
     1
 69
     0
  7
STANDARD
140
0.18
170
     5
 62
     0
 63
     7
283
     0
274
    -2
284
     1
 64
     0
275
    -2
285
     1
 65
     0
276
    -2
286
     1
 66
     0
277
    -2
287
     1
 67
     0
278
    -2
288
     1
 68
     0
279
    -2
289
     1
 69
     0
  0
DICTIONARYVAR
  5
70B
102
{ACAD_REACTORS
330
70A
102
}
330
70A
100
DictionaryVariables
280
     0
  1
STANDARD
  0
DICTIONARYVAR
  5
70C
102
{ACAD_REACTORS
330
70A
102
}
330
70A
100
DictionaryVariables
280
     0
  1
1
  0
DICTIONARYVAR
  5
70D
102
{ACAD_REACTORS
330
70A
102
}
330
70A
100
DictionaryVariables
280
     0
  1

  0
XRECORD
  5
9F1
102
{ACAD_REACTORS
330
708
102
}
330
708
100
AcDbXrecord
280
     1
1000
ADE02C001
1070
     1
1070
     0
1002
{
1002
}
1002
{
1002
}
1002
{
1002
}
1000

  0
XRECORD
  5
706
102
{ACAD_REACTORS
330
704
102
}
330
704
100
AcDbXrecord
280
     1
  0
DMMAPMANAGER
  5
44A
102
{ACAD_REACTORS
330
449
102
}
330
449
100
AcDbDictionary
281
     1
  3
DisplayMap1
350
44C
100
AcDbDictionaryWithDefault
340
44C
100
AcMapDMMapManager
 70
     1
340
44C
  0
DMSTYLELIBRARY
  5
44B
102
{ACAD_REACTORS
330
449
102
}
330
449
100
AcMapDMStyleLibrary
 70
     1
 70
     1
360
451
  0
DICTIONARY
  5
9F6
330
25
100
AcDbDictionary
280
     1
281
     1
  3
ACAD_XREC_ROUNDTRIP
360
9F7
  0
DICTIONARY
  5
9F4
330
21
100
AcDbDictionary
280
     1
281
     1
  3
ACAD_XREC_ROUNDTRIP
360
9F5
  0
DMMAP
  5
44C
102
{ACAD_REACTORS
330
44A
330
44E
102
}
330
44A
100
AcMapDMMap
 70
     1
  1
既定値
 70
     1
330
0
100
AcMapDMMap
 70
     1
 90
        1
360
44E
 90
        1
 40
1.797693134862314E+99
 70
     1
100
AcMapDMMap
 70
     2
 70
     0
 40
1.797693134862314E+99
290
     0
290
     1
 40
1.0
 40
3.0
  1
Legend
 90
        1
 40
1.797693134862314E+99
  1

 70
     0
 40
100.0
 70
     1
 90
        0
 90
        1
360
44F
  0
DMSTYLECATEGORY
  5
451
102
{ACAD_REACTORS
330
44B
102
}
330
44B
100
AcMapDMStyleCategory
 70
     1
  1
スタイルを表示
 70
     0
  0
XRECORD
  5
9F7
102
{ACAD_REACTORS
330
9F6
102
}
330
9F6
100
AcDbXrecord
280
     1
102
SHADEPLOT
 70
     0
102
SHADEPLOTRESLEVEL
 70
     2
102
SHADEPLOTCUSTOMDPI
 70
   300
  0
XRECORD
  5
9F5
102
{ACAD_REACTORS
330
9F4
102
}
330
9F4
100
AcDbXrecord
280
     1
102
SHADEPLOT
 70
     0
102
SHADEPLOTRESLEVEL
 70
     2
102
SHADEPLOTCUSTOMDPI
 70
   300
  0
DMBASEELEMENT
  5
44E
102
{ACAD_REACTORS
330
44C
102
}
330
44C
100
AcMapDMBaseElement
 70
     1
  1
マップ ベース
 70
     1
330
44C
100
AcMapDMBaseElement
 70
     1
  1

 70
     2
  1

 70
     1
 40
1.797693134862314E+99
 70
     1
 70
     1
 70
     1
 70
     1
360
450
100
AcMapDMBaseElement
 70
     1
  0
DMDEFAULTSTYLE
  5
44F
102
{ACAD_REACTORS
330
44C
102
}
330
44C
100
AcMapDMDefaultStyle
 70
     1
 90
        1
  1
既定値
100
AcMapDMDefaultStyle
 70
     1
280
   100
 90
     0
  0
DMSTYLEREFERENCE
  5
450
330
44E
100
AcMapDMStyleReference
 70
     1
 70
     0
340
44F
330
44C
  0
ENDSEC
  0
EOF
