  0
SECTION
  2
HEADER
  9
$ACADVER
  1
AC1015
  9
$ACADMAINTVER
 70
    20
  9
$DWGCODEPAGE
  3
ANSI_932
  9
$INSBASE
 10
0.0
 20
0.0
 30
0.0
  9
$EXTMIN
 10
-7938.902481452903
 20
2137.840477195945
 30
0.0
  9
$EXTMAX
 10
39324.32927312079
 20
29734.66744655357
 30
0.0
  9
$LIMMIN
 10
0.0
 20
0.0
  9
$LIMMAX
 10
42000.0
 20
29700.0
  9
$ORTHOMODE
 70
     0
  9
$REGENMODE
 70
     1
  9
$FILLMODE
 70
     1
  9
$QTEXTMODE
 70
     0
  9
$MIRRTEXT
 70
     0
  9
$LTSCALE
 40
100.0
  9
$ATTMODE
 70
     1
  9
$TEXTSIZE
 40
0.2
  9
$TRACEWID
 40
0.05
  9
$TEXTSTYLE
  7
STANDARD
  9
$CLAYER
  8
0
  9
$CELTYPE
  6
CONTINUOUS
  9
$CECOLOR
 62
   256
  9
$CELTSCALE
 40
1.0
  9
$DISPSILH
 70
     0
  9
$DIMSCALE
 40
40.0
  9
$DIMASZ
 40
0.18
  9
$DIMEXO
 40
0.0625
  9
$DIMDLI
 40
0.38
  9
$DIMRND
 40
0.0
  9
$DIMDLE
 40
0.0
  9
$DIMEXE
 40
0.18
  9
$DIMTP
 40
0.0
  9
$DIMTM
 40
0.0
  9
$DIMTXT
 40
0.18
  9
$DIMCEN
 40
0.09
  9
$DIMTSZ
 40
0.0
  9
$DIMTOL
 70
     0
  9
$DIMLIM
 70
     0
  9
$DIMTIH
 70
     1
  9
$DIMTOH
 70
     1
  9
$DIMSE1
 70
     0
  9
$DIMSE2
 70
     0
  9
$DIMTAD
 70
     0
  9
$DIMZIN
 70
     0
  9
$DIMBLK
  1

  9
$DIMASO
 70
     1
  9
$DIMSHO
 70
     1
  9
$DIMPOST
  1

  9
$DIMAPOST
  1

  9
$DIMALT
 70
     0
  9
$DIMALTD
 70
     2
  9
$DIMALTF
 40
25.4
  9
$DIMLFAC
 40
1.0
  9
$DIMTOFL
 70
     0
  9
$DIMTVP
 40
0.0
  9
$DIMTIX
 70
     0
  9
$DIMSOXD
 70
     0
  9
$DIMSAH
 70
     0
  9
$DIMBLK1
  1

  9
$DIMBLK2
  1

  9
$DIMSTYLE
  2
Standard
  9
$DIMCLRD
 70
     0
  9
$DIMCLRE
 70
     0
  9
$DIMCLRT
 70
     0
  9
$DIMTFAC
 40
1.0
  9
$DIMGAP
 40
0.09
  9
$DIMJUST
 70
     0
  9
$DIMSD1
 70
     0
  9
$DIMSD2
 70
     0
  9
$DIMTOLJ
 70
     1
  9
$DIMTZIN
 70
     0
  9
$DIMALTZ
 70
     0
  9
$DIMALTTZ
 70
     0
  9
$DIMUPT
 70
     0
  9
$DIMDEC
 70
     4
  9
$DIMTDEC
 70
     4
  9
$DIMALTU
 70
     2
  9
$DIMALTTD
 70
     2
  9
$DIMTXSTY
  7
STANDARD
  9
$DIMAUNIT
 70
     0
  9
$DIMADEC
 70
     0
  9
$DIMALTRND
 40
0.0
  9
$DIMAZIN
 70
     0
  9
$DIMDSEP
 70
    46
  9
$DIMATFIT
 70
     3
  9
$DIMFRAC
 70
     0
  9
$DIMLDRBLK
  1

  9
$DIMLUNIT
 70
     2
  9
$DIMLWD
 70
    -2
  9
$DIMLWE
 70
    -2
  9
$DIMTMOVE
 70
     0
  9
$LUNITS
 70
     2
  9
$LUPREC
 70
     4
  9
$SKETCHINC
 40
0.1
  9
$FILLETRAD
 40
0.0
  9
$AUNITS
 70
     0
  9
$AUPREC
 70
     0
  9
$MENU
  1
.
  9
$ELEVATION
 40
0.0
  9
$PELEVATION
 40
0.0
  9
$THICKNESS
 40
0.0
  9
$LIMCHECK
 70
     0
  9
$CHAMFERA
 40
0.0
  9
$CHAMFERB
 40
0.0
  9
$CHAMFERC
 40
0.0
  9
$CHAMFERD
 40
0.0
  9
$SKPOLY
 70
     0
  9
$TDCREATE
 40
2454575.692316620
  9
$TDUCREATE
 40
2454575.317316620
  9
$TDUPDATE
 40
2454575.698771702
  9
$TDUUPDATE
 40
2454575.323771702
  9
$TDINDWG
 40
0.0004521065
  9
$TDUSRTIMER
 40
0.0004521065
  9
$USRTIMER
 70
     1
  9
$ANGBASE
 50
0.0
  9
$ANGDIR
 70
     0
  9
$PDMODE
 70
     0
  9
$PDSIZE
 40
0.0
  9
$PLINEWID
 40
0.0
  9
$SPLFRAME
 70
     0
  9
$SPLINETYPE
 70
     6
  9
$SPLINESEGS
 70
     8
  9
$HANDSEED
  5
A04
  9
$SURFTAB1
 70
     6
  9
$SURFTAB2
 70
     6
  9
$SURFTYPE
 70
     6
  9
$SURFU
 70
     6
  9
$SURFV
 70
     6
  9
$UCSBASE
  2

  9
$UCSNAME
  2

  9
$UCSORG
 10
0.0
 20
0.0
 30
0.0
  9
$UCSXDIR
 10
1.0
 20
0.0
 30
0.0
  9
$UCSYDIR
 10
0.0
 20
1.0
 30
0.0
  9
$UCSORTHOREF
  2

  9
$UCSORTHOVIEW
 70
     0
  9
$UCSORGTOP
 10
0.0
 20
0.0
 30
0.0
  9
$UCSORGBOTTOM
 10
0.0
 20
0.0
 30
0.0
  9
$UCSORGLEFT
 10
0.0
 20
0.0
 30
0.0
  9
$UCSORGRIGHT
 10
0.0
 20
0.0
 30
0.0
  9
$UCSORGFRONT
 10
0.0
 20
0.0
 30
0.0
  9
$UCSORGBACK
 10
0.0
 20
0.0
 30
0.0
  9
$PUCSBASE
  2

  9
$PUCSNAME
  2

  9
$PUCSORG
 10
0.0
 20
0.0
 30
0.0
  9
$PUCSXDIR
 10
1.0
 20
0.0
 30
0.0
  9
$PUCSYDIR
 10
0.0
 20
1.0
 30
0.0
  9
$PUCSORTHOREF
  2

  9
$PUCSORTHOVIEW
 70
     0
  9
$PUCSORGTOP
 10
0.0
 20
0.0
 30
0.0
  9
$PUCSORGBOTTOM
 10
0.0
 20
0.0
 30
0.0
  9
$PUCSORGLEFT
 10
0.0
 20
0.0
 30
0.0
  9
$PUCSORGRIGHT
 10
0.0
 20
0.0
 30
0.0
  9
$PUCSORGFRONT
 10
0.0
 20
0.0
 30
0.0
  9
$PUCSORGBACK
 10
0.0
 20
0.0
 30
0.0
  9
$USERI1
 70
     0
  9
$USERI2
 70
     0
  9
$USERI3
 70
     0
  9
$USERI4
 70
     0
  9
$USERI5
 70
     0
  9
$USERR1
 40
0.0
  9
$USERR2
 40
0.0
  9
$USERR3
 40
0.0
  9
$USERR4
 40
0.0
  9
$USERR5
 40
0.0
  9
$WORLDVIEW
 70
     1
  9
$SHADEDGE
 70
     3
  9
$SHADEDIF
 70
    70
  9
$TILEMODE
 70
     1
  9
$MAXACTVP
 70
    64
  9
$PINSBASE
 10
0.0
 20
0.0
 30
0.0
  9
$PLIMCHECK
 70
     0
  9
$PEXTMIN
 10
1.000000000000000E+20
 20
1.000000000000000E+20
 30
1.000000000000000E+20
  9
$PEXTMAX
 10
-1.000000000000000E+20
 20
-1.000000000000000E+20
 30
-1.000000000000000E+20
  9
$PLIMMIN
 10
0.0
 20
0.0
  9
$PLIMMAX
 10
12.0
 20
9.0
  9
$UNITMODE
 70
     0
  9
$VISRETAIN
 70
     1
  9
$PLINEGEN
 70
     0
  9
$PSLTSCALE
 70
     1
  9
$TREEDEPTH
 70
  3020
  9
$CMLSTYLE
  2
Standard
  9
$CMLJUST
 70
     0
  9
$CMLSCALE
 40
1.0
  9
$PROXYGRAPHICS
 70
     1
  9
$MEASUREMENT
 70
     0
  9
$CELWEIGHT
370
    -1
  9
$ENDCAPS
280
     0
  9
$JOINSTYLE
280
     0
  9
$LWDISPLAY
290
     0
  9
$INSUNITS
 70
     2
  9
$HYPERLINKBASE
  1

  9
$STYLESHEET
  1

  9
$XEDIT
290
     1
  9
$CEPSNTYPE
380
     0
  9
$PSTYLEMODE
290
     1
  9
$FINGERPRINTGUID
  2
{FF5E737C-A064-421C-A328-269B1C34FBEC}
  9
$VERSIONGUID
  2
{6A1D9945-9D02-4B60-A407-839059EA8538}
  9
$EXTNAMES
290
     1
  9
$PSVPSCALE
 40
0.0
  9
$OLESTARTUP
290
     0
  0
ENDSEC
  0
SECTION
  2
CLASSES
  0
CLASS
  1
ACDBDICTIONARYWDFLT
  2
AcDbDictionaryWithDefault
  3
ObjectDBX Classes
 90
        0
280
     0
281
     0
  0
CLASS
  1
TABLESTYLE
  2
AcDbTableStyle
  3
ObjectDBX Classes
 90
     2047
280
     0
281
     0
  0
CLASS
  1
AECC_TREE_NODE
  2
AeccDbTreeNode
  3
AeccvBase10|Product Desc: Autodesk Civil 3D |Company: Autodesk,Inc. |WEB Address: www.autodesk.com
 90
     1023
280
     0
281
     0
  0
CLASS
  1
AECC_CLASS_NODE
  2
AeccDbClassNode
  3
AeccLand10|Product Desc: Autodesk Civil 3D |Company: Autodesk,Inc. |WEB Address: www.autodesk.com
 90
     1023
280
     0
281
     0
  0
CLASS
  1
AECC_ROOT_SETTINGS_NODE
  2
AeccDbRootSettingsNode
  3
AeccvBase10|Product Desc: Autodesk Civil 3D |Company: Autodesk,Inc. |WEB Address: www.autodesk.com
 90
     1023
280
     0
281
     0
  0
CLASS
  1
AEC_VARS_DWG_SETUP
  2
AecDbVarsDwgSetup
  3
AecBase40|Product Desc: Autodesk Architectural Desktop 2005 |Company: Autodesk,Inc. |WEB Address: www.autodesk.com
 90
      129
280
     0
281
     0
  0
CLASS
  1
DMMAPMANAGER
  2
AcMapDMMapManager
  3
AcMapDisplayManagement
 90
     1024
280
     0
281
     0
  0
CLASS
  1
DMSTYLELIBRARY
  2
AcMapDMStyleLibrary
  3
AcMapDisplayManagement
 90
     1024
280
     0
281
     0
  0
CLASS
  1
DMMAP
  2
AcMapDMMap
  3
AcMapDisplayManagement
 90
     1024
280
     0
281
     0
  0
CLASS
  1
DMBASEELEMENT
  2
AcMapDMBaseElement
  3
AcMapDisplayManagement
 90
     1024
280
     0
281
     0
  0
CLASS
  1
DMDEFAULTSTYLE
  2
AcMapDMDefaultStyle
  3
AcMapDisplayManagement
 90
     1024
280
     0
281
     0
  0
CLASS
  1
DMSTYLEREFERENCE
  2
AcMapDMStyleReference
  3
AcMapDisplayManagement
 90
     1024
280
     0
281
     0
  0
CLASS
  1
DMSTYLECATEGORY
  2
AcMapDMStyleCategory
  3
AcMapDisplayManagement
 90
     1024
280
     0
281
     0
  0
CLASS
  1
AECC_SETTINGS_NODE
  2
AeccDbSettingsNode
  3
AeccvBase10|Product Desc: Autodesk Civil 3D |Company: Autodesk,Inc. |WEB Address: www.autodesk.com
 90
     1023
280
     0
281
     0
  0
CLASS
  1
AECC_PROFILE_VIEW_STYLE
  2
AeccDbGraphStyleProfile
  3
AeccLand10|Product Desc: Autodesk Civil 3D |Company: Autodesk,Inc. |WEB Address: www.autodesk.com
 90
      129
280
     0
281
     0
  0
CLASS
  1
AECC_PROFILE_VIEW_BAND_STYLE_SET
  2
AeccDbGraphProfileBandStyleSet
  3
AeccLand10|Product Desc: Autodesk Civil 3D |Company: Autodesk,Inc. |WEB Address: www.autodesk.com
 90
      129
280
     0
281
     0
  0
CLASS
  1
AECC_PROFILE_VIEW_DATA_BAND_STYLE
  2
AeccDbGraphStyleProfileDataBands
  3
AeccLand10|Product Desc: Autodesk Civil 3D |Company: Autodesk,Inc. |WEB Address: www.autodesk.com
 90
      129
280
     0
281
     0
  0
CLASS
  1
AECC_LABEL_NODE
  2
AeccDbLabelNode
  3
AeccLand10|Product Desc: Autodesk Civil 3D |Company: Autodesk,Inc. |WEB Address: www.autodesk.com
 90
     1023
280
     0
281
     0
  0
CLASS
  1
AECC_LABEL_COLLECTOR_STYLE
  2
AeccDbLabelStyleCollector
  3
AeccLand10|Product Desc: Autodesk Civil 3D |Company: Autodesk,Inc. |WEB Address: www.autodesk.com
 90
     1023
280
     0
281
     0
  0
CLASS
  1
AECC_LABEL_TEXT_STYLE
  2
AeccDbLabelStyleText
  3
AeccLand10|Product Desc: Autodesk Civil 3D |Company: Autodesk,Inc. |WEB Address: www.autodesk.com
 90
     1023
280
     0
281
     0
  0
CLASS
  1
AECC_PROFILE_VIEW_HORIZONTAL_GEOMETRY_BAND_STYLE
  2
AeccDbGraphStyleHorGeometryBands
  3
AeccLand10|Product Desc: Autodesk Civil 3D |Company: Autodesk,Inc. |WEB Address: www.autodesk.com
 90
      129
280
     0
281
     0
  0
CLASS
  1
AECC_PROFILE_VIEW_VERTICAL_GEOMETRY_BAND_STYLE
  2
AeccDbGraphStyleVertGeometryBands
  3
AeccLand10|Product Desc: Autodesk Civil 3D |Company: Autodesk,Inc. |WEB Address: www.autodesk.com
 90
      129
280
     0
281
     0
  0
CLASS
  1
AECC_LABEL_RADIAL_LINE_STYLE
  2
AeccDbLabelStyleRadialLine
  3
AeccLand10|Product Desc: Autodesk Civil 3D |Company: Autodesk,Inc. |WEB Address: www.autodesk.com
 90
     1023
280
     0
281
     0
  0
CLASS
  1
AECC_POINT_STYLE
  2
AeccDbPointStyle
  3
AeccLand10|Product Desc: Autodesk Civil 3D |Company: Autodesk,Inc. |WEB Address: www.autodesk.com
 90
      895
280
     0
281
     0
  0
CLASS
  1
AECC_PROFILE_LABEL_SET
  2
AeccDbVAlignStnLabelsDlgTemplate
  3
AeccLand10|Product Desc: Autodesk Civil 3D |Company: Autodesk,Inc. |WEB Address: www.autodesk.com
 90
     1023
280
     0
281
     0
  0
CLASS
  1
AECC_SECTION_VIEW_STYLE
  2
AeccDbGraphStyleCrossSection
  3
AeccLand10|Product Desc: Autodesk Civil 3D |Company: Autodesk,Inc. |WEB Address: www.autodesk.com
 90
      129
280
     0
281
     0
  0
CLASS
  1
AECC_SECTION_VIEW_BAND_STYLE_SET
  2
AeccDbGraphSectionBandStyleSet
  3
AeccLand10|Product Desc: Autodesk Civil 3D |Company: Autodesk,Inc. |WEB Address: www.autodesk.com
 90
      129
280
     0
281
     0
  0
CLASS
  1
AECC_SECTION_VIEW_DATA_BAND_STYLE
  2
AeccDbGraphStyleSectionDataBands
  3
AeccLand10|Product Desc: Autodesk Civil 3D |Company: Autodesk,Inc. |WEB Address: www.autodesk.com
 90
      129
280
     0
281
     0
  0
CLASS
  1
AECC_SECTION_LABEL_SET
  2
AeccDbSectionLabelsDlgTemplate
  3
AeccLand10|Product Desc: Autodesk Civil 3D |Company: Autodesk,Inc. |WEB Address: www.autodesk.com
 90
     1023
280
     0
281
     0
  0
CLASS
  1
AECC_ALIGNMENT_STYLE
  2
AeccDbAlignmentStyle
  3
AeccLand10|Product Desc: Autodesk Civil 3D |Company: Autodesk,Inc. |WEB Address: www.autodesk.com
 90
     1023
280
     0
281
     0
  0
CLASS
  1
AECC_LABEL_VECTOR_ARROW_STYLE
  2
AeccDbLabelStyleVectorArrow
  3
AeccLand10|Product Desc: Autodesk Civil 3D |Company: Autodesk,Inc. |WEB Address: www.autodesk.com
 90
     1023
280
     0
281
     0
  0
CLASS
  1
AECC_ALIGNMENT_LABEL_SET
  2
AeccDbAlignStnLabelsDlgTemplate
  3
AeccLand10|Product Desc: Autodesk Civil 3D |Company: Autodesk,Inc. |WEB Address: www.autodesk.com
 90
     1023
280
     0
281
     0
  0
CLASS
  1
AECC_SURFACE_STYLE
  2
AeccDbSurfaceStyle
  3
AeccLand10|Product Desc: Autodesk Civil 3D |Company: Autodesk,Inc. |WEB Address: www.autodesk.com
 90
      129
280
     0
281
     0
  0
CLASS
  1
AECC_LEGEND_TABLE_STYLE
  2
AeccDbLegendScheduleTableStyle
  3
AeccLand10|Product Desc: Autodesk Civil 3D |Company: Autodesk,Inc. |WEB Address: www.autodesk.com
 90
     1023
280
     0
281
     0
  0
CLASS
  1
AECC_SECTION_STYLE
  2
AeccDbSectionStyle
  3
AeccLand10|Product Desc: Autodesk Civil 3D |Company: Autodesk,Inc. |WEB Address: www.autodesk.com
 90
     1023
280
     0
281
     0
  0
CLASS
  1
AECC_GRADING_STYLE
  2
AeccDbGradingStyle
  3
AeccLand10|Product Desc: Autodesk Civil 3D |Company: Autodesk,Inc. |WEB Address: www.autodesk.com
 90
     1023
280
     0
281
     0
  0
CLASS
  1
AECC_GRADING_CRITERIA
  2
AeccDbGradingCriteria
  3
AeccLand10|Product Desc: Autodesk Civil 3D |Company: Autodesk,Inc. |WEB Address: www.autodesk.com
 90
     1023
280
     0
281
     0
  0
CLASS
  1
AECC_PARCEL_STYLE
  2
AeccDbParcelStyle
  3
AeccLand10|Product Desc: Autodesk Civil 3D |Company: Autodesk,Inc. |WEB Address: www.autodesk.com
 90
      129
280
     0
281
     0
  0
CLASS
  1
AECC_SAMPLE_LINE_GROUP_STYLE
  2
AeccDbSampleLineGroupStyle
  3
AeccLand10|Product Desc: Autodesk Civil 3D |Company: Autodesk,Inc. |WEB Address: www.autodesk.com
 90
      129
280
     0
281
     0
  0
CLASS
  1
AECC_SHEET_STYLE
  2
AeccDbSheetStyle
  3
AeccLand10|Product Desc: Autodesk Civil 3D |Company: Autodesk,Inc. |WEB Address: www.autodesk.com
 90
      129
280
     0
281
     0
  0
CLASS
  1
AECC_SAMPLE_LINE_STYLE
  2
AeccDbSampleLineStyle
  3
AeccLand10|Product Desc: Autodesk Civil 3D |Company: Autodesk,Inc. |WEB Address: www.autodesk.com
 90
     1023
280
     0
281
     0
  0
CLASS
  1
AECC_PROFILE_STYLE
  2
AeccDbVAlignmentStyle
  3
AeccLand10|Product Desc: Autodesk Civil 3D |Company: Autodesk,Inc. |WEB Address: www.autodesk.com
 90
     1023
280
     0
281
     0
  0
CLASS
  1
AECC_STATION_FORMAT_STYLE
  2
AeccDbStationFormatStyle
  3
AeccLand10|Product Desc: Autodesk Civil 3D |Company: Autodesk,Inc. |WEB Address: www.autodesk.com
 90
     1023
280
     0
281
     0
  0
CLASS
  1
AECC_TABLE_STYLE
  2
AeccDbScheduleTableStyle
  3
AeccLand10|Product Desc: Autodesk Civil 3D |Company: Autodesk,Inc. |WEB Address: www.autodesk.com
 90
     1023
280
     0
281
     0
  0
CLASS
  1
AECC_GRADING_CRITERIA_SET
  2
AeccDbGradingCriteriaSet
  3
AeccLand10|Product Desc: Autodesk Civil 3D |Company: Autodesk,Inc. |WEB Address: www.autodesk.com
 90
     1023
280
     0
281
     0
  0
CLASS
  1
AECC_FORMAT_MANAGER_OBJECT
  2
AeccDbFormatManagerObject
  3
AeccLand10|Product Desc: Autodesk Civil 3D |Company: Autodesk,Inc. |WEB Address: www.autodesk.com
 90
     1023
280
     0
281
     0
  0
CLASS
  1
AECC_POINT_DESCRIPTION_KEY_SET_NODE
  2
AeccDbPointDescKeySetsNode
  3
AeccvBase10|Product Desc: Autodesk Civil 3D |Company: Autodesk,Inc. |WEB Address: www.autodesk.com
 90
     1023
280
     0
281
     0
  0
CLASS
  1
DICTIONARYVAR
  2
AcDbDictionaryVar
  3
ObjectDBX Classes
 90
        0
280
     0
281
     0
  0
CLASS
  1
ACDBPLACEHOLDER
  2
AcDbPlaceHolder
  3
ObjectDBX Classes
 90
        0
280
     0
281
     0
  0
CLASS
  1
LAYOUT
  2
AcDbLayout
  3
ObjectDBX Classes
 90
        0
280
     0
281
     0
  0
ENDSEC
  0
SECTION
  2
TABLES
  0
TABLE
  2
VPORT
  5
8
330
0
100
AcDbSymbolTable
 70
     2
  0
VPORT
  5
9FE
330
8
100
AcDbSymbolTableRecord
100
AcDbViewportTableRecord
  2
*Active
 70
     0
 10
0.0
 20
0.0
 11
1.0
 21
1.0
 12
39655.55405817612
 22
13133.52788948137
 13
0.0
 23
0.0
 14
1.0
 24
1.0
 15
0.0
 25
0.0
 16
0.0
 26
0.0
 36
1.0
 17
0.0
 27
0.0
 37
0.0
 40
74758.07854906729
 41
1.937399678972712
 42
50.0
 43
0.0
 44
0.0
 50
0.0
 51
0.0
 71
     0
 72
   100
 73
     1
 74
     1
 75
     0
 76
     0
 77
     0
 78
     0
281
     0
 65
     1
110
0.0
120
0.0
130
0.0
111
1.0
121
0.0
131
0.0
112
0.0
122
1.0
132
0.0
 79
     0
146
0.0
  0
ENDTAB
  0
TABLE
  2
LTYPE
  5
5
330
0
100
AcDbSymbolTable
 70
    35
  0
LTYPE
  5
13
330
5
100
AcDbSymbolTableRecord
100
AcDbLinetypeTableRecord
  2
ByBlock
 70
     0
  3

 72
    65
 73
     0
 40
0.0
  0
LTYPE
  5
14
330
5
100
AcDbSymbolTableRecord
100
AcDbLinetypeTableRecord
  2
ByLayer
 70
     0
  3

 72
    65
 73
     0
 40
0.0
  0
LTYPE
  5
15
330
5
100
AcDbSymbolTableRecord
100
AcDbLinetypeTableRecord
  2
CONTINUOUS
 70
     0
  3
実線
 72
    65
 73
     0
 40
0.0
  0
LTYPE
  5
26
330
5
100
AcDbSymbolTableRecord
100
AcDbLinetypeTableRecord
  2
DASHED1
 70
     0
  3
--  --  --  --  --  --  --  --  
 72
    65
 73
     2
 40
2.5
 49
1.25
 74
     0
 49
-1.25
 74
     0
  0
LTYPE
  5
27
330
5
100
AcDbSymbolTableRecord
100
AcDbLinetypeTableRecord
  2
DASHED2
 70
     0
  3
----    ----    ----    ----    
 72
    65
 73
     2
 40
5.0
 49
2.5
 74
     0
 49
-2.5
 74
     0
  0
LTYPE
  5
28
330
5
100
AcDbSymbolTableRecord
100
AcDbLinetypeTableRecord
  2
DASHED3
 70
     0
  3
------  ------  ------  ------  
 72
    65
 73
     2
 40
5.0
 49
3.75
 74
     0
 49
-1.25
 74
     0
  0
LTYPE
  5
29
330
5
100
AcDbSymbolTableRecord
100
AcDbLinetypeTableRecord
  2
CENTER1
 70
     0
  3
----- - ----- - ----- - ----- - 
 72
    65
 73
     4
 40
10.0
 49
6.25
 74
     0
 49
-1.25
 74
     0
 49
1.25
 74
     0
 49
-1.25
 74
     0
  0
LTYPE
  5
2A
330
5
100
AcDbSymbolTableRecord
100
AcDbLinetypeTableRecord
  2
CENTER2
 70
     0
  3
----------  --  ----------  --  
 72
    65
 73
     4
 40
20.0
 49
12.5
 74
     0
 49
-2.5
 74
     0
 49
2.5
 74
     0
 49
-2.5
 74
     0
  0
LTYPE
  5
2B
330
5
100
AcDbSymbolTableRecord
100
AcDbLinetypeTableRecord
  2
PHANTOM1
 70
     0
  3
--- - - --- - - --- - - --- - - 
 72
    65
 73
     6
 40
10.0
 49
3.25
 74
     0
 49
-1.25
 74
     0
 49
1.25
 74
     0
 49
-1.25
 74
     0
 49
1.25
 74
     0
 49
-1.25
 74
     0
  0
LTYPE
  5
2C
330
5
100
AcDbSymbolTableRecord
100
AcDbLinetypeTableRecord
  2
PHANTOM2
 70
     0
  3
--------  -  -  --------  -  -  
 72
    65
 73
     6
 40
20.0
 49
10.0
 74
     0
 49
-2.5
 74
     0
 49
1.25
 74
     0
 49
-2.5
 74
     0
 49
1.25
 74
     0
 49
-2.5
 74
     0
  0
LTYPE
  5
2D
330
5
100
AcDbSymbolTableRecord
100
AcDbLinetypeTableRecord
  2
DOT
 70
     0
  3
-   -   -   -   -   -   -   -   
 72
    65
 73
     2
 40
2.5
 49
0.625
 74
     0
 49
-1.875
 74
     0
  0
LTYPE
  5
2E
330
5
100
AcDbSymbolTableRecord
100
AcDbLinetypeTableRecord
  2
DUMMY
 70
     0
  3
ダミー
 72
    65
 73
     0
 40
0.0
  0
LTYPE
  5
2F
330
5
100
AcDbSymbolTableRecord
100
AcDbLinetypeTableRecord
  2
RAND1
 70
     0
  3
ランダム線1
 72
    65
 73
     4
 40
10.0
 49
1.0
 74
     0
 49
-2.0
 74
     0
 49
3.0
 74
     0
 49
-4.0
 74
     0
  0
LTYPE
  5
30
330
5
100
AcDbSymbolTableRecord
100
AcDbLinetypeTableRecord
  2
RAND2
 70
     0
  3
ランダム線2
 72
    65
 73
     4
 40
14.0
 49
2.0
 74
     0
 49
-3.0
 74
     0
 49
4.0
 74
     0
 49
-5.0
 74
     0
  0
LTYPE
  5
31
330
5
100
AcDbSymbolTableRecord
100
AcDbLinetypeTableRecord
  2
RAND3
 70
     0
  3
ランダム線3
 72
    65
 73
     4
 40
18.0
 49
3.0
 74
     0
 49
-4.0
 74
     0
 49
5.0
 74
     0
 49
-6.0
 74
     0
  0
LTYPE
  5
32
330
5
100
AcDbSymbolTableRecord
100
AcDbLinetypeTableRecord
  2
RAND4
 70
     0
  3
ランダム線4
 72
    65
 73
     4
 40
22.0
 49
4.0
 74
     0
 49
-5.0
 74
     0
 49
6.0
 74
     0
 49
-7.0
 74
     0
  0
LTYPE
  5
33
330
5
100
AcDbSymbolTableRecord
100
AcDbLinetypeTableRecord
  2
RAND5
 70
     0
  3
ランダム線5
 72
    65
 73
     4
 40
26.0
 49
5.0
 74
     0
 49
-6.0
 74
     0
 49
7.0
 74
     0
 49
-8.0
 74
     0
  0
LTYPE
  5
34
330
5
100
AcDbSymbolTableRecord
100
AcDbLinetypeTableRecord
  2
LONG1
 70
     0
  3
----------  --  ----------  --  
 72
    65
 73
     4
 40
40.0
 49
32.5
 74
     0
 49
-2.5
 74
     0
 49
2.5
 74
     0
 49
-2.5
 74
     0
  0
LTYPE
  5
35
330
5
100
AcDbSymbolTableRecord
100
AcDbLinetypeTableRecord
  2
LONG2
 70
     0
  3
--------  -  -  --------  -  -  
 72
    65
 73
     6
 40
40.0
 49
30.0
 74
     0
 49
-2.5
 74
     0
 49
1.25
 74
     0
 49
-2.5
 74
     0
 49
1.25
 74
     0
 49
-2.5
 74
     0
  0
LTYPE
  5
36
330
5
100
AcDbSymbolTableRecord
100
AcDbLinetypeTableRecord
  2
LONG3
 70
     0
  3
+++++++++++++++..+++++++++++++++
 72
    65
 73
     2
 40
40.0
 49
37.5
 74
     0
 49
-2.5
 74
     0
  0
LTYPE
  5
37
330
5
100
AcDbSymbolTableRecord
100
AcDbLinetypeTableRecord
  2
LONG4
 70
     0
  3
+++++++++++++++..+++++++++++++++
 72
    65
 73
     2
 40
80.0
 49
75.0
 74
     0
 49
-5.0
 74
     0
  0
LTYPE
  5
38
330
5
100
AcDbSymbolTableRecord
100
AcDbLinetypeTableRecord
  2
LONG5
 70
     0
  3
----------  --  ----------  --  
 72
    65
 73
     4
 40
60.0
 49
37.5
 74
     0
 49
-7.5
 74
     0
 49
7.5
 74
     0
 49
-7.5
 74
     0
  0
LTYPE
  5
39
330
5
100
AcDbSymbolTableRecord
100
AcDbLinetypeTableRecord
  2
DASHED
 70
     0
  3
-------   -------------   ------
 72
    65
 73
     2
 40
7.5
 49
6.0
 74
     0
 49
-1.5
 74
     0
  0
LTYPE
  5
3A
330
5
100
AcDbSymbolTableRecord
100
AcDbLinetypeTableRecord
  2
DASHED_SPACED
 70
     0
  3
----        --------        ----
 72
    65
 73
     2
 40
12.0
 49
6.0
 74
     0
 49
-6.0
 74
     0
  0
LTYPE
  5
3B
330
5
100
AcDbSymbolTableRecord
100
AcDbLinetypeTableRecord
  2
LONG_DASHED_DOTTED
 70
     0
  3
------------- --- --------------
 72
    65
 73
     4
 40
15.25
 49
12.0
 74
     0
 49
-1.5
 74
     0
 49
0.25
 74
     0
 49
-1.5
 74
     0
  0
LTYPE
  5
3C
330
5
100
AcDbSymbolTableRecord
100
AcDbLinetypeTableRecord
  2
LONG_DASHED_DOUBLE-DOTTED
 70
     0
  3
----------- --- --- ------------
 72
    65
 73
     6
 40
17.0
 49
12.0
 74
     0
 49
-1.5
 74
     0
 49
0.25
 74
     0
 49
-1.5
 74
     0
 49
0.25
 74
     0
 49
-1.5
 74
     0
  0
LTYPE
  5
3D
330
5
100
AcDbSymbolTableRecord
100
AcDbLinetypeTableRecord
  2
LONG_DASHED_TRIPLICATE-DOTTED
 70
     0
  3
--------- --- --- --- ----------
 72
    65
 73
     8
 40
18.75
 49
12.0
 74
     0
 49
-1.5
 74
     0
 49
0.25
 74
     0
 49
-1.5
 74
     0
 49
0.25
 74
     0
 49
-1.5
 74
     0
 49
0.25
 74
     0
 49
-1.5
 74
     0
  0
LTYPE
  5
3E
330
5
100
AcDbSymbolTableRecord
100
AcDbLinetypeTableRecord
  2
DOTTED
 70
     0
  3
   -       -       -       -    
 72
    65
 73
     2
 40
1.75
 49
0.25
 74
     0
 49
-1.5
 74
     0
  0
LTYPE
  5
3F
330
5
100
AcDbSymbolTableRecord
100
AcDbLinetypeTableRecord
  2
CHAIN
 70
     0
  3
-------------- -- --------------
 72
    65
 73
     4
 40
18.5
 49
12.0
 74
     0
 49
-1.5
 74
     0
 49
3.5
 74
     0
 49
-1.5
 74
     0
  0
LTYPE
  5
40
330
5
100
AcDbSymbolTableRecord
100
AcDbLinetypeTableRecord
  2
CHAIN_DOUBLE_DASH
 70
     0
  3
------------ -- -- -------------
 72
    65
 73
     6
 40
23.5
 49
12.0
 74
     0
 49
-1.5
 74
     0
 49
3.5
 74
     0
 49
-1.5
 74
     0
 49
3.5
 74
     0
 49
-1.5
 74
     0
  0
LTYPE
  5
41
330
5
100
AcDbSymbolTableRecord
100
AcDbLinetypeTableRecord
  2
DASHED_DOTTED
 70
     0
  3
-----------     -     ----------
 72
    65
 73
     4
 40
9.25
 49
6.0
 74
     0
 49
-1.5
 74
     0
 49
0.25
 74
     0
 49
-1.5
 74
     0
  0
LTYPE
  5
42
330
5
100
AcDbSymbolTableRecord
100
AcDbLinetypeTableRecord
  2
DOUBLE-DASHED_DOTTED
 70
     0
  3
------   -----------   -   -----
 72
    65
 73
     6
 40
16.75
 49
6.0
 74
     0
 49
-1.5
 74
     0
 49
6.0
 74
     0
 49
-1.5
 74
     0
 49
0.25
 74
     0
 49
-1.5
 74
     0
  0
LTYPE
  5
43
330
5
100
AcDbSymbolTableRecord
100
AcDbLinetypeTableRecord
  2
DASHED_DOUBLE-DOTTED
 70
     0
  3
---------    -    -    ---------
 72
    65
 73
     6
 40
11.0
 49
6.0
 74
     0
 49
-1.5
 74
     0
 49
0.25
 74
     0
 49
-1.5
 74
     0
 49
0.25
 74
     0
 49
-1.5
 74
     0
  0
LTYPE
  5
44
330
5
100
AcDbSymbolTableRecord
100
AcDbLinetypeTableRecord
  2
DOUBLE-DASHED_DOUBLE-DOTTED
 70
     0
  3
-----   ---------   -   -   ----
 72
    65
 73
     8
 40
18.5
 49
6.0
 74
     0
 49
-1.5
 74
     0
 49
6.0
 74
     0
 49
-1.5
 74
     0
 49
0.25
 74
     0
 49
-1.5
 74
     0
 49
0.25
 74
     0
 49
-1.5
 74
     0
  0
LTYPE
  5
45
330
5
100
AcDbSymbolTableRecord
100
AcDbLinetypeTableRecord
  2
DASHED_TRIPLICATE-DOTTED
 70
     0
  3
-------    -    -    -    ------
 72
    65
 73
     8
 40
12.75
 49
6.0
 74
     0
 49
-1.5
 74
     0
 49
0.25
 74
     0
 49
-1.5
 74
     0
 49
0.25
 74
     0
 49
-1.5
 74
     0
 49
0.25
 74
     0
 49
-1.5
 74
     0
  0
LTYPE
  5
46
330
5
100
AcDbSymbolTableRecord
100
AcDbLinetypeTableRecord
  2
DOUBLE-DASHED_TRIPLICATE-DOTTED
 70
     0
  3
-----  ---------  -  -  -  -----
 72
    65
 73
    10
 40
20.25
 49
6.0
 74
     0
 49
-1.5
 74
     0
 49
6.0
 74
     0
 49
-1.5
 74
     0
 49
0.25
 74
     0
 49
-1.5
 74
     0
 49
0.25
 74
     0
 49
-1.5
 74
     0
 49
0.25
 74
     0
 49
-1.5
 74
     0
  0
LTYPE
  5
47
330
5
100
AcDbSymbolTableRecord
100
AcDbLinetypeTableRecord
  2
UNDEFINED
 70
     0
  3
--------------------------------
 72
    65
 73
     0
 40
0.0
  0
ENDTAB
  0
TABLE
  2
LAYER
  5
2
330
0
100
AcDbSymbolTable
 70
    10
  0
LAYER
  5
10
330
2
100
AcDbSymbolTableRecord
100
AcDbLayerTableRecord
  2
0
 70
     0
 62
     7
  6
CONTINUOUS
370
    -3
390
F
  0
LAYER
  5
49
330
2
100
AcDbSymbolTableRecord
100
AcDbLayerTableRecord
  2
_0-0_
 70
     0
 62
     7
  6
CONTINUOUS
370
    -3
390
F
  0
LAYER
  5
4A
330
2
100
AcDbSymbolTableRecord
100
AcDbLayerTableRecord
  2
_0-2_
 70
     0
 62
     7
  6
CONTINUOUS
370
    -3
390
F
  0
LAYER
  5
4B
330
2
100
AcDbSymbolTableRecord
100
AcDbLayerTableRecord
  2
_0-3_
 70
     0
 62
     7
  6
CONTINUOUS
370
    -3
390
F
  0
LAYER
  5
4C
330
2
100
AcDbSymbolTableRecord
100
AcDbLayerTableRecord
  2
_0-6_
 70
     0
 62
     7
  6
CONTINUOUS
370
    -3
390
F
  0
LAYER
  5
4D
330
2
100
AcDbSymbolTableRecord
100
AcDbLayerTableRecord
  2
_0-7_
 70
     0
 62
     7
  6
CONTINUOUS
370
    -3
390
F
  0
LAYER
  5
4E
330
2
100
AcDbSymbolTableRecord
100
AcDbLayerTableRecord
  2
_0-9_
 70
     0
 62
     7
  6
CONTINUOUS
370
    -3
390
F
  0
LAYER
  5
4F
330
2
100
AcDbSymbolTableRecord
100
AcDbLayerTableRecord
  2
_0-B_
 70
     0
 62
     7
  6
CONTINUOUS
370
    -3
390
F
  0
LAYER
  5
50
330
2
100
AcDbSymbolTableRecord
100
AcDbLayerTableRecord
  2
_0-F_
 70
     0
 62
     7
  6
CONTINUOUS
370
    -3
390
F
  0
LAYER
  5
51
330
2
100
AcDbSymbolTableRecord
100
AcDbLayerTableRecord
  2
ADD_LINE
 70
     0
 62
     7
  6
CONTINUOUS
370
    -3
390
F
  0
ENDTAB
  0
TABLE
  2
STYLE
  5
3
330
0
100
AcDbSymbolTable
 70
     2
  0
STYLE
  5
11
330
3
100
AcDbSymbolTableRecord
100
AcDbTextStyleTableRecord
  2
STANDARD
 70
     0
 40
0.0
 41
1.0
 50
0.0
 71
     0
 42
0.2
  3
MS Gothic.ttf
  4

1001
ACAD
1000
MS Gothic
1071
    32817
  0
STYLE
  5
48
330
3
100
AcDbSymbolTableRecord
100
AcDbTextStyleTableRecord
  2
TATEGAKI
 70
     4
 40
0.0
 41
1.0
 50
0.0
 71
     0
 42
1.0
  3
txt
  4
bigfont.shx
  0
ENDTAB
  0
TABLE
  2
VIEW
  5
6
330
0
100
AcDbSymbolTable
 70
     0
  0
ENDTAB
  0
TABLE
  2
UCS
  5
7
330
0
100
AcDbSymbolTable
 70
     0
  0
ENDTAB
  0
TABLE
  2
APPID
  5
9
330
0
100
AcDbSymbolTable
 70
     3
  0
APPID
  5
12
330
9
100
AcDbSymbolTableRecord
100
AcDbRegAppTableRecord
  2
ACAD
 70
     0
  0
APPID
  5
711
330
9
100
AcDbSymbolTableRecord
100
AcDbRegAppTableRecord
  2
DCO15
 70
     0
  0
APPID
  5
713
330
9
100
AcDbSymbolTableRecord
100
AcDbRegAppTableRecord
  2
ADE
 70
     0
  0
ENDTAB
  0
TABLE
  2
DIMSTYLE
  5
A
330
0
100
AcDbSymbolTable
 70
     1
100
AcDbDimStyleTable
 71
     0
  0
DIMSTYLE
105
42C
330
A
100
AcDbSymbolTableRecord
100
AcDbDimStyleTableRecord
  2
Standard
 70
     0
340
11
  0
ENDTAB
  0
TABLE
  2
BLOCK_RECORD
  5
1
330
0
100
AcDbSymbolTable
 70
     0
  0
BLOCK_RECORD
  5
22
330
1
100
AcDbSymbolTableRecord
100
AcDbBlockTableRecord
  2
*Model_Space
340
25
  0
BLOCK_RECORD
  5
1E
330
1
100
AcDbSymbolTableRecord
100
AcDbBlockTableRecord
  2
*Paper_Space
340
21
  0
ENDTAB
  0
ENDSEC
  0
SECTION
  2
BLOCKS
  0
BLOCK
  5
23
330
22
100
AcDbEntity
  8
0
100
AcDbBlockBegin
  2
*Model_Space
 70
     0
 10
0.0
 20
0.0
 30
0.0
  3
*Model_Space
  1

  0
ENDBLK
  5
24
330
22
100
AcDbEntity
  8
0
100
AcDbBlockEnd
  0
BLOCK
  5
1F
330
1E
100
AcDbEntity
 67
     1
  8
0
100
AcDbBlockBegin
  2
*Paper_Space
 70
     0
 10
0.0
 20
0.0
 30
0.0
  3
*Paper_Space
  1

  0
ENDBLK
  5
20
330
1E
100
AcDbEntity
 67
     1
  8
0
100
AcDbBlockEnd
  0
ENDSEC
  0
SECTION
  2
ENTITIES
  0
LINE
  5
55
330
22
100
AcDbEntity
  8
_0-F_
  6
Continuous
 62
     2
100
AcDbLine
 10
36824.32844832137
 20
26137.84047719595
 30
0.0
 11
36824.32844832137
 21
27137.83882759713
 31
0.0
  0
LINE
  5
56
330
22
100
AcDbEntity
  8
_0-F_
  6
Continuous
 62
     2
100
AcDbLine
 10
36824.32844832137
 20
26137.84047719595
 30
0.0
 11
39324.32927312079
 21
26137.84047719595
 31
0.0
  0
LINE
  5
57
330
22
100
AcDbEntity
  8
_0-F_
  6
Continuous
 62
     2
100
AcDbLine
 10
2324.327056472367
 20
27137.83882759713
 30
0.0
 11
39324.32927312079
 21
27137.83882759713
 31
0.0
  0
LINE
  5
58
330
22
100
AcDbEntity
  8
_0-F_
  6
Continuous
 62
     2
100
AcDbLine
 10
2324.327056472367
 20
2137.840477195945
 30
0.0
 11
2324.327056472367
 21
27137.83882759713
 31
0.0
  0
LINE
  5
59
330
22
100
AcDbEntity
  8
_0-F_
  6
Continuous
 62
     2
100
AcDbLine
 10
39324.32927312079
 20
2137.840477195945
 30
0.0
 11
2324.327056472367
 21
2137.840477195945
 31
0.0
  0
LINE
  5
5A
330
22
100
AcDbEntity
  8
_0-F_
  6
Continuous
 62
     2
100
AcDbLine
 10
39324.32927312079
 20
27137.83882759713
 30
0.0
 11
39324.32927312079
 21
2137.840477195945
 31
0.0
  0
TEXT
  5
5B
330
22
100
AcDbEntity
  8
_0-F_
 62
     7
100
AcDbText
 10
37424.32762352196
 20
26437.83899255701
 30
0.0
 40
400.0
  1
１２Ｍ
100
AcDbText
  0
LINE
  5
5C
330
22
100
AcDbEntity
  8
_0-0_
  6
Continuous
 62
     3
100
AcDbLine
 10
4938.658843169341
 20
11456.40810344828
 30
0.0
 11
6958.688272012249
 21
11456.40810344828
 31
0.0
  0
LINE
  5
5D
330
22
100
AcDbEntity
  8
_0-0_
  6
Continuous
 62
     4
100
AcDbLine
 10
3662.160100163641
 20
8456.409959246954
 30
0.0
 11
3662.160100163641
 21
23456.4093406474
 31
0.0
  0
LINE
  5
5E
330
22
100
AcDbEntity
  8
_0-0_
  6
Continuous
 62
     7
100
AcDbLine
 10
7137.159192884292
 20
23241.32474922004
 30
0.0
 11
7137.159192884292
 21
23341.33002793625
 31
0.0
  0
LINE
  5
5F
330
22
100
AcDbEntity
  8
_0-0_
  6
Continuous
 62
     7
100
AcDbLine
 10
7137.159192884292
 20
23341.33002793625
 30
0.0
 11
7187.161832242397
 21
23341.33002793625
 31
0.0
  0
LINE
  5
60
330
22
100
AcDbEntity
  8
_0-0_
  6
Continuous
 62
     7
100
AcDbLine
 10
7187.15812064506
 20
23341.33002793625
 30
0.0
 11
7187.15812064506
 21
23241.32474922004
 31
0.0
  0
LINE
  5
61
330
22
100
AcDbEntity
  8
_0-0_
  6
Continuous
 62
     7
100
AcDbLine
 10
7375.615712758655
 20
23321.34183906378
 30
0.0
 11
7375.615712758655
 21
23431.338737818
 31
0.0
  0
LINE
  5
62
330
22
100
AcDbEntity
  8
_0-0_
  6
Continuous
 62
     7
100
AcDbLine
 10
7375.615712758655
 20
23431.338737818
 30
0.0
 11
7575.616372598187
 21
23431.338737818
 31
0.0
  0
LINE
  5
63
330
22
100
AcDbEntity
  8
_0-0_
  6
Continuous
 62
     7
100
AcDbLine
 10
7575.616372598187
 20
23321.34183906378
 30
0.0
 11
7375.615712758655
 21
23321.34183906378
 31
0.0
  0
LINE
  5
64
330
22
100
AcDbEntity
  8
_0-0_
  6
Continuous
 62
     7
100
AcDbLine
 10
6456.01798392631
 20
10956.40830964813
 30
0.0
 11
6456.01798392631
 21
11156.40711368899
 31
0.0
  0
LINE
  5
65
330
22
100
AcDbEntity
  8
_0-0_
  6
Continuous
 62
     7
100
AcDbLine
 10
7868.300566802155
 20
11156.40711368899
 30
0.0
 11
7868.300566802155
 21
10956.40830964813
 31
0.0
  0
LINE
  5
66
330
22
100
AcDbEntity
  8
_0-0_
  6
Continuous
 62
     7
100
AcDbLine
 10
6937.159770243879
 20
11031.40855708796
 30
0.0
 11
6937.159770243879
 21
11081.40748484873
 31
0.0
  0
LINE
  5
67
330
22
100
AcDbEntity
  8
_0-0_
  6
Continuous
 62
     7
100
AcDbLine
 10
6937.159770243879
 20
11081.40748484873
 30
0.0
 11
7387.158780484586
 21
11081.40748484873
 31
0.0
  0
LINE
  5
68
330
22
100
AcDbEntity
  8
_0-0_
  6
Continuous
 62
     7
100
AcDbLine
 10
7387.158780484586
 20
11081.40748484873
 30
0.0
 11
7387.158780484586
 21
11031.40855708796
 31
0.0
  0
LINE
  5
69
330
22
100
AcDbEntity
  8
_0-0_
  6
Continuous
 62
     7
100
AcDbLine
 10
7387.158780484586
 20
11031.40855708796
 30
0.0
 11
6937.159770243879
 21
11031.40855708796
 31
0.0
  0
LINE
  5
6A
330
22
100
AcDbEntity
  8
_0-0_
  6
Continuous
 62
     7
100
AcDbLine
 10
7000.159186285896
 20
23301.32890620905
 30
0.0
 11
7000.159186285896
 21
23401.32923612881
 31
0.0
  0
LINE
  5
6B
330
22
100
AcDbEntity
  8
_0-0_
  6
Continuous
 62
     7
100
AcDbLine
 10
7000.159186285896
 20
23401.32923612881
 30
0.0
 11
7324.158127243453
 21
23401.32923612881
 31
0.0
  0
LINE
  5
6C
330
22
100
AcDbEntity
  8
_0-0_
  6
Continuous
 62
     7
100
AcDbLine
 10
7324.158127243453
 20
23301.32890620905
 30
0.0
 11
7324.158127243453
 21
23401.32923612881
 31
0.0
  0
LINE
  5
6D
330
22
100
AcDbEntity
  8
_0-0_
  6
Continuous
 62
     7
100
AcDbLine
 10
7137.159192884292
 20
23301.32890620905
 30
0.0
 11
7000.159186285896
 21
23301.32890620905
 31
0.0
  0
LINE
  5
6E
330
22
100
AcDbEntity
  8
_0-0_
  6
Continuous
 62
     7
100
AcDbLine
 10
7324.158127243453
 20
23301.32890620905
 30
0.0
 11
7187.15812064506
 21
23301.32890620905
 31
0.0
  0
LINE
  5
6F
330
22
100
AcDbEntity
  8
_0-0_
  6
Continuous
 62
     7
100
AcDbLine
 10
7575.616372598187
 20
23431.338737818
 30
0.0
 11
7575.616372598187
 21
23321.34183906378
 31
0.0
  0
LINE
  5
70
330
22
100
AcDbEntity
  8
_0-0_
  6
Continuous
 62
     7
100
AcDbLine
 10
7000.159186285896
 20
23351.32659677071
 30
0.0
 11
7324.158127243453
 21
23351.32659677071
 31
0.0
  0
LINE
  5
71
330
22
100
AcDbEntity
  8
_0-0_
  6
Continuous
 62
     6
100
AcDbLine
 10
7683.199495882603
 20
11606.04486178865
 30
0.0
 11
7886.946394636822
 21
11606.04486178865
 31
0.0
  0
LINE
  5
72
330
22
100
AcDbEntity
  8
_0-0_
  6
Continuous
 62
     6
100
AcDbLine
 10
7677.714992213896
 20
11506.04453186889
 30
0.0
 11
7882.224005621833
 21
11506.04453186889
 31
0.0
  0
LINE
  5
73
330
22
100
AcDbEntity
  8
_0-0_
  6
Continuous
 62
     6
100
AcDbLine
 10
7112.233342351143
 20
11856.90306557349
 30
0.0
 11
7112.233342351143
 21
12060.65120152683
 31
0.0
  0
LINE
  5
74
330
22
100
AcDbEntity
  8
_0-0_
  6
Continuous
 62
     6
100
AcDbLine
 10
7212.233672270902
 20
11851.4197991039
 30
0.0
 11
7212.233672270902
 21
12055.92881251184
 31
0.0
  0
LINE
  5
75
330
22
100
AcDbEntity
  8
_0-0_
  6
Continuous
 62
     7
100
AcDbLine
 10
7575.616372598187
 20
23421.34216898354
 30
0.0
 11
14748.69887893264
 21
23421.34216898354
 31
0.0
  0
LINE
  5
76
330
22
100
AcDbEntity
  8
_0-0_
  6
Continuous
 62
     7
100
AcDbLine
 10
7575.616372598187
 20
23331.3433566947
 30
0.0
 11
14748.69887893264
 21
23331.3433566947
 31
0.0
  0
LINE
  5
77
330
22
100
AcDbEntity
  8
_0-0_
  6
Continuous
 62
     7
100
AcDbLine
 10
7324.158127243453
 20
23401.32923612881
 30
0.0
 11
7375.615712758655
 21
23421.33722018709
 31
0.0
  0
LINE
  5
78
330
22
100
AcDbEntity
  8
_0-0_
  6
Continuous
 62
     7
100
AcDbLine
 10
7324.158127243453
 20
23351.32659677071
 30
0.0
 11
7375.615712758655
 21
23331.3433566947
 31
0.0
  0
LINE
  5
79
330
22
100
AcDbEntity
  8
_0-0_
  6
Continuous
 62
     3
100
AcDbLine
 10
22958.69157120988
 20
11456.40810344828
 30
0.0
 11
15365.63069111592
 21
11456.40810344828
 31
0.0
  0
LINE
  5
7A
330
22
100
AcDbEntity
  8
_0-0_
  6
Continuous
 62
     3
100
AcDbLine
 10
23365.63110351562
 20
11456.40810344828
 30
0.0
 11
30958.68084881757
 21
11456.40810344828
 31
0.0
  0
LINE
  5
7B
330
22
100
AcDbEntity
  8
_0-0_
  6
Continuous
 62
     7
100
AcDbLine
 10
31385.65310916385
 20
8456.408722047838
 30
0.0
 11
30938.65306957348
 21
8456.408722047838
 31
0.0
  0
LINE
  5
7C
330
22
100
AcDbEntity
  8
_0-0_
  6
Continuous
 62
     7
100
AcDbLine
 10
31272.15741131757
 20
23456.4093406474
 30
0.0
 11
31052.15866501268
 21
23456.4093406474
 31
0.0
  0
LINE
  5
7D
330
22
100
AcDbEntity
  8
_0-0_
  6
Continuous
 62
     7
100
AcDbLine
 10
31868.29932960304
 20
10956.40707244902
 30
0.0
 11
31868.29932960304
 21
11156.40711368899
 31
0.0
  0
LINE
  5
7E
330
22
100
AcDbEntity
  8
_0-0_
  6
Continuous
 62
     7
100
AcDbLine
 10
31368.29768000422
 20
10956.40707244902
 30
0.0
 11
31868.29932960304
 21
10956.40707244902
 31
0.0
  0
LINE
  5
7F
330
22
100
AcDbEntity
  8
_0-0_
  6
Continuous
 62
     7
100
AcDbLine
 10
30456.0167467272
 20
11156.40711368899
 30
0.0
 11
30456.0167467272
 21
10956.40707244902
 31
0.0
  0
LINE
  5
80
330
22
100
AcDbEntity
  8
_0-0_
  6
Continuous
 62
     7
100
AcDbLine
 10
31387.15754328547
 20
11031.40855708796
 30
0.0
 11
31387.15754328547
 21
11081.40872204784
 31
0.0
  0
LINE
  5
81
330
22
100
AcDbEntity
  8
_0-0_
  6
Continuous
 62
     7
100
AcDbLine
 10
31387.15754328547
 20
11081.40872204784
 30
0.0
 11
30937.15853304477
 21
11081.40872204784
 31
0.0
  0
LINE
  5
82
330
22
100
AcDbEntity
  8
_0-0_
  6
Continuous
 62
     7
100
AcDbLine
 10
30937.15853304477
 20
11081.40872204784
 30
0.0
 11
30937.15853304477
 21
11031.40855708796
 31
0.0
  0
LINE
  5
83
330
22
100
AcDbEntity
  8
_0-0_
  6
Continuous
 62
     7
100
AcDbLine
 10
30937.15853304477
 20
11031.40855708796
 30
0.0
 11
31387.15754328547
 21
11031.40855708796
 31
0.0
  0
LINE
  5
84
330
22
100
AcDbEntity
  8
_0-0_
  6
Continuous
 62
     7
100
AcDbLine
 10
30456.0167467272
 20
10956.40707244902
 30
0.0
 11
30956.01344752957
 21
10956.40707244902
 31
0.0
  0
LINE
  5
85
330
22
100
AcDbEntity
  8
_0-0_
  6
Continuous
 62
     7
100
AcDbLine
 10
30956.68153505068
 20
11156.40711368899
 30
0.0
 11
30456.0167467272
 21
11156.40711368899
 31
0.0
  0
LINE
  5
86
330
22
100
AcDbEntity
  8
_0-0_
  6
Continuous
 62
     7
100
AcDbLine
 10
31868.29932960304
 20
11156.40711368899
 30
0.0
 11
31367.62959248311
 21
11156.40711368899
 31
0.0
  0
LINE
  5
87
330
22
100
AcDbEntity
  8
_0-9_
  6
Continuous
 62
     4
100
AcDbLine
 10
7162.161749762458
 20
5956.408206548211
 30
0.0
 11
31162.1555637669
 21
5956.408206548211
 31
0.0
  0
LINE
  5
88
330
22
100
AcDbEntity
  8
_0-9_
  6
Continuous
 62
     4
100
AcDbLine
 10
7162.161749762458
 20
7010.461951302487
 30
0.0
 11
7162.161749762458
 21
5956.408206548211
 31
0.0
  0
LINE
  5
89
330
22
100
AcDbEntity
  8
_0-9_
  6
Continuous
 62
     4
100
AcDbLine
 10
15162.15721336571
 20
7010.461951302487
 30
0.0
 11
15162.15721336571
 21
5956.408206548211
 31
0.0
  0
LINE
  5
8A
330
22
100
AcDbEntity
  8
_0-9_
  6
Continuous
 62
     4
100
AcDbLine
 10
23162.15638856631
 20
7010.461951302487
 30
0.0
 11
23162.15638856631
 21
5956.408206548211
 31
0.0
  0
LINE
  5
8B
330
22
100
AcDbEntity
  8
_0-9_
  6
Continuous
 62
     4
100
AcDbLine
 10
31162.1555637669
 20
7010.461951302487
 30
0.0
 11
31162.1555637669
 21
5956.408206548211
 31
0.0
  0
LINE
  5
8C
330
22
100
AcDbEntity
  8
_0-2_
  6
Continuous
 62
     7
100
AcDbLine
 10
30938.65306957348
 20
8456.408722047838
 30
0.0
 11
30958.14143000422
 21
11031.40979428707
 31
0.0
  0
LINE
  5
8D
330
22
100
AcDbEntity
  8
_0-2_
  6
Continuous
 62
     7
100
AcDbLine
 10
31366.16969752957
 20
11031.40855708796
 30
0.0
 11
31385.65310916385
 21
8456.408722047838
 31
0.0
  0
LINE
  5
8E
330
22
100
AcDbEntity
  8
_0-0_
  6
Continuous
 62
     3
100
AcDbLine
 10
22958.68167361697
 20
11456.40686624917
 30
0.0
 11
20365.62615471917
 21
11456.40686624917
 31
0.0
  0
LINE
  5
8F
330
22
100
AcDbEntity
  8
_0-0_
  6
Continuous
 62
     7
100
AcDbLine
 10
23385.65888275971
 20
8456.406247649615
 30
0.0
 11
22938.65884316935
 21
8456.406247649615
 31
0.0
  0
LINE
  5
90
330
22
100
AcDbEntity
  8
_0-0_
  6
Continuous
 62
     7
100
AcDbLine
 10
23272.15823611697
 20
23456.40439185095
 30
0.0
 11
23052.15948981208
 21
23456.40439185095
 31
0.0
  0
LINE
  5
91
330
22
100
AcDbEntity
  8
_0-0_
  6
Continuous
 62
     7
100
AcDbLine
 10
23868.30015440244
 20
10956.40459805079
 30
0.0
 11
23868.30015440244
 21
11156.40463929077
 31
0.0
  0
LINE
  5
92
330
22
100
AcDbEntity
  8
_0-0_
  6
Continuous
 62
     7
100
AcDbLine
 10
23368.30345360008
 20
10956.40459805079
 30
0.0
 11
23868.30015440244
 21
10956.40459805079
 31
0.0
  0
LINE
  5
93
330
22
100
AcDbEntity
  8
_0-0_
  6
Continuous
 62
     7
100
AcDbLine
 10
22456.01757152661
 20
11156.40463929077
 30
0.0
 11
22456.01757152661
 21
10956.40459805079
 31
0.0
  0
LINE
  5
94
330
22
100
AcDbEntity
  8
_0-0_
  6
Continuous
 62
     7
100
AcDbLine
 10
23387.15836808488
 20
11031.40608268973
 30
0.0
 11
23387.15836808488
 21
11081.40624764961
 31
0.0
  0
LINE
  5
95
330
22
100
AcDbEntity
  8
_0-0_
  6
Continuous
 62
     7
100
AcDbLine
 10
23387.15836808488
 20
11081.40624764961
 30
0.0
 11
22937.15935784417
 21
11081.40624764961
 31
0.0
  0
LINE
  5
96
330
22
100
AcDbEntity
  8
_0-0_
  6
Continuous
 62
     7
100
AcDbLine
 10
22937.15935784417
 20
11081.40624764961
 30
0.0
 11
22937.15935784417
 21
11031.40608268973
 31
0.0
  0
LINE
  5
97
330
22
100
AcDbEntity
  8
_0-0_
  6
Continuous
 62
     7
100
AcDbLine
 10
22937.15935784417
 20
11031.40608268973
 30
0.0
 11
23387.15836808488
 21
11031.40608268973
 31
0.0
  0
LINE
  5
98
330
22
100
AcDbEntity
  8
_0-0_
  6
Continuous
 62
     7
100
AcDbLine
 10
22456.01757152661
 20
10956.40459805079
 30
0.0
 11
22956.01922112543
 21
10956.40459805079
 31
0.0
  0
LINE
  5
99
330
22
100
AcDbEntity
  8
_0-0_
  6
Continuous
 62
     7
100
AcDbLine
 10
22956.68730864654
 20
11156.40463929077
 30
0.0
 11
22456.01757152661
 21
11156.40463929077
 31
0.0
  0
LINE
  5
9A
330
22
100
AcDbEntity
  8
_0-0_
  6
Continuous
 62
     7
100
AcDbLine
 10
23868.30015440244
 20
11156.40463929077
 30
0.0
 11
23367.63536607897
 21
11156.40463929077
 31
0.0
  0
LINE
  5
9B
330
22
100
AcDbEntity
  8
_0-2_
  6
Continuous
 62
     7
100
AcDbLine
 10
22938.65884316935
 20
8456.406247649615
 30
0.0
 11
22958.14225480363
 21
11031.40731988884
 31
0.0
  0
LINE
  5
9C
330
22
100
AcDbEntity
  8
_0-2_
  6
Continuous
 62
     7
100
AcDbLine
 10
23366.17547112543
 20
11031.40608268973
 30
0.0
 11
23385.65888275971
 21
8456.406247649615
 31
0.0
  0
LINE
  5
9D
330
22
100
AcDbEntity
  8
_0-2_
  6
Continuous
 62
     7
100
AcDbLine
 10
23028.75663138725
 20
20363.43753888959
 30
0.0
 11
23027.99946552998
 21
20263.43968336805
 31
0.0
  0
LINE
  5
9E
330
22
100
AcDbEntity
  8
_0-2_
  6
Continuous
 62
     7
100
AcDbLine
 10
23295.56109454181
 20
20363.43753888959
 30
0.0
 11
23296.31826039907
 21
20263.43968336805
 31
0.0
  0
LINE
  5
9F
330
22
100
AcDbEntity
  8
_0-0_
  6
Continuous
 62
     3
100
AcDbLine
 10
14958.68249841638
 20
11456.40934064739
 30
0.0
 11
12365.62697951858
 21
11456.40934064739
 31
0.0
  0
LINE
  5
A0
330
22
100
AcDbEntity
  8
_0-0_
  6
Continuous
 62
     7
100
AcDbLine
 10
15385.65723316089
 20
8456.408722047838
 30
0.0
 11
14938.65719357052
 21
8456.408722047838
 31
0.0
  0
LINE
  5
A1
330
22
100
AcDbEntity
  8
_0-0_
  6
Continuous
 62
     7
100
AcDbLine
 10
15272.15906091638
 20
23456.4093406474
 30
0.0
 11
15052.16031461148
 21
23456.4093406474
 31
0.0
  0
LINE
  5
A2
330
22
100
AcDbEntity
  8
_0-0_
  6
Continuous
 62
     7
100
AcDbLine
 10
15868.30097920186
 20
10956.40707244902
 30
0.0
 11
15868.30097920186
 21
11156.40711368899
 31
0.0
  0
LINE
  5
A3
330
22
100
AcDbEntity
  8
_0-0_
  6
Continuous
 62
     7
100
AcDbLine
 10
15368.30180400126
 20
10956.40707244902
 30
0.0
 11
15868.30097920186
 21
10956.40707244902
 31
0.0
  0
LINE
  5
A4
330
22
100
AcDbEntity
  8
_0-0_
  6
Continuous
 62
     7
100
AcDbLine
 10
14456.01839632601
 20
11156.40711368899
 30
0.0
 11
14456.01839632601
 21
10956.40707244902
 31
0.0
  0
LINE
  5
A5
330
22
100
AcDbEntity
  8
_0-0_
  6
Continuous
 62
     7
100
AcDbLine
 10
15387.15919288429
 20
11031.40855708796
 30
0.0
 11
15387.15919288429
 21
11081.40872204784
 31
0.0
  0
LINE
  5
A6
330
22
100
AcDbEntity
  8
_0-0_
  6
Continuous
 62
     7
100
AcDbLine
 10
15387.15919288429
 20
11081.40872204784
 30
0.0
 11
14937.16018264358
 21
11081.40872204784
 31
0.0
  0
LINE
  5
A7
330
22
100
AcDbEntity
  8
_0-0_
  6
Continuous
 62
     7
100
AcDbLine
 10
14937.16018264358
 20
11081.40872204784
 30
0.0
 11
14937.16018264358
 21
11031.40855708796
 31
0.0
  0
LINE
  5
A8
330
22
100
AcDbEntity
  8
_0-0_
  6
Continuous
 62
     7
100
AcDbLine
 10
14937.16018264358
 20
11031.40855708796
 30
0.0
 11
15387.15919288429
 21
11031.40855708796
 31
0.0
  0
LINE
  5
A9
330
22
100
AcDbEntity
  8
_0-0_
  6
Continuous
 62
     7
100
AcDbLine
 10
14456.01839632601
 20
10956.40707244902
 30
0.0
 11
14956.01757152661
 21
10956.40707244902
 31
0.0
  0
LINE
  5
AA
330
22
100
AcDbEntity
  8
_0-0_
  6
Continuous
 62
     7
100
AcDbLine
 10
14956.68565904772
 20
11156.40711368899
 30
0.0
 11
14456.01839632601
 21
11156.40711368899
 31
0.0
  0
LINE
  5
AB
330
22
100
AcDbEntity
  8
_0-0_
  6
Continuous
 62
     7
100
AcDbLine
 10
15868.30097920186
 20
11156.40711368899
 30
0.0
 11
15367.63371648015
 21
11156.40711368899
 31
0.0
  0
LINE
  5
AC
330
22
100
AcDbEntity
  8
_0-0_
  6
Continuous
 62
     7
100
AcDbLine
 10
15324.15853964316
 20
23301.32890620905
 30
0.0
 11
15324.15853964316
 21
23401.32923612881
 31
0.0
  0
LINE
  5
AD
330
22
100
AcDbEntity
  8
_0-0_
  6
Continuous
 62
     7
100
AcDbLine
 10
15324.15853964316
 20
23401.32923612881
 30
0.0
 11
15000.16083588471
 21
23401.32923612881
 31
0.0
  0
LINE
  5
AE
330
22
100
AcDbEntity
  8
_0-0_
  6
Continuous
 62
     7
100
AcDbLine
 10
15000.16083588471
 20
23301.32890620905
 30
0.0
 11
15000.16083588471
 21
23401.32923612881
 31
0.0
  0
LINE
  5
AF
330
22
100
AcDbEntity
  8
_0-0_
  6
Continuous
 62
     7
100
AcDbLine
 10
15324.15853964316
 20
23351.32659677071
 30
0.0
 11
15000.16083588471
 21
23351.32659677071
 31
0.0
  0
LINE
  5
B0
330
22
100
AcDbEntity
  8
_0-0_
  6
Continuous
 62
     7
100
AcDbLine
 10
15187.16100744299
 20
23241.32474922004
 30
0.0
 11
15187.16100744299
 21
23341.33002793625
 31
0.0
  0
LINE
  5
B1
330
22
100
AcDbEntity
  8
_0-0_
  6
Continuous
 62
     7
100
AcDbLine
 10
15187.16100744299
 20
23341.33002793625
 30
0.0
 11
15137.15836808488
 21
23341.33002793625
 31
0.0
  0
LINE
  5
B2
330
22
100
AcDbEntity
  8
_0-0_
  6
Continuous
 62
     7
100
AcDbLine
 10
15137.15836808488
 20
23341.33002793625
 30
0.0
 11
15137.15836808488
 21
23241.32474922004
 31
0.0
  0
LINE
  5
B3
330
22
100
AcDbEntity
  8
_0-0_
  6
Continuous
 62
     7
100
AcDbLine
 10
15137.15713088577
 20
23241.32474922004
 30
0.0
 11
15187.16100744299
 21
23241.32474922004
 31
0.0
  0
LINE
  5
B4
330
22
100
AcDbEntity
  8
_0-0_
  6
Continuous
 62
     7
100
AcDbLine
 10
15187.16100744299
 20
23301.32890620905
 30
0.0
 11
15324.15853964316
 21
23301.32890620905
 31
0.0
  0
LINE
  5
B5
330
22
100
AcDbEntity
  8
_0-0_
  6
Continuous
 62
     7
100
AcDbLine
 10
15000.16083588471
 20
23301.32890620905
 30
0.0
 11
15137.15836808488
 21
23301.32890620905
 31
0.0
  0
LINE
  5
B6
330
22
100
AcDbEntity
  8
_0-2_
  6
Continuous
 62
     7
100
AcDbLine
 10
14938.65719357052
 20
8456.408722047838
 30
0.0
 11
14958.14307960304
 21
11031.40979428707
 31
0.0
  0
LINE
  5
B7
330
22
100
AcDbEntity
  8
_0-2_
  6
Continuous
 62
     7
100
AcDbLine
 10
15366.17382152661
 20
11031.40855708796
 30
0.0
 11
15385.65723316089
 21
8456.408722047838
 31
0.0
  0
LINE
  5
B8
330
22
100
AcDbEntity
  8
_0-2_
  6
Continuous
 62
     7
100
AcDbLine
 10
15028.75498178843
 20
20363.44001328781
 30
0.0
 11
15028.00029032939
 21
20263.44215776628
 31
0.0
  0
LINE
  5
B9
330
22
100
AcDbEntity
  8
_0-2_
  6
Continuous
 62
     7
100
AcDbLine
 10
15295.56191934122
 20
20363.44001328781
 30
0.0
 11
15296.31908519848
 21
20263.44215776628
 31
0.0
  0
LINE
  5
BA
330
22
100
AcDbEntity
  8
_0-0_
  6
Continuous
 62
     7
100
AcDbLine
 10
14948.69953877216
 20
23321.34183906378
 30
0.0
 11
14948.69953877216
 21
23431.338737818
 31
0.0
  0
LINE
  5
BB
330
22
100
AcDbEntity
  8
_0-0_
  6
Continuous
 62
     7
100
AcDbLine
 10
14948.69953877216
 20
23431.338737818
 30
0.0
 11
14748.69887893264
 21
23431.338737818
 31
0.0
  0
LINE
  5
BC
330
22
100
AcDbEntity
  8
_0-0_
  6
Continuous
 62
     7
100
AcDbLine
 10
14748.69887893264
 20
23321.34183906378
 30
0.0
 11
14948.69953877216
 21
23321.34183906378
 31
0.0
  0
LINE
  5
BD
330
22
100
AcDbEntity
  8
_0-0_
  6
Continuous
 62
     7
100
AcDbLine
 10
15000.15712428737
 20
23301.32890620905
 30
0.0
 11
15000.15712428737
 21
23401.32923612881
 31
0.0
  0
LINE
  5
BE
330
22
100
AcDbEntity
  8
_0-0_
  6
Continuous
 62
     7
100
AcDbLine
 10
14748.69887893264
 20
23431.338737818
 30
0.0
 11
14748.69887893264
 21
23321.34183906378
 31
0.0
  0
LINE
  5
BF
330
22
100
AcDbEntity
  8
_0-0_
  6
Continuous
 62
     7
100
AcDbLine
 10
15000.15712428737
 20
23401.32923612881
 30
0.0
 11
14948.69953877216
 21
23421.33722018709
 31
0.0
  0
LINE
  5
C0
330
22
100
AcDbEntity
  8
_0-0_
  6
Continuous
 62
     7
100
AcDbLine
 10
15000.15712428737
 20
23351.32659677071
 30
0.0
 11
14948.69953877216
 21
23331.3433566947
 31
0.0
  0
LINE
  5
C1
330
22
100
AcDbEntity
  8
_0-0_
  6
Continuous
 62
     7
100
AcDbLine
 10
7272.159885715793
 20
23456.4093406474
 30
0.0
 11
7052.161139410896
 21
23456.4093406474
 31
0.0
  0
LINE
  5
C2
330
22
100
AcDbEntity
  8
_0-0_
  6
Continuous
 62
     7
100
AcDbLine
 10
7385.658057960306
 20
8456.408722047838
 30
0.0
 11
6938.658018369932
 21
8456.408722047838
 31
0.0
  0
LINE
  5
C3
330
22
100
AcDbEntity
  8
_0-2_
  6
Continuous
 62
     7
100
AcDbLine
 10
6958.142667203336
 20
11031.40855708796
 30
0.0
 11
6938.656781170816
 21
8456.408722047838
 31
0.0
  0
LINE
  5
C4
330
22
100
AcDbEntity
  8
_0-2_
  6
Continuous
 62
     7
100
AcDbLine
 10
7385.658057960306
 20
8456.408722047838
 30
0.0
 11
7366.173409126901
 21
11031.40855708796
 31
0.0
  0
LINE
  5
C5
330
22
100
AcDbEntity
  8
_0-0_
  6
Continuous
 62
     7
100
AcDbLine
 10
6957.576030009504
 20
10956.40830964813
 30
0.0
 11
6456.01798392631
 21
10956.40830964813
 31
0.0
  0
LINE
  5
C6
330
22
100
AcDbEntity
  8
_0-0_
  6
Continuous
 62
     7
100
AcDbLine
 10
7868.300566802155
 20
10956.40830964813
 30
0.0
 11
7366.742520718959
 21
10956.40830964813
 31
0.0
  0
LINE
  5
C7
330
22
100
AcDbEntity
  8
_0-0_
  6
Continuous
 62
     7
100
AcDbLine
 10
6456.01798392631
 20
11156.40711368899
 30
0.0
 11
6959.087887325802
 21
11156.40711368899
 31
0.0
  0
LINE
  5
C8
330
22
100
AcDbEntity
  8
_0-0_
  6
Continuous
 62
     7
100
AcDbLine
 10
7365.228189004435
 20
11156.40711368899
 30
0.0
 11
7868.300566802155
 21
11156.40711368899
 31
0.0
  0
LINE
  5
C9
330
22
100
AcDbEntity
  8
_0-0_
  6
Continuous
 62
     4
100
AcDbLine
 10
3162.157831965265
 20
23456.4093406474
 30
0.0
 11
3162.157831965265
 21
8456.409959246954
 31
0.0
  0
LINE
  5
CA
330
22
100
AcDbEntity
  8
ADD_LINE
  6
DOT
 62
     6
100
AcDbLine
 10
14959.44585026921
 20
11456.04436690901
 30
0.0
 11
7354.166391733532
 21
11456.04436690901
 31
0.0
  0
LINE
  5
CB
330
22
100
AcDbEntity
  8
_0-2_
  6
Continuous
 62
     7
100
AcDbLine
 10
23000.16248548353
 20
23306.07232760897
 30
0.0
 11
23000.16248548353
 21
23406.07265752873
 31
0.0
  0
LINE
  5
CC
330
22
100
AcDbEntity
  8
_0-2_
  6
Continuous
 62
     7
100
AcDbLine
 10
23000.16248548353
 20
23406.07265752873
 30
0.0
 11
23324.16018924197
 21
23406.07265752873
 31
0.0
  0
LINE
  5
CD
330
22
100
AcDbEntity
  8
_0-2_
  6
Continuous
 62
     7
100
AcDbLine
 10
23324.16018924197
 20
23406.07265752873
 30
0.0
 11
23324.16018924197
 21
23306.07232760897
 31
0.0
  0
LINE
  5
CE
330
22
100
AcDbEntity
  8
_0-2_
  6
Continuous
 62
     7
100
AcDbLine
 10
31000.15671188768
 20
23306.36678099791
 30
0.0
 11
31000.15671188768
 21
23406.36711091767
 31
0.0
  0
LINE
  5
CF
330
22
100
AcDbEntity
  8
_0-2_
  6
Continuous
 62
     7
100
AcDbLine
 10
31324.15441564612
 20
23406.36711091767
 30
0.0
 11
31324.15441564612
 21
23306.36678099791
 31
0.0
  0
LINE
  5
D0
330
22
100
AcDbEntity
  8
_0-2_
  6
Continuous
 62
     7
100
AcDbLine
 10
31124.65358424832
 20
19480.91248148354
 30
0.0
 11
31199.65259448902
 21
19480.91248148354
 31
0.0
  0
LINE
  5
D1
330
22
100
AcDbEntity
  8
_0-2_
  6
Continuous
 62
     7
100
AcDbLine
 10
31124.65358424832
 20
19480.91248148354
 30
0.0
 11
31124.65358424832
 21
19330.9119866039
 31
0.0
  0
LINE
  5
D2
330
22
100
AcDbEntity
  8
_0-2_
  6
Continuous
 62
     7
100
AcDbLine
 10
31124.65358424832
 20
19330.9119866039
 30
0.0
 11
31199.65259448902
 21
19330.9119866039
 31
0.0
  0
LINE
  5
D3
330
22
100
AcDbEntity
  8
_0-2_
  6
Continuous
 62
     7
100
AcDbLine
 10
31199.65259448902
 20
19480.91248148354
 30
0.0
 11
31199.65259448902
 21
19330.9119866039
 31
0.0
  0
LINE
  5
D4
330
22
100
AcDbEntity
  8
ADD_LINE
  6
DOT
 62
     7
100
AcDbLine
 10
31162.1555637669
 20
19561.39352099473
 30
0.0
 11
31162.1555637669
 21
19298.90440834693
 31
0.0
  0
LINE
  5
D5
330
22
100
AcDbEntity
  8
_0-2_
  6
Continuous
 62
     7
100
AcDbLine
 10
30971.65659311657
 20
19405.91223404372
 30
0.0
 11
31124.65358424832
 21
19405.91223404372
 31
0.0
  0
LINE
  5
D6
330
22
100
AcDbEntity
  8
_0-2_
  6
Continuous
 62
     7
100
AcDbLine
 10
30971.65659311657
 20
19505.91256396348
 30
0.0
 11
31352.65453441723
 21
19505.91256396348
 31
0.0
  0
LINE
  5
D7
330
22
100
AcDbEntity
  8
_0-2_
  6
Continuous
 62
     7
100
AcDbLine
 10
31352.65453441723
 20
19405.91223404372
 30
0.0
 11
31199.65259448902
 21
19405.91223404372
 31
0.0
  0
LINE
  5
D8
330
22
100
AcDbEntity
  8
_0-2_
  6
Continuous
 62
     7
100
AcDbLine
 10
30971.65659311657
 20
19505.91256396348
 30
0.0
 11
30971.65659311657
 21
19405.91223404372
 31
0.0
  0
LINE
  5
D9
330
22
100
AcDbEntity
  8
_0-2_
  6
Continuous
 62
     7
100
AcDbLine
 10
31352.65453441723
 20
19505.91256396348
 30
0.0
 11
31352.65453441723
 21
19405.91223404372
 31
0.0
  0
LINE
  5
DA
330
22
100
AcDbEntity
  8
_0-2_
  6
Continuous
 62
     7
100
AcDbLine
 10
23124.65935784417
 20
19480.91248148354
 30
0.0
 11
23199.65836808488
 21
19480.91248148354
 31
0.0
  0
LINE
  5
DB
330
22
100
AcDbEntity
  8
_0-2_
  6
Continuous
 62
     7
100
AcDbLine
 10
23124.65935784417
 20
19480.91248148354
 30
0.0
 11
23124.65935784417
 21
19330.9119866039
 31
0.0
  0
LINE
  5
DC
330
22
100
AcDbEntity
  8
_0-2_
  6
Continuous
 62
     7
100
AcDbLine
 10
23124.65935784417
 20
19330.9119866039
 30
0.0
 11
23199.65836808488
 21
19330.9119866039
 31
0.0
  0
LINE
  5
DD
330
22
100
AcDbEntity
  8
_0-2_
  6
Continuous
 62
     7
100
AcDbLine
 10
23199.65836808488
 20
19480.91248148354
 30
0.0
 11
23199.65836808488
 21
19330.9119866039
 31
0.0
  0
LINE
  5
DE
330
22
100
AcDbEntity
  8
_0-2_
  6
Continuous
 62
     7
100
AcDbLine
 10
22971.66236671241
 20
19405.91223404372
 30
0.0
 11
23124.65935784417
 21
19405.91223404372
 31
0.0
  0
LINE
  5
DF
330
22
100
AcDbEntity
  8
_0-2_
  6
Continuous
 62
     7
100
AcDbLine
 10
22971.66236671241
 20
19505.91256396348
 30
0.0
 11
23352.66030801308
 21
19505.91256396348
 31
0.0
  0
LINE
  5
E0
330
22
100
AcDbEntity
  8
_0-2_
  6
Continuous
 62
     7
100
AcDbLine
 10
23352.66030801308
 20
19405.91223404372
 30
0.0
 11
23199.65836808488
 21
19405.91223404372
 31
0.0
  0
LINE
  5
E1
330
22
100
AcDbEntity
  8
_0-2_
  6
Continuous
 62
     7
100
AcDbLine
 10
22971.66236671241
 20
19505.91256396348
 30
0.0
 11
22971.66236671241
 21
19405.91223404372
 31
0.0
  0
LINE
  5
E2
330
22
100
AcDbEntity
  8
_0-2_
  6
Continuous
 62
     7
100
AcDbLine
 10
23352.66030801308
 20
19505.91256396348
 30
0.0
 11
23352.66030801308
 21
19405.91223404372
 31
0.0
  0
LINE
  5
E3
330
22
100
AcDbEntity
  8
_0-2_
  6
Continuous
 62
     7
100
AcDbLine
 10
15124.65770824535
 20
19480.91248148354
 30
0.0
 11
15199.65671848606
 21
19480.91248148354
 31
0.0
  0
LINE
  5
E4
330
22
100
AcDbEntity
  8
_0-2_
  6
Continuous
 62
     7
100
AcDbLine
 10
15124.65770824535
 20
19330.9119866039
 30
0.0
 11
15199.65671848606
 21
19330.9119866039
 31
0.0
  0
LINE
  5
E5
330
22
100
AcDbEntity
  8
_0-2_
  6
Continuous
 62
     7
100
AcDbLine
 10
15199.65671848606
 20
19480.91248148354
 30
0.0
 11
15199.65671848606
 21
19330.9119866039
 31
0.0
  0
LINE
  5
E6
330
22
100
AcDbEntity
  8
_0-2_
  6
Continuous
 62
     7
100
AcDbLine
 10
14971.6607171136
 20
19405.91223404372
 30
0.0
 11
15124.65770824535
 21
19405.91223404372
 31
0.0
  0
LINE
  5
E7
330
22
100
AcDbEntity
  8
_0-2_
  6
Continuous
 62
     7
100
AcDbLine
 10
14971.6607171136
 20
19505.91256396348
 30
0.0
 11
15352.65865841427
 21
19505.91256396348
 31
0.0
  0
LINE
  5
E8
330
22
100
AcDbEntity
  8
_0-2_
  6
Continuous
 62
     7
100
AcDbLine
 10
15352.65865841427
 20
19405.91223404372
 30
0.0
 11
15199.65671848606
 21
19405.91223404372
 31
0.0
  0
LINE
  5
E9
330
22
100
AcDbEntity
  8
_0-2_
  6
Continuous
 62
     7
100
AcDbLine
 10
14971.6607171136
 20
19505.91256396348
 30
0.0
 11
14971.6607171136
 21
19405.91223404372
 31
0.0
  0
LINE
  5
EA
330
22
100
AcDbEntity
  8
_0-2_
  6
Continuous
 62
     7
100
AcDbLine
 10
15352.65865841427
 20
19505.91256396348
 30
0.0
 11
15352.65865841427
 21
19405.91223404372
 31
0.0
  0
LINE
  5
EB
330
22
100
AcDbEntity
  8
_0-2_
  6
Continuous
 62
     7
100
AcDbLine
 10
7124.658533044764
 20
19480.91248148354
 30
0.0
 11
7199.657543285474
 21
19480.91248148354
 31
0.0
  0
LINE
  5
EC
330
22
100
AcDbEntity
  8
_0-2_
  6
Continuous
 62
     7
100
AcDbLine
 10
7124.658533044764
 20
19480.91248148354
 30
0.0
 11
7124.658533044764
 21
19330.9119866039
 31
0.0
  0
LINE
  5
ED
330
22
100
AcDbEntity
  8
_0-2_
  6
Continuous
 62
     7
100
AcDbLine
 10
7124.658533044764
 20
19330.9119866039
 30
0.0
 11
7199.657543285474
 21
19330.9119866039
 31
0.0
  0
LINE
  5
EE
330
22
100
AcDbEntity
  8
_0-2_
  6
Continuous
 62
     7
100
AcDbLine
 10
7199.657543285474
 20
19480.91248148354
 30
0.0
 11
7199.657543285474
 21
19330.9119866039
 31
0.0
  0
LINE
  5
EF
330
22
100
AcDbEntity
  8
_0-2_
  6
Continuous
 62
     7
100
AcDbLine
 10
6971.661541913007
 20
19405.91223404372
 30
0.0
 11
7124.658533044764
 21
19405.91223404372
 31
0.0
  0
LINE
  5
F0
330
22
100
AcDbEntity
  8
_0-2_
  6
Continuous
 62
     7
100
AcDbLine
 10
6971.661541913007
 20
19505.91256396348
 30
0.0
 11
7352.659483213682
 21
19505.91256396348
 31
0.0
  0
LINE
  5
F1
330
22
100
AcDbEntity
  8
_0-2_
  6
Continuous
 62
     7
100
AcDbLine
 10
7352.659483213682
 20
19405.91223404372
 30
0.0
 11
7199.657543285474
 21
19405.91223404372
 31
0.0
  0
LINE
  5
F2
330
22
100
AcDbEntity
  8
_0-2_
  6
Continuous
 62
     7
100
AcDbLine
 10
6971.661541913007
 20
19505.91256396348
 30
0.0
 11
6971.661541913007
 21
19405.91223404372
 31
0.0
  0
LINE
  5
F3
330
22
100
AcDbEntity
  8
_0-2_
  6
Continuous
 62
     7
100
AcDbLine
 10
7352.659483213682
 20
19505.91256396348
 30
0.0
 11
7352.659483213682
 21
19405.91223404372
 31
0.0
  0
LINE
  5
F4
330
22
100
AcDbEntity
  8
_0-0_
  6
Continuous
 62
     3
100
AcDbLine
 10
31365.62532991977
 20
11456.41181504562
 30
0.0
 11
34162.15556376689
 21
11456.41181504562
 31
0.0
  0
LINE
  5
F5
330
22
100
AcDbEntity
  8
_0-2_
  6
Continuous
 62
     7
100
AcDbLine
 10
7124.658533044764
 20
15580.9119866039
 30
0.0
 11
7199.657543285474
 21
15580.9119866039
 31
0.0
  0
LINE
  5
F6
330
22
100
AcDbEntity
  8
_0-2_
  6
Continuous
 62
     7
100
AcDbLine
 10
7124.658533044764
 20
15580.9119866039
 30
0.0
 11
7124.658533044764
 21
15430.91149172425
 31
0.0
  0
LINE
  5
F7
330
22
100
AcDbEntity
  8
_0-2_
  6
Continuous
 62
     7
100
AcDbLine
 10
7124.658533044764
 20
15430.91149172425
 30
0.0
 11
7199.657543285474
 21
15430.91149172425
 31
0.0
  0
LINE
  5
F8
330
22
100
AcDbEntity
  8
_0-2_
  6
Continuous
 62
     7
100
AcDbLine
 10
6944.268716348185
 20
15605.91206908384
 30
0.0
 11
7380.04735998205
 21
15605.91206908384
 31
0.0
  0
LINE
  5
F9
330
22
100
AcDbEntity
  8
_0-2_
  6
Continuous
 62
     7
100
AcDbLine
 10
6944.268716348185
 20
15605.91206908384
 30
0.0
 11
6944.268716348185
 21
15505.91173916408
 31
0.0
  0
LINE
  5
FA
330
22
100
AcDbEntity
  8
_0-2_
  6
Continuous
 62
     7
100
AcDbLine
 10
6944.268716348185
 20
15505.91173916408
 30
0.0
 11
7124.658533044764
 21
15505.91173916408
 31
0.0
  0
LINE
  5
FB
330
22
100
AcDbEntity
  8
_0-2_
  6
Continuous
 62
     7
100
AcDbLine
 10
7380.04735998205
 20
15605.91206908384
 30
0.0
 11
7380.04735998205
 21
15505.91173916408
 31
0.0
  0
LINE
  5
FC
330
22
100
AcDbEntity
  8
_0-2_
  6
Continuous
 62
     7
100
AcDbLine
 10
7380.04735998205
 20
15505.91173916408
 30
0.0
 11
7199.657543285474
 21
15505.91173916408
 31
0.0
  0
LINE
  5
FD
330
22
100
AcDbEntity
  8
_0-2_
  6
Continuous
 62
     7
100
AcDbLine
 10
15124.65770824535
 20
15580.9119866039
 30
0.0
 11
15199.65671848606
 21
15580.9119866039
 31
0.0
  0
LINE
  5
FE
330
22
100
AcDbEntity
  8
_0-2_
  6
Continuous
 62
     7
100
AcDbLine
 10
15124.65770824535
 20
15580.9119866039
 30
0.0
 11
15124.65770824535
 21
15430.91149172425
 31
0.0
  0
LINE
  5
FF
330
22
100
AcDbEntity
  8
_0-2_
  6
Continuous
 62
     7
100
AcDbLine
 10
15124.65770824535
 20
15430.91149172425
 30
0.0
 11
15199.65671848606
 21
15430.91149172425
 31
0.0
  0
LINE
  5
100
330
22
100
AcDbEntity
  8
_0-2_
  6
Continuous
 62
     7
100
AcDbLine
 10
15199.65671848606
 20
15580.9119866039
 30
0.0
 11
15199.65671848606
 21
15430.91149172425
 31
0.0
  0
LINE
  5
101
330
22
100
AcDbEntity
  8
_0-2_
  6
Continuous
 62
     7
100
AcDbLine
 10
14944.26789154878
 20
15605.91206908384
 30
0.0
 11
15380.04653518264
 21
15605.91206908384
 31
0.0
  0
LINE
  5
102
330
22
100
AcDbEntity
  8
_0-2_
  6
Continuous
 62
     7
100
AcDbLine
 10
14944.26789154878
 20
15605.91206908384
 30
0.0
 11
14944.26789154878
 21
15505.91173916408
 31
0.0
  0
LINE
  5
103
330
22
100
AcDbEntity
  8
_0-2_
  6
Continuous
 62
     7
100
AcDbLine
 10
14944.26789154878
 20
15505.91173916408
 30
0.0
 11
15124.65770824535
 21
15505.91173916408
 31
0.0
  0
LINE
  5
104
330
22
100
AcDbEntity
  8
_0-2_
  6
Continuous
 62
     7
100
AcDbLine
 10
15380.04653518264
 20
15605.91206908384
 30
0.0
 11
15380.04653518264
 21
15505.91173916408
 31
0.0
  0
LINE
  5
105
330
22
100
AcDbEntity
  8
_0-2_
  6
Continuous
 62
     7
100
AcDbLine
 10
15380.04653518264
 20
15505.91173916408
 30
0.0
 11
15199.65671848606
 21
15505.91173916408
 31
0.0
  0
LINE
  5
106
330
22
100
AcDbEntity
  8
_0-2_
  6
Continuous
 62
     7
100
AcDbLine
 10
23124.65440904772
 20
15580.9119866039
 30
0.0
 11
23199.65341928843
 21
15580.9119866039
 31
0.0
  0
LINE
  5
107
330
22
100
AcDbEntity
  8
_0-2_
  6
Continuous
 62
     7
100
AcDbLine
 10
23124.65440904772
 20
15580.9119866039
 30
0.0
 11
23124.65440904772
 21
15430.91149172425
 31
0.0
  0
LINE
  5
108
330
22
100
AcDbEntity
  8
_0-2_
  6
Continuous
 62
     7
100
AcDbLine
 10
23124.65440904772
 20
15430.91149172425
 30
0.0
 11
23199.65341928843
 21
15430.91149172425
 31
0.0
  0
LINE
  5
109
330
22
100
AcDbEntity
  8
_0-2_
  6
Continuous
 62
     7
100
AcDbLine
 10
23199.65341928843
 20
15580.9119866039
 30
0.0
 11
23199.65341928843
 21
15430.91149172425
 31
0.0
  0
LINE
  5
10A
330
22
100
AcDbEntity
  8
_0-2_
  6
Continuous
 62
     7
100
AcDbLine
 10
22944.26582955026
 20
15605.91206908384
 30
0.0
 11
23380.04199878589
 21
15605.91206908384
 31
0.0
  0
LINE
  5
10B
330
22
100
AcDbEntity
  8
_0-2_
  6
Continuous
 62
     7
100
AcDbLine
 10
22944.26582955026
 20
15605.91206908384
 30
0.0
 11
22944.26582955026
 21
15505.91173916408
 31
0.0
  0
LINE
  5
10C
330
22
100
AcDbEntity
  8
_0-2_
  6
Continuous
 62
     7
100
AcDbLine
 10
22944.26582955026
 20
15505.91173916408
 30
0.0
 11
23124.65440904772
 21
15505.91173916408
 31
0.0
  0
LINE
  5
10D
330
22
100
AcDbEntity
  8
_0-2_
  6
Continuous
 62
     7
100
AcDbLine
 10
23380.04199878589
 20
15605.91206908384
 30
0.0
 11
23380.04199878589
 21
15505.91173916408
 31
0.0
  0
LINE
  5
10E
330
22
100
AcDbEntity
  8
_0-2_
  6
Continuous
 62
     7
100
AcDbLine
 10
23380.04199878589
 20
15505.91173916408
 30
0.0
 11
23199.65341928843
 21
15505.91173916408
 31
0.0
  0
LINE
  5
10F
330
22
100
AcDbEntity
  8
_0-2_
  6
Continuous
 62
     7
100
AcDbLine
 10
31124.65853304477
 20
15580.9119866039
 30
0.0
 11
31199.65754328547
 21
15580.9119866039
 31
0.0
  0
LINE
  5
110
330
22
100
AcDbEntity
  8
_0-2_
  6
Continuous
 62
     7
100
AcDbLine
 10
31124.65853304477
 20
15580.9119866039
 30
0.0
 11
31124.65853304477
 21
15430.91149172425
 31
0.0
  0
LINE
  5
111
330
22
100
AcDbEntity
  8
_0-2_
  6
Continuous
 62
     7
100
AcDbLine
 10
31124.65853304477
 20
15430.91149172425
 30
0.0
 11
31199.65754328547
 21
15430.91149172425
 31
0.0
  0
LINE
  5
112
330
22
100
AcDbEntity
  8
_0-2_
  6
Continuous
 62
     7
100
AcDbLine
 10
31199.65754328547
 20
15580.9119866039
 30
0.0
 11
31199.65754328547
 21
15430.91149172425
 31
0.0
  0
LINE
  5
113
330
22
100
AcDbEntity
  8
ADD_LINE
  6
DOT
 62
     7
100
AcDbLine
 10
31162.1555637669
 20
15661.39302611508
 30
0.0
 11
31162.1555637669
 21
15398.90391346729
 31
0.0
  0
LINE
  5
114
330
22
100
AcDbEntity
  8
_0-2_
  6
Continuous
 62
     7
100
AcDbLine
 10
30944.26500475084
 20
15605.91206908384
 30
0.0
 11
31380.04612278294
 21
15605.91206908384
 31
0.0
  0
LINE
  5
115
330
22
100
AcDbEntity
  8
_0-2_
  6
Continuous
 62
     7
100
AcDbLine
 10
30944.26500475084
 20
15605.91206908384
 30
0.0
 11
30944.26500475084
 21
15505.91173916408
 31
0.0
  0
LINE
  5
116
330
22
100
AcDbEntity
  8
_0-2_
  6
Continuous
 62
     7
100
AcDbLine
 10
30944.26500475084
 20
15505.91173916408
 30
0.0
 11
31124.65853304477
 21
15505.91173916408
 31
0.0
  0
LINE
  5
117
330
22
100
AcDbEntity
  8
_0-2_
  6
Continuous
 62
     7
100
AcDbLine
 10
31380.04612278294
 20
15605.91206908384
 30
0.0
 11
31380.04612278294
 21
15505.91173916408
 31
0.0
  0
LINE
  5
118
330
22
100
AcDbEntity
  8
_0-2_
  6
Continuous
 62
     7
100
AcDbLine
 10
31380.04612278294
 20
15505.91173916408
 30
0.0
 11
31199.65754328547
 21
15505.91173916408
 31
0.0
  0
LINE
  5
119
330
22
100
AcDbEntity
  8
_0-2_
  6
Continuous
 62
     7
100
AcDbLine
 10
7125.028455579604
 20
11680.91272892337
 30
0.0
 11
7200.027465820312
 21
11680.91272892337
 31
0.0
  0
LINE
  5
11A
330
22
100
AcDbEntity
  8
_0-2_
  6
Continuous
 62
     7
100
AcDbLine
 10
7125.028455579604
 20
11680.91272892337
 30
0.0
 11
7125.028455579604
 21
11530.91223404372
 31
0.0
  0
LINE
  5
11B
330
22
100
AcDbEntity
  8
_0-2_
  6
Continuous
 62
     7
100
AcDbLine
 10
7125.028455579604
 20
11530.91223404372
 30
0.0
 11
7200.027465820312
 21
11530.91223404372
 31
0.0
  0
LINE
  5
11C
330
22
100
AcDbEntity
  8
_0-2_
  6
Continuous
 62
     7
100
AcDbLine
 10
7200.027465820312
 20
11680.91272892337
 30
0.0
 11
7200.027465820312
 21
11530.91223404372
 31
0.0
  0
LINE
  5
11D
330
22
100
AcDbEntity
  8
_0-2_
  6
Continuous
 62
     7
100
AcDbLine
 10
6913.247185784417
 20
11605.91248148354
 30
0.0
 11
7125.028455579604
 21
11605.91248148354
 31
0.0
  0
LINE
  5
11E
330
22
100
AcDbEntity
  8
_0-2_
  6
Continuous
 62
     7
100
AcDbLine
 10
7411.068890545819
 20
11605.91248148354
 30
0.0
 11
7200.027465820312
 21
11605.91248148354
 31
0.0
  0
LINE
  5
11F
330
22
100
AcDbEntity
  8
_0-2_
  6
Continuous
 62
     7
100
AcDbLine
 10
6958.521250131969
 20
11081.40748484873
 30
0.0
 11
6962.490184887037
 21
11605.91248148354
 31
0.0
  0
LINE
  5
120
330
22
100
AcDbEntity
  8
_0-2_
  6
Continuous
 62
     7
100
AcDbLine
 10
7365.796063397379
 20
11081.40748484873
 30
0.0
 11
7361.827128642314
 21
11605.91248148354
 31
0.0
  0
LINE
  5
121
330
22
100
AcDbEntity
  8
_0-2_
  6
Continuous
 62
     7
100
AcDbLine
 10
6913.247185784417
 20
11705.91281140331
 30
0.0
 11
6913.247185784417
 21
11605.91248148354
 31
0.0
  0
LINE
  5
122
330
22
100
AcDbEntity
  8
_0-2_
  6
Continuous
 62
     7
100
AcDbLine
 10
6913.247185784417
 20
11705.91281140331
 30
0.0
 11
7411.068890545819
 21
11705.91281140331
 31
0.0
  0
LINE
  5
123
330
22
100
AcDbEntity
  8
_0-2_
  6
Continuous
 62
     7
100
AcDbLine
 10
7411.068890545819
 20
11705.91281140331
 30
0.0
 11
7411.068890545819
 21
11605.91248148354
 31
0.0
  0
LINE
  5
124
330
22
100
AcDbEntity
  8
_0-2_
  6
Continuous
 62
     7
100
AcDbLine
 10
15124.65770824535
 20
11680.91272892337
 30
0.0
 11
15199.65671848606
 21
11680.91272892337
 31
0.0
  0
LINE
  5
125
330
22
100
AcDbEntity
  8
_0-2_
  6
Continuous
 62
     7
100
AcDbLine
 10
15124.65770824535
 20
11680.91272892337
 30
0.0
 11
15124.65770824535
 21
11530.91223404372
 31
0.0
  0
LINE
  5
126
330
22
100
AcDbEntity
  8
_0-2_
  6
Continuous
 62
     7
100
AcDbLine
 10
15124.65770824535
 20
11530.91223404372
 30
0.0
 11
15199.65671848606
 21
11530.91223404372
 31
0.0
  0
LINE
  5
127
330
22
100
AcDbEntity
  8
_0-2_
  6
Continuous
 62
     7
100
AcDbLine
 10
15199.65671848606
 20
11680.91272892337
 30
0.0
 11
15199.65671848606
 21
11530.91223404372
 31
0.0
  0
LINE
  5
128
330
22
100
AcDbEntity
  8
_0-2_
  6
Continuous
 62
     7
100
AcDbLine
 10
14912.87520125106
 20
11605.91248148354
 30
0.0
 11
15124.65770824535
 21
11605.91248148354
 31
0.0
  0
LINE
  5
129
330
22
100
AcDbEntity
  8
_0-2_
  6
Continuous
 62
     7
100
AcDbLine
 10
15410.69938041068
 20
11605.91248148354
 30
0.0
 11
15199.65671848606
 21
11605.91248148354
 31
0.0
  0
LINE
  5
12A
330
22
100
AcDbEntity
  8
_0-2_
  6
Continuous
 62
     7
100
AcDbLine
 10
14912.87520125106
 20
11705.91281140331
 30
0.0
 11
14912.87520125106
 21
11605.91248148354
 31
0.0
  0
LINE
  5
12B
330
22
100
AcDbEntity
  8
_0-2_
  6
Continuous
 62
     7
100
AcDbLine
 10
14912.87520125106
 20
11705.91281140331
 30
0.0
 11
15410.69938041068
 21
11705.91281140331
 31
0.0
  0
LINE
  5
12C
330
22
100
AcDbEntity
  8
_0-2_
  6
Continuous
 62
     7
100
AcDbLine
 10
15410.69938041068
 20
11705.91281140331
 30
0.0
 11
15410.69938041068
 21
11605.91248148354
 31
0.0
  0
LINE
  5
12D
330
22
100
AcDbEntity
  8
_0-2_
  6
Continuous
 62
     7
100
AcDbLine
 10
14962.48812288851
 20
11605.91248148354
 30
0.0
 11
14958.51918813345
 21
11081.40872204784
 31
0.0
  0
LINE
  5
12E
330
22
100
AcDbEntity
  8
_0-2_
  6
Continuous
 62
     7
100
AcDbLine
 10
15361.82630384291
 20
11605.91248148354
 30
0.0
 11
15365.79523859797
 21
11081.40872204784
 31
0.0
  0
LINE
  5
12F
330
22
100
AcDbEntity
  8
_0-0_
  6
Continuous
 62
     6
100
AcDbLine
 10
15112.23251755173
 20
11856.90306557349
 30
0.0
 11
15112.23251755173
 21
12060.65120152683
 31
0.0
  0
LINE
  5
130
330
22
100
AcDbEntity
  8
_0-0_
  6
Continuous
 62
     6
100
AcDbLine
 10
15212.23284747149
 20
11851.4197991039
 30
0.0
 11
15212.23284747149
 21
12055.92881251184
 31
0.0
  0
LINE
  5
131
330
22
100
AcDbEntity
  8
_0-0_
  6
Continuous
 62
     6
100
AcDbLine
 10
23112.23292995144
 20
11856.90306557349
 30
0.0
 11
23112.23292995144
 21
12060.65120152683
 31
0.0
  0
LINE
  5
132
330
22
100
AcDbEntity
  8
_0-0_
  6
Continuous
 62
     6
100
AcDbLine
 10
23212.2332598712
 20
11851.4197991039
 30
0.0
 11
23212.2332598712
 21
12055.92881251184
 31
0.0
  0
LINE
  5
133
330
22
100
AcDbEntity
  8
_0-0_
  6
Continuous
 62
     6
100
AcDbLine
 10
31112.22715635558
 20
11856.90306557349
 30
0.0
 11
31112.22715635558
 21
12060.65120152683
 31
0.0
  0
LINE
  5
134
330
22
100
AcDbEntity
  8
_0-0_
  6
Continuous
 62
     6
100
AcDbLine
 10
31212.22748627534
 20
11851.4197991039
 30
0.0
 11
31212.22748627534
 21
12055.92881251184
 31
0.0
  0
LINE
  5
135
330
22
100
AcDbEntity
  8
_0-3_
  6
Continuous
 62
     6
100
AcDbLine
 10
14871.96473817568
 20
11858.54235439845
 30
0.0
 11
14761.37522104624
 21
12025.18565174854
 31
0.0
  0
LINE
  5
136
330
22
100
AcDbEntity
  8
_0-3_
  6
Continuous
 62
     6
100
AcDbLine
 10
14788.64308950064
 20
11803.24697723418
 30
0.0
 11
14678.05480957031
 21
11969.89027458426
 31
0.0
  0
LINE
  5
137
330
22
100
AcDbEntity
  8
_0-2_
  6
Continuous
 62
     7
100
AcDbLine
 10
23124.65935784417
 20
11680.91272892337
 30
0.0
 11
23124.65935784417
 21
11530.91223404372
 31
0.0
  0
LINE
  5
138
330
22
100
AcDbEntity
  8
_0-2_
  6
Continuous
 62
     7
100
AcDbLine
 10
23124.65935784417
 20
11530.91223404372
 30
0.0
 11
23199.65836808488
 21
11530.91223404372
 31
0.0
  0
LINE
  5
139
330
22
100
AcDbEntity
  8
_0-2_
  6
Continuous
 62
     7
100
AcDbLine
 10
23199.65836808488
 20
11680.91272892337
 30
0.0
 11
23199.65836808488
 21
11530.91223404372
 31
0.0
  0
LINE
  5
13A
330
22
100
AcDbEntity
  8
_0-2_
  6
Continuous
 62
     7
100
AcDbLine
 10
22912.87561365076
 20
11605.91248148354
 30
0.0
 11
23124.65935784417
 21
11605.91248148354
 31
0.0
  0
LINE
  5
13B
330
22
100
AcDbEntity
  8
_0-2_
  6
Continuous
 62
     7
100
AcDbLine
 10
23410.69979281039
 20
11605.91248148354
 30
0.0
 11
23199.65836808488
 21
11605.91248148354
 31
0.0
  0
LINE
  5
13C
330
22
100
AcDbEntity
  8
_0-2_
  6
Continuous
 62
     7
100
AcDbLine
 10
22912.87561365076
 20
11705.91281140331
 30
0.0
 11
22912.87561365076
 21
11605.91248148354
 31
0.0
  0
LINE
  5
13D
330
22
100
AcDbEntity
  8
_0-2_
  6
Continuous
 62
     7
100
AcDbLine
 10
22912.87561365076
 20
11705.91281140331
 30
0.0
 11
23410.69979281039
 21
11705.91281140331
 31
0.0
  0
LINE
  5
13E
330
22
100
AcDbEntity
  8
_0-2_
  6
Continuous
 62
     7
100
AcDbLine
 10
23410.69979281039
 20
11705.91281140331
 30
0.0
 11
23410.69979281039
 21
11605.91248148354
 31
0.0
  0
LINE
  5
13F
330
22
100
AcDbEntity
  8
_0-2_
  6
Continuous
 62
     7
100
AcDbLine
 10
31125.41075010558
 20
11680.91272892337
 30
0.0
 11
31200.40976034629
 21
11680.91272892337
 31
0.0
  0
LINE
  5
140
330
22
100
AcDbEntity
  8
_0-2_
  6
Continuous
 62
     7
100
AcDbLine
 10
31125.41075010558
 20
11680.91272892337
 30
0.0
 11
31125.41075010558
 21
11530.91223404372
 31
0.0
  0
LINE
  5
141
330
22
100
AcDbEntity
  8
_0-2_
  6
Continuous
 62
     7
100
AcDbLine
 10
31125.41075010558
 20
11530.91223404372
 30
0.0
 11
31200.40976034629
 21
11530.91223404372
 31
0.0
  0
LINE
  5
142
330
22
100
AcDbEntity
  8
_0-2_
  6
Continuous
 62
     7
100
AcDbLine
 10
31200.40976034629
 20
11680.91272892337
 30
0.0
 11
31200.40976034629
 21
11530.91223404372
 31
0.0
  0
LINE
  5
143
330
22
100
AcDbEntity
  8
_0-2_
  6
Continuous
 62
     7
100
AcDbLine
 10
30913.63195470862
 20
11605.91248148354
 30
0.0
 11
31125.41075010558
 21
11605.91248148354
 31
0.0
  0
LINE
  5
144
330
22
100
AcDbEntity
  8
_0-2_
  6
Continuous
 62
     7
100
AcDbLine
 10
31411.45613386824
 20
11605.91248148354
 30
0.0
 11
31200.40976034629
 21
11605.91248148354
 31
0.0
  0
LINE
  5
145
330
22
100
AcDbEntity
  8
_0-2_
  6
Continuous
 62
     7
100
AcDbLine
 10
30913.63195470862
 20
11705.91281140331
 30
0.0
 11
30913.63195470862
 21
11605.91248148354
 31
0.0
  0
LINE
  5
146
330
22
100
AcDbEntity
  8
_0-2_
  6
Continuous
 62
     7
100
AcDbLine
 10
30913.63195470862
 20
11705.91281140331
 30
0.0
 11
31411.45613386824
 21
11705.91281140331
 31
0.0
  0
LINE
  5
147
330
22
100
AcDbEntity
  8
_0-2_
  6
Continuous
 62
     7
100
AcDbLine
 10
31411.45613386824
 20
11705.91281140331
 30
0.0
 11
31411.45613386824
 21
11605.91248148354
 31
0.0
  0
LINE
  5
148
330
22
100
AcDbEntity
  8
_0-2_
  6
Continuous
 62
     7
100
AcDbLine
 10
22962.4872980891
 20
11605.91248148354
 30
0.0
 11
22958.51836333404
 21
11081.40624764961
 31
0.0
  0
LINE
  5
149
330
22
100
AcDbEntity
  8
_0-2_
  6
Continuous
 62
     7
100
AcDbLine
 10
23361.82547904349
 20
11605.91248148354
 30
0.0
 11
23365.79441379857
 21
11081.40624764961
 31
0.0
  0
LINE
  5
14A
330
22
100
AcDbEntity
  8
_0-2_
  6
Continuous
 62
     7
100
AcDbLine
 10
31361.82465424409
 20
11605.91248148354
 30
0.0
 11
31365.79358899916
 21
11081.40872204784
 31
0.0
  0
LINE
  5
14B
330
22
100
AcDbEntity
  8
_0-2_
  6
Continuous
 62
     7
100
AcDbLine
 10
30962.4864732897
 20
11605.91248148354
 30
0.0
 11
30958.51753853463
 21
11081.40872204784
 31
0.0
  0
LINE
  5
14C
330
22
100
AcDbEntity
  8
_0-2_
  6
Continuous
 62
     7
100
AcDbLine
 10
31380.04117398649
 20
15605.91206908384
 30
0.0
 11
31380.04117398649
 21
15505.91173916408
 31
0.0
  0
LINE
  5
14D
330
22
100
AcDbEntity
  8
_0-3_
  6
Continuous
 62
     6
100
AcDbLine
 10
31162.1555637669
 20
23256.40868080788
 30
0.0
 11
31162.1555637669
 21
11657.94660178549
 31
0.0
  0
LINE
  5
14E
330
22
100
AcDbEntity
  8
_0-2_
  6
Continuous
 62
     7
100
AcDbLine
 10
31000.15671188768
 20
23406.36711091767
 30
0.0
 11
31324.15441564612
 21
23406.36711091767
 31
0.0
  0
LINE
  5
14F
330
22
100
AcDbEntity
  8
ADD_LINE
  6
DOT
 62
     5
100
AcDbLine
 10
23291.81485562711
 20
23356.07249256885
 30
0.0
 11
23293.60631994299
 21
23356.07249256885
 31
0.0
  0
LINE
  5
150
330
22
100
AcDbEntity
  8
_0-0_
  6
Continuous
 62
     3
100
AcDbLine
 10
14958.68621001372
 20
11456.40810344828
 30
0.0
 11
7362.959165830869
 21
11456.40810344828
 31
0.0
  0
LINE
  5
151
330
22
100
AcDbEntity
  8
_0-0_
  6
Continuous
 62
     7
100
AcDbLine
 10
7187.161832242397
 20
23241.32474922004
 30
0.0
 11
7187.161832242397
 21
23341.33002793625
 31
0.0
  0
LINE
  5
152
330
22
100
AcDbEntity
  8
_0-0_
  6
Continuous
 62
     7
100
AcDbLine
 10
7137.15795568518
 20
23241.32474922004
 30
0.0
 11
7187.161832242397
 21
23241.32474922004
 31
0.0
  0
LINE
  5
153
330
22
100
AcDbEntity
  8
_0-0_
  6
Continuous
 62
     7
100
AcDbLine
 10
7052.161139410896
 20
23456.4093406474
 30
0.0
 11
7051.793072674725
 21
23401.32923612881
 31
0.0
  0
LINE
  5
154
330
22
100
AcDbEntity
  8
_0-0_
  6
Continuous
 62
     7
100
AcDbLine
 10
7272.159885715793
 20
23456.4093406474
 30
0.0
 11
7272.527952451966
 21
23401.32923612881
 31
0.0
  0
LINE
  5
155
330
22
100
AcDbEntity
  8
_0-0_
  6
Continuous
 62
     7
100
AcDbLine
 10
15052.16031461148
 20
23456.4093406474
 30
0.0
 11
15051.79286647487
 21
23401.32923612881
 31
0.0
  0
LINE
  5
156
330
22
100
AcDbEntity
  8
_0-0_
  6
Continuous
 62
     7
100
AcDbLine
 10
15272.15906091638
 20
23456.4093406474
 30
0.0
 11
15272.526509053
 21
23401.32923612881
 31
0.0
  0
LINE
  5
157
330
22
100
AcDbEntity
  8
_0-0_
  6
Continuous
 62
     7
100
AcDbLine
 10
23052.15948981208
 20
23456.40439185095
 30
0.0
 11
23051.82297165329
 21
23406.07265752873
 31
0.0
  0
LINE
  5
158
330
22
100
AcDbEntity
  8
_0-0_
  6
Continuous
 62
     7
100
AcDbLine
 10
23272.15823611697
 20
23456.40439185095
 30
0.0
 11
23272.49475427576
 21
23406.07265752873
 31
0.0
  0
LINE
  5
159
330
22
100
AcDbEntity
  8
_0-2_
  6
Continuous
 62
     7
100
AcDbLine
 10
31051.025390625
 20
23306.36678099791
 30
0.0
 11
31028.75085779139
 21
20363.44001328781
 31
0.0
  0
LINE
  5
15A
330
22
100
AcDbEntity
  8
_0-2_
  6
Continuous
 62
     7
100
AcDbLine
 10
7302.055565086573
 20
19505.91256396348
 30
0.0
 11
7273.153356603676
 21
23301.32890620905
 31
0.0
  0
LINE
  5
15B
330
22
100
AcDbEntity
  8
_0-2_
  6
Continuous
 62
     7
100
AcDbLine
 10
7050.986418852935
 20
23301.32890620905
 30
0.0
 11
7022.267934438343
 21
19505.91256396348
 31
0.0
  0
LINE
  5
15C
330
22
100
AcDbEntity
  8
_0-2_
  6
Continuous
 62
     7
100
AcDbLine
 10
15124.65770824535
 20
19480.91248148354
 30
0.0
 11
15124.65770824535
 21
19330.9119866039
 31
0.0
  0
LINE
  5
15D
330
22
100
AcDbEntity
  8
_0-2_
  6
Continuous
 62
     7
100
AcDbLine
 10
15050.9874498522
 20
23301.32890620905
 30
0.0
 11
15022.26587243982
 21
19505.91256396348
 31
0.0
  0
LINE
  5
15E
330
22
100
AcDbEntity
  8
_0-2_
  6
Continuous
 62
     7
100
AcDbLine
 10
15273.33192567567
 20
23301.32890620905
 30
0.0
 11
15302.04979149071
 21
19505.91256396348
 31
0.0
  0
LINE
  5
15F
330
22
100
AcDbEntity
  8
_0-2_
  6
Continuous
 62
     7
100
AcDbLine
 10
23273.2964593011
 20
23306.07232760897
 30
0.0
 11
23302.05391548775
 21
19505.91256396348
 31
0.0
  0
LINE
  5
160
330
22
100
AcDbEntity
  8
_0-2_
  6
Continuous
 62
     7
100
AcDbLine
 10
23051.02126662796
 20
23306.07232760897
 30
0.0
 11
23022.26381044131
 21
19505.91256396348
 31
0.0
  0
LINE
  5
161
330
22
100
AcDbEntity
  8
_0-2_
  6
Continuous
 62
     7
100
AcDbLine
 10
31028.75085779139
 20
20363.44001328781
 30
0.0
 11
31022.2827808277
 21
19505.91256396348
 31
0.0
  0
LINE
  5
162
330
22
100
AcDbEntity
  8
_0-0_
  6
Continuous
 62
     7
100
AcDbLine
 10
31272.15741131757
 20
23456.4093406474
 30
0.0
 11
31272.49392947636
 21
23406.36711091767
 31
0.0
  0
LINE
  5
163
330
22
100
AcDbEntity
  8
_0-0_
  6
CENTER1
 62
     4
100
AcDbLine
 10
15162.15721336571
 20
19481.33436638113
 30
0.0
 11
15162.15721336571
 21
24456.40769104858
 31
0.0
  0
LINE
  5
164
330
22
100
AcDbEntity
  8
_0-0_
  6
Continuous
 62
     7
100
AcDbLine
 10
31052.15866501268
 20
23456.4093406474
 30
0.0
 11
31051.82709565034
 21
23406.36711091767
 31
0.0
  0
LINE
  5
165
330
22
100
AcDbEntity
  8
_0-0_
  6
CENTER1
 62
     4
100
AcDbLine
 10
31162.1555637669
 20
7456.407897248431
 30
0.0
 11
31162.1555637669
 21
24456.40769104858
 31
0.0
  0
LINE
  5
166
330
22
100
AcDbEntity
  8
_0-2_
  6
Continuous
 62
     7
100
AcDbLine
 10
6992.001095333614
 20
15505.91173916408
 30
0.0
 11
6963.247350744301
 21
11705.91281140331
 31
0.0
  0
LINE
  5
167
330
22
100
AcDbEntity
  8
_0-2_
  6
Continuous
 62
     7
100
AcDbLine
 10
7332.31745539485
 20
15505.91173916408
 30
0.0
 11
7361.071199984163
 21
11705.91281140331
 31
0.0
  0
LINE
  5
168
330
22
100
AcDbEntity
  8
_0-2_
  6
Continuous
 62
     7
100
AcDbLine
 10
7302.807782147379
 20
19405.91223404372
 30
0.0
 11
7331.560289537581
 21
15605.91206908384
 31
0.0
  0
LINE
  5
169
330
22
100
AcDbEntity
  8
_0-2_
  6
Continuous
 62
     7
100
AcDbLine
 10
7021.510768581084
 20
19405.91223404372
 30
0.0
 11
6992.75826119088
 21
15605.91206908384
 31
0.0
  0
LINE
  5
16A
330
22
100
AcDbEntity
  8
_0-2_
  6
Continuous
 62
     7
100
AcDbLine
 10
14992.0002705342
 20
15505.91173916408
 30
0.0
 11
14963.24528874578
 21
11705.91281140331
 31
0.0
  0
LINE
  5
16B
330
22
100
AcDbEntity
  8
_0-2_
  6
Continuous
 62
     7
100
AcDbLine
 10
15323.60922323691
 20
15505.91173916408
 30
0.0
 11
15361.3660657728
 21
11705.91281140331
 31
0.0
  0
LINE
  5
16C
330
22
100
AcDbEntity
  8
_0-2_
  6
Continuous
 62
     7
100
AcDbLine
 10
15302.80819454708
 20
19405.91223404372
 30
0.0
 11
15331.55946473818
 21
15605.91206908384
 31
0.0
  0
LINE
  5
16D
330
22
100
AcDbEntity
  8
_0-2_
  6
Continuous
 62
     7
100
AcDbLine
 10
15021.51118098078
 20
19405.91223404372
 30
0.0
 11
14992.75743639147
 21
15605.91206908384
 31
0.0
  0
LINE
  5
16E
330
22
100
AcDbEntity
  8
_0-2_
  6
Continuous
 62
     7
100
AcDbLine
 10
23323.61087283572
 20
15505.91173916408
 30
0.0
 11
23361.3652409734
 21
11705.91281140331
 31
0.0
  0
LINE
  5
16F
330
22
100
AcDbEntity
  8
_0-2_
  6
Continuous
 62
     7
100
AcDbLine
 10
22992.00192013302
 20
15505.91173916408
 30
0.0
 11
22963.24446394637
 21
11705.91281140331
 31
0.0
  0
LINE
  5
170
330
22
100
AcDbEntity
  8
_0-2_
  6
Continuous
 62
     7
100
AcDbLine
 10
23021.51159338049
 20
19405.91223404372
 30
0.0
 11
22992.75908599029
 21
15605.91206908384
 31
0.0
  0
LINE
  5
171
330
22
100
AcDbEntity
  8
_0-2_
  6
Continuous
 62
     7
100
AcDbLine
 10
23302.81108134502
 20
19405.91223404372
 30
0.0
 11
23331.55863993877
 21
15605.91206908384
 31
0.0
  0
LINE
  5
172
330
22
100
AcDbEntity
  8
_0-2_
  6
Continuous
 62
     7
100
AcDbLine
 10
30991.99614653716
 20
15505.91173916408
 30
0.0
 11
30963.24363914697
 21
11705.91281140331
 31
0.0
  0
LINE
  5
173
330
22
100
AcDbEntity
  8
_0-2_
  6
Continuous
 62
     7
100
AcDbLine
 10
31021.50581978463
 20
19405.91223404372
 30
0.0
 11
30992.75331239443
 21
15605.91206908384
 31
0.0
  0
LINE
  5
174
330
22
100
AcDbEntity
  8
_0-3_
  6
Continuous
 62
     6
100
AcDbLine
 10
7535.110473632812
 20
11800.5078183976
 30
0.0
 11
7644.741161449537
 21
11967.78456169364
 31
0.0
  0
LINE
  5
175
330
22
100
AcDbEntity
  8
_0-3_
  6
Continuous
 62
     6
100
AcDbLine
 10
7451.472101984798
 20
11855.32316230597
 30
0.0
 11
7561.102789801522
 21
12022.59866840289
 31
0.0
  0
LINE
  5
176
330
22
100
AcDbEntity
  8
_0-3_
  6
Continuous
 62
     6
100
AcDbLine
 10
15162.15721336571
 20
15428.25398802915
 30
0.0
 11
15162.15721336571
 21
11655.9472880186
 31
0.0
  0
LINE
  5
177
330
22
100
AcDbEntity
  8
_0-3_
  6
Continuous
 62
     6
100
AcDbLine
 10
15452.34968855574
 20
11858.54235439845
 30
0.0
 11
15562.93920568518
 21
12025.18565174854
 31
0.0
  0
LINE
  5
178
330
22
100
AcDbEntity
  8
_0-3_
  6
Continuous
 62
     6
100
AcDbLine
 10
15535.67133723078
 20
11803.24697723418
 30
0.0
 11
15646.25961716111
 21
11969.89027458426
 31
0.0
  0
LINE
  5
179
330
22
100
AcDbEntity
  8
_0-3_
  6
Continuous
 62
     6
100
AcDbLine
 10
22871.96391337627
 20
11858.54235439845
 30
0.0
 11
22761.37315904772
 21
12025.18565174854
 31
0.0
  0
LINE
  5
17A
330
22
100
AcDbEntity
  8
_0-3_
  6
Continuous
 62
     6
100
AcDbLine
 10
22788.64102750211
 20
11803.24697723418
 30
0.0
 11
22678.05522197002
 21
11969.89027458426
 31
0.0
  0
LINE
  5
17B
330
22
100
AcDbEntity
  8
_0-3_
  6
Continuous
 62
     6
100
AcDbLine
 10
30871.96308857686
 20
11858.54235439845
 30
0.0
 11
30761.37233424832
 21
12025.18565174854
 31
0.0
  0
LINE
  5
17C
330
22
100
AcDbEntity
  8
_0-3_
  6
Continuous
 62
     6
100
AcDbLine
 10
30788.64020270271
 20
11803.24697723418
 30
0.0
 11
30678.04944837416
 21
11969.89027458426
 31
0.0
  0
LINE
  5
17D
330
22
100
AcDbEntity
  8
_0-3_
  6
Continuous
 62
     6
100
AcDbLine
 10
23452.34886375633
 20
11858.54235439845
 30
0.0
 11
23562.93961808488
 21
12025.18565174854
 31
0.0
  0
LINE
  5
17E
330
22
100
AcDbEntity
  8
_0-3_
  6
Continuous
 62
     6
100
AcDbLine
 10
23535.67174963049
 20
11803.24697723418
 30
0.0
 11
23646.25755516258
 21
11969.89027458426
 31
0.0
  0
LINE
  5
17F
330
22
100
AcDbEntity
  8
_0-3_
  6
Continuous
 62
     6
100
AcDbLine
 10
31452.34803895693
 20
11858.54235439845
 30
0.0
 11
31562.93384448902
 21
12025.18565174854
 31
0.0
  0
LINE
  5
180
330
22
100
AcDbEntity
  8
_0-3_
  6
Continuous
 62
     6
100
AcDbLine
 10
31535.66597603463
 20
11803.24697723418
 30
0.0
 11
31646.25673036317
 21
11969.89027458426
 31
0.0
  0
LINE
  5
181
330
22
100
AcDbEntity
  8
_0-2_
  6
Continuous
 62
     7
100
AcDbLine
 10
31273.25109533361
 20
23306.36678099791
 30
0.0
 11
31302.01844911317
 21
19505.91256396348
 31
0.0
  0
LINE
  5
182
330
22
100
AcDbEntity
  8
_0-2_
  6
Continuous
 62
     7
100
AcDbLine
 10
31302.77561497044
 20
19405.91223404372
 30
0.0
 11
31331.54296875
 21
15605.91330628295
 31
0.0
  0
LINE
  5
183
330
22
100
AcDbEntity
  8
_0-9_
  6
Continuous
 62
     4
100
AcDbLine
 10
4162.157419565563
 20
23456.4093406474
 30
0.0
 11
4162.157419565563
 21
8456.40748484873
 31
0.0
  0
LINE
  5
184
330
22
100
AcDbEntity
  8
_0-9_
  6
Continuous
 62
     4
100
AcDbLine
 10
4962.157584525442
 20
11556.40843336805
 30
0.0
 11
4162.157419565563
 21
11556.40843336805
 31
0.0
  0
LINE
  5
185
330
22
100
AcDbEntity
  8
_0-9_
  6
Continuous
 62
     4
100
AcDbLine
 10
4962.157584525442
 20
11031.40855708796
 30
0.0
 11
4162.157419565563
 21
11031.40855708796
 31
0.0
  0
LINE
  5
186
330
22
100
AcDbEntity
  8
_0-0_
  6
Continuous
 62
     7
100
AcDbLine
 10
37185.65739812079
 20
8456.406247649615
 30
0.0
 11
36738.65735853041
 21
8456.406247649615
 31
0.0
  0
LINE
  5
187
330
22
100
AcDbEntity
  8
_0-0_
  6
Continuous
 62
     7
100
AcDbLine
 10
37072.15675147804
 20
23456.40439185095
 30
0.0
 11
36852.15800517314
 21
23456.40439185095
 31
0.0
  0
LINE
  5
188
330
22
100
AcDbEntity
  8
_0-0_
  6
Continuous
 62
     7
100
AcDbLine
 10
36737.15787320524
 20
11081.40624764961
 30
0.0
 11
36737.15787320524
 21
11031.40608268973
 31
0.0
  0
LINE
  5
189
330
22
100
AcDbEntity
  8
_0-2_
  6
Continuous
 62
     7
100
AcDbLine
 10
36738.65735853041
 20
8456.406247649615
 30
0.0
 11
36758.1407701647
 21
11031.40731988884
 31
0.0
  0
LINE
  5
18A
330
22
100
AcDbEntity
  8
_0-2_
  6
Continuous
 62
     7
100
AcDbLine
 10
36828.75514674832
 20
20363.43753888959
 30
0.0
 11
36827.99798089105
 21
20263.43968336805
 31
0.0
  0
LINE
  5
18B
330
22
100
AcDbEntity
  8
_0-2_
  6
Continuous
 62
     7
100
AcDbLine
 10
37095.55960990289
 20
20363.43753888959
 30
0.0
 11
37096.31677576013
 21
20263.43968336805
 31
0.0
  0
LINE
  5
18C
330
22
100
AcDbEntity
  8
_0-2_
  6
Continuous
 62
     7
100
AcDbLine
 10
36800.1610008446
 20
23306.07232760897
 30
0.0
 11
36800.1610008446
 21
23406.07265752873
 31
0.0
  0
LINE
  5
18D
330
22
100
AcDbEntity
  8
_0-2_
  6
Continuous
 62
     7
100
AcDbLine
 10
36800.1610008446
 20
23406.07265752873
 30
0.0
 11
37124.15870460304
 21
23406.07265752873
 31
0.0
  0
LINE
  5
18E
330
22
100
AcDbEntity
  8
_0-2_
  6
Continuous
 62
     7
100
AcDbLine
 10
37124.15870460304
 20
23406.07265752873
 30
0.0
 11
37124.15870460304
 21
23306.07232760897
 31
0.0
  0
LINE
  5
18F
330
22
100
AcDbEntity
  8
_0-2_
  6
Continuous
 62
     7
100
AcDbLine
 10
36800.1610008446
 20
23306.07232760897
 30
0.0
 11
37124.15870460304
 21
23306.07232760897
 31
0.0
  0
LINE
  5
190
330
22
100
AcDbEntity
  8
ADD_LINE
  6
DOT
 62
     7
100
AcDbLine
 10
36962.15490392737
 20
19561.39352099473
 30
0.0
 11
36962.15490392737
 21
19298.90440834693
 31
0.0
  0
LINE
  5
191
330
22
100
AcDbEntity
  8
_0-2_
  6
Continuous
 62
     7
100
AcDbLine
 10
36771.66088207349
 20
19405.91223404372
 30
0.0
 11
37152.65882337416
 21
19405.91223404372
 31
0.0
  0
LINE
  5
192
330
22
100
AcDbEntity
  8
_0-2_
  6
Continuous
 62
     7
100
AcDbLine
 10
36771.66088207349
 20
19505.91256396348
 30
0.0
 11
37152.65882337416
 21
19505.91256396348
 31
0.0
  0
LINE
  5
193
330
22
100
AcDbEntity
  8
_0-2_
  6
Continuous
 62
     7
100
AcDbLine
 10
36771.66088207349
 20
19505.91256396348
 30
0.0
 11
36771.66088207349
 21
19405.91223404372
 31
0.0
  0
LINE
  5
194
330
22
100
AcDbEntity
  8
_0-2_
  6
Continuous
 62
     7
100
AcDbLine
 10
37152.65882337416
 20
19505.91256396348
 30
0.0
 11
37152.65882337416
 21
19405.91223404372
 31
0.0
  0
LINE
  5
195
330
22
100
AcDbEntity
  8
_0-0_
  6
CENTER1
 62
     4
100
AcDbLine
 10
36962.15490392737
 20
24456.40769104858
 30
0.0
 11
36962.15490392737
 21
7456.407897248431
 31
0.0
  0
LINE
  5
196
330
22
100
AcDbEntity
  8
ADD_LINE
  6
DOT
 62
     7
100
AcDbLine
 10
36962.15490392737
 20
15661.39302611508
 30
0.0
 11
36962.15490392737
 21
15398.90391346729
 31
0.0
  0
LINE
  5
197
330
22
100
AcDbEntity
  8
_0-2_
  6
Continuous
 62
     7
100
AcDbLine
 10
36744.26434491132
 20
15605.91206908384
 30
0.0
 11
37180.04051414697
 21
15605.91206908384
 31
0.0
  0
LINE
  5
198
330
22
100
AcDbEntity
  8
_0-2_
  6
Continuous
 62
     7
100
AcDbLine
 10
36744.26434491132
 20
15605.91206908384
 30
0.0
 11
36744.26434491132
 21
15505.91173916408
 31
0.0
  0
LINE
  5
199
330
22
100
AcDbEntity
  8
_0-2_
  6
Continuous
 62
     7
100
AcDbLine
 10
37180.04051414697
 20
15605.91206908384
 30
0.0
 11
37180.04051414697
 21
15505.91173916408
 31
0.0
  0
LINE
  5
19A
330
22
100
AcDbEntity
  8
_0-2_
  6
Continuous
 62
     7
100
AcDbLine
 10
37180.04051414697
 20
15505.91173916408
 30
0.0
 11
36744.26434491132
 21
15505.91173916408
 31
0.0
  0
LINE
  5
19B
330
22
100
AcDbEntity
  8
_0-2_
  6
Continuous
 62
     7
100
AcDbLine
 10
36712.87412901183
 20
11605.91248148354
 30
0.0
 11
37210.69830817145
 21
11605.91248148354
 31
0.0
  0
LINE
  5
19C
330
22
100
AcDbEntity
  8
_0-2_
  6
Continuous
 62
     7
100
AcDbLine
 10
36712.87412901183
 20
11705.91281140331
 30
0.0
 11
36712.87412901183
 21
11605.91248148354
 31
0.0
  0
LINE
  5
19D
330
22
100
AcDbEntity
  8
_0-2_
  6
Continuous
 62
     7
100
AcDbLine
 10
36712.87412901183
 20
11705.91281140331
 30
0.0
 11
37210.69830817145
 21
11705.91281140331
 31
0.0
  0
LINE
  5
19E
330
22
100
AcDbEntity
  8
_0-2_
  6
Continuous
 62
     7
100
AcDbLine
 10
37210.69830817145
 20
11705.91281140331
 30
0.0
 11
37210.69830817145
 21
11605.91248148354
 31
0.0
  0
LINE
  5
19F
330
22
100
AcDbEntity
  8
_0-2_
  6
Continuous
 62
     7
100
AcDbLine
 10
37161.82399440457
 20
11605.91248148354
 30
0.0
 11
37165.79292915963
 21
11081.40624764961
 31
0.0
  0
LINE
  5
1A0
330
22
100
AcDbEntity
  8
_0-3_
  6
Continuous
 62
     6
100
AcDbLine
 10
36962.15490392737
 20
11805.91190412396
 30
0.0
 11
36962.15490392737
 21
11656.62898472995
 31
0.0
  0
LINE
  5
1A1
330
22
100
AcDbEntity
  8
_0-0_
  6
Continuous
 62
     7
100
AcDbLine
 10
36852.15800517314
 20
23456.40439185095
 30
0.0
 11
36851.82148701437
 21
23406.07265752873
 31
0.0
  0
LINE
  5
1A2
330
22
100
AcDbEntity
  8
_0-0_
  6
Continuous
 62
     7
100
AcDbLine
 10
37072.15675147804
 20
23456.40439185095
 30
0.0
 11
37072.49326963684
 21
23406.07265752873
 31
0.0
  0
LINE
  5
1A3
330
22
100
AcDbEntity
  8
_0-2_
  6
Continuous
 62
     7
100
AcDbLine
 10
37073.29497466216
 20
23306.07232760897
 30
0.0
 11
37102.05243084882
 21
19505.91256396348
 31
0.0
  0
LINE
  5
1A4
330
22
100
AcDbEntity
  8
_0-2_
  6
Continuous
 62
     7
100
AcDbLine
 10
36851.01978198903
 20
23306.07232760897
 30
0.0
 11
36822.26232580237
 21
19505.91256396348
 31
0.0
  0
LINE
  5
1A5
330
22
100
AcDbEntity
  8
_0-2_
  6
Continuous
 62
     7
100
AcDbLine
 10
37123.60938819679
 20
15505.91173916408
 30
0.0
 11
37161.36375633448
 21
11705.91281140331
 31
0.0
  0
LINE
  5
1A6
330
22
100
AcDbEntity
  8
_0-2_
  6
Continuous
 62
     7
100
AcDbLine
 10
37102.80959670608
 20
19405.91223404372
 30
0.0
 11
37131.55715529983
 21
15605.91206908384
 31
0.0
  0
LINE
  5
1A7
330
22
100
AcDbEntity
  8
_0-2_
  6
Continuous
 62
     7
100
AcDbLine
 10
36762.48581345017
 20
11605.91248148354
 30
0.0
 11
36758.5168786951
 21
11081.40624764961
 31
0.0
  0
LINE
  5
1A8
330
22
100
AcDbEntity
  8
_0-2_
  6
Continuous
 62
     7
100
AcDbLine
 10
36793.43063766892
 20
15695.05102798903
 30
0.0
 11
36792.75760135136
 21
15605.91206908384
 31
0.0
  0
LINE
  5
1A9
330
22
100
AcDbEntity
  8
_0-2_
  6
Continuous
 62
     7
100
AcDbLine
 10
36792.00043549409
 20
15505.91173916408
 30
0.0
 11
36763.24297930743
 21
11705.91281140331
 31
0.0
  0
LINE
  5
1AA
330
22
100
AcDbEntity
  8
_0-2_
  6
Continuous
 62
     7
100
AcDbLine
 10
36821.51010874156
 20
19405.91223404372
 30
0.0
 11
36792.75760135136
 21
15605.91206908384
 31
0.0
  0
LINE
  5
1AB
330
22
100
AcDbEntity
  8
_0-0_
  6
Continuous
 62
     7
100
AcDbLine
 10
37165.79292915963
 20
11081.40624764961
 30
0.0
 11
36737.15787320524
 21
11081.40624764961
 31
0.0
  0
LINE
  5
1AC
330
22
100
AcDbEntity
  8
_0-0_
  6
Continuous
 62
     7
100
AcDbLine
 10
37195.22342166386
 20
11156.40463929077
 30
0.0
 11
37167.63388144004
 21
11156.40463929077
 31
0.0
  0
LINE
  5
1AD
330
22
100
AcDbEntity
  8
_0-2_
  6
Continuous
 62
     7
100
AcDbLine
 10
37196.51010874156
 20
10986.40420214708
 30
0.0
 11
37366.51611328125
 21
10986.40420214708
 31
0.0
  0
LINE
  5
1AE
330
22
100
AcDbEntity
  8
_0-0_
  6
Continuous
 62
     7
100
AcDbLine
 10
37168.30196896116
 20
10956.40459805079
 30
0.0
 11
37366.74375791809
 21
10956.40459805079
 31
0.0
  0
LINE
  5
1AF
330
22
100
AcDbEntity
  8
_0-2_
  6
Continuous
 62
     7
100
AcDbLine
 10
37366.51611328125
 20
10986.40420214708
 30
0.0
 11
37366.74375791809
 21
10956.40459805079
 31
0.0
  0
LINE
  5
1B0
330
22
100
AcDbEntity
  8
_0-2_
  6
Continuous
 62
     7
100
AcDbLine
 10
37195.22342166386
 20
11156.40463929077
 30
0.0
 11
37195.22342166386
 21
10986.40420214708
 31
0.0
  0
LINE
  5
1B1
330
22
100
AcDbEntity
  8
_0-2_
  6
Continuous
 62
     7
100
AcDbLine
 10
37185.65739812079
 20
8456.406247649615
 30
0.0
 11
37164.32313661318
 21
11032.9055680149
 31
0.0
  0
LINE
  5
1B2
330
22
100
AcDbEntity
  8
_0-2_
  6
Continuous
 62
     7
100
AcDbLine
 10
36737.15787320524
 20
11031.40608268973
 30
0.0
 11
37164.33798300254
 21
11031.40608268973
 31
0.0
  0
LINE
  5
1B3
330
22
100
AcDbEntity
  8
_0-2_
  6
Continuous
 62
     7
100
AcDbLine
 10
37165.79292915963
 20
11081.40624764961
 30
0.0
 11
37164.32313661318
 21
11032.9055680149
 31
0.0
  0
LINE
  5
1B4
330
22
100
AcDbEntity
  8
_0-B_
  6
Continuous
 62
     3
100
AcDbLine
 10
37162.95231999579
 20
11456.41181504562
 30
0.0
 11
38962.15160472973
 21
11456.41181504562
 31
0.0
  0
LINE
  5
1B5
330
22
100
AcDbEntity
  8
_0-B_
  6
Continuous
 62
     3
100
AcDbLine
 10
34962.15325432855
 20
11456.41181504562
 30
0.0
 11
36761.3525390625
 21
11456.41181504562
 31
0.0
  0
LINE
  5
1B6
330
22
100
AcDbEntity
  8
_0-F_
  6
Continuous
 62
     3
100
AcDbLine
 10
6018.653251029348
 20
11456.40686624917
 30
0.0
 11
6418.649621911956
 21
11056.40492797056
 31
0.0
  0
LINE
  5
1B7
330
22
100
AcDbEntity
  8
_0-F_
  6
Continuous
 62
     3
100
AcDbLine
 10
6018.653251029348
 20
11456.40686624917
 30
0.0
 11
5618.651931350297
 21
11056.40492797056
 31
0.0
  0
LINE
  5
1B8
330
22
100
AcDbEntity
  8
_0-F_
  6
Continuous
 62
     3
100
AcDbLine
 10
5618.651931350297
 20
11056.40492797056
 30
0.0
 11
5218.653086069469
 21
11456.40686624917
 31
0.0
  0
LINE
  5
1B9
330
22
100
AcDbEntity
  8
_0-F_
  6
Continuous
 62
     3
100
AcDbLine
 10
5303.262659021327
 20
11363.8990141588
 30
0.0
 11
4995.769191432643
 21
11056.40492797056
 31
0.0
  0
LINE
  5
1BA
330
22
100
AcDbEntity
  8
_0-F_
  6
Continuous
 62
     3
100
AcDbLine
 10
5406.870661555109
 20
11263.98899977429
 30
0.0
 11
5199.290919948268
 21
11056.40492797056
 31
0.0
  0
LINE
  5
1BB
330
22
100
AcDbEntity
  8
_0-F_
  6
Continuous
 62
     3
100
AcDbLine
 10
5510.481138487119
 20
11164.08145978802
 30
0.0
 11
5402.805225269213
 21
11056.40492797056
 31
0.0
  0
LINE
  5
1BC
330
22
100
AcDbEntity
  8
_0-F_
  6
Continuous
 62
     3
100
AcDbLine
 10
6118.653580949112
 20
11356.40529913029
 30
0.0
 11
5818.652591189824
 21
11056.40492797056
 31
0.0
  0
LINE
  5
1BD
330
22
100
AcDbEntity
  8
_0-F_
  6
Continuous
 62
     3
100
AcDbLine
 10
6218.653910868878
 20
11256.40496921052
 30
0.0
 11
6018.653251029348
 21
11056.40492797056
 31
0.0
  0
LINE
  5
1BE
330
22
100
AcDbEntity
  8
_0-F_
  6
Continuous
 62
     3
100
AcDbLine
 10
6318.649291992187
 20
11156.40587648988
 30
0.0
 11
6218.648962072425
 21
11056.40492797056
 31
0.0
  0
LINE
  5
1BF
330
22
100
AcDbEntity
  8
_0-F_
  6
Continuous
 62
     3
100
AcDbLine
 10
5918.652921109586
 20
11356.40529913029
 30
0.0
 11
5818.652591189824
 21
11456.40686624917
 31
0.0
  0
LINE
  5
1C0
330
22
100
AcDbEntity
  8
_0-F_
  6
Continuous
 62
     3
100
AcDbLine
 10
5818.652591189824
 20
11256.40496921052
 30
0.0
 11
5618.64945695207
 21
11456.40686624917
 31
0.0
  0
LINE
  5
1C1
330
22
100
AcDbEntity
  8
_0-F_
  6
Continuous
 62
     3
100
AcDbLine
 10
5718.65226127006
 20
11156.40587648988
 30
0.0
 11
5418.653745908994
 21
11456.40686624917
 31
0.0
  0
LINE
  5
1C2
330
22
100
AcDbEntity
  8
_0-F_
  6
Continuous
 62
     3
100
AcDbLine
 10
5218.653086069469
 20
11456.40686624917
 30
0.0
 11
4918.649621911952
 21
11156.40587648988
 31
0.0
  0
LINE
  5
1C3
330
22
100
AcDbEntity
  8
_0-F_
  6
Continuous
 62
     3
100
AcDbLine
 10
5018.649951831713
 20
11256.40496921052
 30
0.0
 11
4818.649291992188
 21
11456.40686624917
 31
0.0
  0
LINE
  5
1C4
330
22
100
AcDbEntity
  8
_0-F_
  6
Continuous
 62
     3
100
AcDbLine
 10
5118.652756149702
 20
11356.40529913029
 30
0.0
 11
5018.649951831713
 21
11456.40686624917
 31
0.0
  0
LINE
  5
1C5
330
22
100
AcDbEntity
  8
_0-F_
  6
Continuous
 62
     3
100
AcDbLine
 10
5529.882894979943
 20
11649.06722375023
 30
0.0
 11
5307.419648041598
 21
11649.06722375023
 31
0.0
  0
LINE
  5
1C6
330
22
100
AcDbEntity
  8
_0-F_
  6
Continuous
 62
     3
100
AcDbLine
 10
5418.653745908994
 20
11456.40686624917
 30
0.0
 11
5529.882894979943
 21
11649.06722375023
 31
0.0
  0
LINE
  5
1C7
330
22
100
AcDbEntity
  8
_0-F_
  6
Continuous
 62
     3
100
AcDbLine
 10
5418.653745908994
 20
11456.40686624917
 30
0.0
 11
5307.419648041598
 21
11649.06722375023
 31
0.0
  0
LINE
  5
1C8
330
22
100
AcDbEntity
  8
_0-F_
  6
Continuous
 62
     3
100
AcDbLine
 10
33360.03978832348
 20
11456.41181504562
 30
0.0
 11
33760.04110800254
 21
11056.41111396612
 31
0.0
  0
LINE
  5
1C9
330
22
100
AcDbEntity
  8
_0-F_
  6
Continuous
 62
     3
100
AcDbLine
 10
33360.03978832348
 20
11456.41181504562
 30
0.0
 11
32960.03846864443
 21
11056.41111396612
 31
0.0
  0
LINE
  5
1CA
330
22
100
AcDbEntity
  8
_0-F_
  6
Continuous
 62
     3
100
AcDbLine
 10
32960.03846864443
 20
11056.41111396612
 30
0.0
 11
32560.03714896538
 21
11456.41181504562
 31
0.0
  0
LINE
  5
1CB
330
22
100
AcDbEntity
  8
_0-F_
  6
Continuous
 62
     3
100
AcDbLine
 10
32644.65167071369
 20
11363.90396295525
 30
0.0
 11
32337.158203125
 21
11056.41111396612
 31
0.0
  0
LINE
  5
1CC
330
22
100
AcDbEntity
  8
_0-F_
  6
Continuous
 62
     3
100
AcDbLine
 10
32748.25967324747
 20
11263.99518576986
 30
0.0
 11
32540.67745724241
 21
11056.41111396612
 31
0.0
  0
LINE
  5
1CD
330
22
100
AcDbEntity
  8
_0-F_
  6
Continuous
 62
     3
100
AcDbLine
 10
32851.86767578125
 20
11164.08517138536
 30
0.0
 11
32744.1967113598
 21
11056.41111396612
 31
0.0
  0
LINE
  5
1CE
330
22
100
AcDbEntity
  8
_0-F_
  6
Continuous
 62
     3
100
AcDbLine
 10
33460.04011824326
 20
11356.41024792674
 30
0.0
 11
33160.03912848395
 21
11056.41111396612
 31
0.0
  0
LINE
  5
1CF
330
22
100
AcDbEntity
  8
_0-F_
  6
Continuous
 62
     3
100
AcDbLine
 10
33560.04044816301
 20
11256.40991800698
 30
0.0
 11
33360.03978832348
 21
11056.41111396612
 31
0.0
  0
LINE
  5
1D0
330
22
100
AcDbEntity
  8
_0-F_
  6
Continuous
 62
     3
100
AcDbLine
 10
33660.03582928632
 20
11156.41082528633
 30
0.0
 11
33560.03549936656
 21
11056.41111396612
 31
0.0
  0
LINE
  5
1D1
330
22
100
AcDbEntity
  8
_0-F_
  6
Continuous
 62
     3
100
AcDbLine
 10
33260.03945840372
 20
11356.41024792674
 30
0.0
 11
33160.03912848395
 21
11456.41181504562
 31
0.0
  0
LINE
  5
1D2
330
22
100
AcDbEntity
  8
_0-F_
  6
Continuous
 62
     3
100
AcDbLine
 10
33160.03912848395
 20
11256.40991800698
 30
0.0
 11
32960.03846864443
 21
11456.41181504562
 31
0.0
  0
LINE
  5
1D3
330
22
100
AcDbEntity
  8
_0-F_
  6
Continuous
 62
     3
100
AcDbLine
 10
33060.0387985642
 20
11156.41082528633
 30
0.0
 11
32760.03780880491
 21
11456.41181504562
 31
0.0
  0
LINE
  5
1D4
330
22
100
AcDbEntity
  8
_0-F_
  6
Continuous
 62
     3
100
AcDbLine
 10
32560.03714896538
 20
11456.41181504562
 30
0.0
 11
32260.03615920609
 21
11156.41082528633
 31
0.0
  0
LINE
  5
1D5
330
22
100
AcDbEntity
  8
_0-F_
  6
Continuous
 62
     3
100
AcDbLine
 10
32360.03648912584
 20
11256.40991800698
 30
0.0
 11
32160.03582928632
 21
11456.41181504562
 31
0.0
  0
LINE
  5
1D6
330
22
100
AcDbEntity
  8
_0-F_
  6
Continuous
 62
     3
100
AcDbLine
 10
32460.03681904561
 20
11356.41024792674
 30
0.0
 11
32360.03648912584
 21
11456.41181504562
 31
0.0
  0
LINE
  5
1D7
330
22
100
AcDbEntity
  8
_0-F_
  6
Continuous
 62
     3
100
AcDbLine
 10
36369.46724556588
 20
11452.45030348523
 30
0.0
 11
35969.46592588683
 21
11052.44960240574
 31
0.0
  0
LINE
  5
1D8
330
22
100
AcDbEntity
  8
_0-F_
  6
Continuous
 62
     3
100
AcDbLine
 10
35969.46592588683
 20
11052.44960240574
 30
0.0
 11
35569.46460620777
 21
11452.45030348523
 31
0.0
  0
LINE
  5
1D9
330
22
100
AcDbEntity
  8
_0-F_
  6
Continuous
 62
     3
100
AcDbLine
 10
35654.07912795608
 20
11359.94245139485
 30
0.0
 11
35346.5856603674
 21
11052.44960240574
 31
0.0
  0
LINE
  5
1DA
330
22
100
AcDbEntity
  8
_0-F_
  6
Continuous
 62
     3
100
AcDbLine
 10
35757.68713048987
 20
11260.03367420947
 30
0.0
 11
35550.1049144848
 21
11052.44960240574
 31
0.0
  0
LINE
  5
1DB
330
22
100
AcDbEntity
  8
_0-F_
  6
Continuous
 62
     3
100
AcDbLine
 10
35861.29513302366
 20
11160.12365982497
 30
0.0
 11
35753.62416860221
 21
11052.44960240574
 31
0.0
  0
LINE
  5
1DC
330
22
100
AcDbEntity
  8
_0-F_
  6
Continuous
 62
     3
100
AcDbLine
 10
36469.46757548564
 20
11352.44873636635
 30
0.0
 11
36169.46658572635
 21
11052.44960240574
 31
0.0
  0
LINE
  5
1DD
330
22
100
AcDbEntity
  8
_0-F_
  6
Continuous
 62
     3
100
AcDbLine
 10
36569.46790540541
 20
11252.44840644659
 30
0.0
 11
36369.46724556588
 21
11052.44960240574
 31
0.0
  0
LINE
  5
1DE
330
22
100
AcDbEntity
  8
_0-F_
  6
Continuous
 62
     3
100
AcDbLine
 10
36669.46328652872
 20
11152.44931372594
 30
0.0
 11
36569.46295660895
 21
11052.44960240574
 31
0.0
  0
LINE
  5
1DF
330
22
100
AcDbEntity
  8
_0-F_
  6
Continuous
 62
     3
100
AcDbLine
 10
36269.46691564612
 20
11352.44873636635
 30
0.0
 11
36169.46658572635
 21
11452.45030348523
 31
0.0
  0
LINE
  5
1E0
330
22
100
AcDbEntity
  8
_0-F_
  6
Continuous
 62
     3
100
AcDbLine
 10
36169.46658572635
 20
11252.44840644659
 30
0.0
 11
35969.46592588683
 21
11452.45030348523
 31
0.0
  0
LINE
  5
1E1
330
22
100
AcDbEntity
  8
_0-F_
  6
Continuous
 62
     3
100
AcDbLine
 10
36069.46625580659
 20
11152.44931372594
 30
0.0
 11
35769.4652660473
 21
11452.45030348523
 31
0.0
  0
LINE
  5
1E2
330
22
100
AcDbEntity
  8
_0-F_
  6
Continuous
 62
     3
100
AcDbLine
 10
35569.46460620777
 20
11452.45030348523
 30
0.0
 11
35269.46361644848
 21
11152.44931372594
 31
0.0
  0
LINE
  5
1E3
330
22
100
AcDbEntity
  8
_0-F_
  6
Continuous
 62
     3
100
AcDbLine
 10
35369.46394636826
 20
11252.44840644659
 30
0.0
 11
35169.46328652872
 21
11452.45030348523
 31
0.0
  0
LINE
  5
1E4
330
22
100
AcDbEntity
  8
_0-F_
  6
Continuous
 62
     3
100
AcDbLine
 10
35469.46427628801
 20
11352.44873636635
 30
0.0
 11
35369.46394636826
 21
11452.45030348523
 31
0.0
  0
LINE
  5
1E5
330
22
100
AcDbEntity
  8
_0-F_
  6
Continuous
 62
     4
100
AcDbLine
 10
37152.65882337416
 20
19505.91256396348
 30
0.0
 11
37152.65882337416
 21
19605.91289388325
 31
0.0
  0
LINE
  5
1E6
330
22
100
AcDbEntity
  8
_0-F_
  6
Continuous
 62
     4
100
AcDbLine
 10
37552.66014305322
 20
20198.73169535074
 30
0.0
 11
38552.65849345439
 21
20198.73169535074
 31
0.0
  0
LINE
  5
1E7
330
22
100
AcDbEntity
  8
_0-F_
  6
Continuous
 62
     4
100
AcDbLine
 10
37152.65882337416
 20
19505.91256396348
 30
0.0
 11
37552.66014305322
 21
20198.73169535074
 31
0.0
  0
LINE
  5
1E8
330
22
100
AcDbEntity
  8
_0-F_
  6
Continuous
 62
     4
100
AcDbLine
 10
7774.794913627005
 20
23392.48573686784
 30
0.0
 11
8174.798707704288
 21
24085.30486825509
 31
0.0
  0
LINE
  5
1E9
330
22
100
AcDbEntity
  8
_0-F_
  6
Continuous
 62
     4
100
AcDbLine
 10
8799.958512589737
 20
21029.87216198925
 30
0.0
 11
9199.95983226879
 21
21722.68758177915
 31
0.0
  0
LINE
  5
1EA
330
22
100
AcDbEntity
  8
_0-F_
  6
Continuous
 62
     4
100
AcDbLine
 10
7774.794913627005
 20
23392.48573686784
 30
0.0
 11
7774.794913627005
 21
23492.4860667876
 31
0.0
  0
LINE
  5
1EB
330
22
100
AcDbEntity
  8
_0-F_
  6
Continuous
 62
     4
100
AcDbLine
 10
8799.958512589737
 20
21029.87216198925
 30
0.0
 11
8799.958512589737
 21
21129.87249190901
 31
0.0
  0
LINE
  5
1EC
330
22
100
AcDbEntity
  8
_0-F_
  6
Continuous
 62
     4
100
AcDbLine
 10
9199.95983226879
 20
21722.68758177915
 30
0.0
 11
12207.91625976562
 21
21722.68758177915
 31
0.0
  0
LINE
  5
1ED
330
22
100
AcDbEntity
  8
_0-F_
  6
Continuous
 62
     4
100
AcDbLine
 10
15201.38632284628
 20
20569.11323106125
 30
0.0
 11
15601.39011692356
 21
21261.92988805027
 31
0.0
  0
LINE
  5
1EE
330
22
100
AcDbEntity
  8
_0-F_
  6
Continuous
 62
     4
100
AcDbLine
 10
15201.38632284628
 20
20569.11323106125
 30
0.0
 11
15201.38632284628
 21
20669.11356098101
 31
0.0
  0
LINE
  5
1EF
330
22
100
AcDbEntity
  8
_0-F_
  6
Continuous
 62
     4
100
AcDbLine
 10
15601.39011692356
 20
21261.92988805027
 30
0.0
 11
15801.38830236486
 21
21261.92988805027
 31
0.0
  0
LINE
  5
1F0
330
22
100
AcDbEntity
  8
_0-F_
  6
Continuous
 62
     4
100
AcDbLine
 10
8174.798707704288
 20
24085.30486825509
 30
0.0
 11
10113.85778478674
 21
24085.30486825509
 31
0.0
  0
LINE
  5
1F1
330
22
100
AcDbEntity
  8
_0-F_
  6
Continuous
 62
     4
100
AcDbLine
 10
15201.38632284628
 20
22197.38850951353
 30
0.0
 11
15601.39011692356
 21
22890.20516650255
 31
0.0
  0
LINE
  5
1F2
330
22
100
AcDbEntity
  8
_0-F_
  6
Continuous
 62
     4
100
AcDbLine
 10
15201.38632284628
 20
22197.38850951353
 30
0.0
 11
15201.38632284628
 21
22297.3888394333
 31
0.0
  0
LINE
  5
1F3
330
22
100
AcDbEntity
  8
_0-F_
  6
Continuous
 62
     4
100
AcDbLine
 10
15601.39011692356
 20
22890.20516650255
 30
0.0
 11
15801.38830236486
 21
22890.20516650255
 31
0.0
  0
LINE
  5
1F4
330
22
100
AcDbEntity
  8
_0-F_
  6
Continuous
 62
     4
100
AcDbLine
 10
19157.21913930532
 20
23260.36276917359
 30
0.0
 11
19557.22045898436
 21
23953.1794261626
 31
0.0
  0
LINE
  5
1F5
330
22
100
AcDbEntity
  8
_0-F_
  6
Continuous
 62
     4
100
AcDbLine
 10
19157.21913930532
 20
23260.36276917359
 30
0.0
 11
19157.21913930532
 21
23360.36309909335
 31
0.0
  0
LINE
  5
1F6
330
22
100
AcDbEntity
  8
_0-F_
  6
Continuous
 62
     4
100
AcDbLine
 10
19557.22045898436
 20
23953.1794261626
 30
0.0
 11
19757.21617002745
 21
23953.1794261626
 31
0.0
  0
LINE
  5
1F7
330
22
100
AcDbEntity
  8
_0-F_
  6
Continuous
 62
     4
100
AcDbLine
 10
19157.21913930532
 20
11556.40843336805
 30
0.0
 11
19557.22045898436
 21
12249.22385315796
 31
0.0
  0
LINE
  5
1F8
330
22
100
AcDbEntity
  8
_0-F_
  6
Continuous
 62
     4
100
AcDbLine
 10
19157.21913930532
 20
11556.40843336805
 30
0.0
 11
19157.21913930532
 21
11656.40752608869
 31
0.0
  0
LINE
  5
1F9
330
22
100
AcDbEntity
  8
_0-F_
  6
Continuous
 62
     4
100
AcDbLine
 10
19557.22045898436
 20
12249.22385315796
 30
0.0
 11
19757.21617002745
 21
12249.22385315796
 31
0.0
  0
LINE
  5
1FA
330
22
100
AcDbEntity
  8
_0-F_
  6
Continuous
 62
     4
100
AcDbLine
 10
19157.21913930532
 20
15456.40769104858
 30
0.0
 11
19557.22045898436
 21
16149.22558523671
 31
0.0
  0
LINE
  5
1FB
330
22
100
AcDbEntity
  8
_0-F_
  6
Continuous
 62
     4
100
AcDbLine
 10
19157.21913930532
 20
15456.40769104858
 30
0.0
 11
19157.21913930532
 21
15556.40925816746
 31
0.0
  0
LINE
  5
1FC
330
22
100
AcDbEntity
  8
_0-F_
  6
Continuous
 62
     4
100
AcDbLine
 10
19557.22045898436
 20
16149.22558523671
 30
0.0
 11
19757.21617002745
 21
16149.22558523671
 31
0.0
  0
LINE
  5
1FD
330
22
100
AcDbEntity
  8
_0-F_
  6
Continuous
 62
     4
100
AcDbLine
 10
19157.21913930532
 20
19356.40818592823
 30
0.0
 11
19557.22045898436
 21
20049.22484291725
 31
0.0
  0
LINE
  5
1FE
330
22
100
AcDbEntity
  8
_0-F_
  6
Continuous
 62
     4
100
AcDbLine
 10
19157.21913930532
 20
19356.40818592823
 30
0.0
 11
19157.21913930532
 21
19456.40851584798
 31
0.0
  0
LINE
  5
1FF
330
22
100
AcDbEntity
  8
_0-F_
  6
Continuous
 62
     4
100
AcDbLine
 10
19557.22045898436
 20
20049.22484291725
 30
0.0
 11
19757.21617002745
 21
20049.22484291725
 31
0.0
  0
LINE
  5
200
330
22
100
AcDbEntity
  8
_0-F_
  6
Continuous
 62
     4
100
AcDbLine
 10
7868.300566802155
 20
10956.40830964813
 30
0.0
 11
7868.300566802155
 21
10856.40797972837
 31
0.0
  0
LINE
  5
201
330
22
100
AcDbEntity
  8
_0-F_
  6
Continuous
 62
     4
100
AcDbLine
 10
8268.304360879435
 20
10263.58794106178
 30
0.0
 11
9068.304525839316
 21
10263.58794106178
 31
0.0
  0
LINE
  5
202
330
22
100
AcDbEntity
  8
_0-F_
  6
Continuous
 62
     4
100
AcDbLine
 10
7868.300566802155
 20
10956.40830964813
 30
0.0
 11
8268.304360879435
 21
10263.58794106178
 31
0.0
  0
LINE
  5
203
330
22
100
AcDbEntity
  8
_0-F_
  6
Continuous
 62
     3
100
AcDbLine
 10
36369.46724556588
 20
11452.45030348523
 30
0.0
 11
36737.15787320524
 21
11084.75905724632
 31
0.0
  0
LINE
  5
204
330
22
100
AcDbEntity
  8
_0-F_
  6
Continuous
 62
     4
100
AcDbLine
 10
37124.15870460304
 20
23406.07265752873
 30
0.0
 11
37124.15870460304
 21
23506.0729874485
 31
0.0
  0
LINE
  5
205
330
22
100
AcDbEntity
  8
_0-F_
  6
Continuous
 62
     4
100
AcDbLine
 10
37524.1600242821
 20
24098.89178891598
 30
0.0
 11
38524.15837468329
 21
24098.89178891598
 31
0.0
  0
LINE
  5
206
330
22
100
AcDbEntity
  8
_0-F_
  6
Continuous
 62
     4
100
AcDbLine
 10
37124.15870460304
 20
23406.07265752873
 30
0.0
 11
37524.1600242821
 21
24098.89178891598
 31
0.0
  0
LINE
  5
207
330
22
100
AcDbEntity
  8
_0-F_
  6
Continuous
 62
     4
100
AcDbLine
 10
37180.04051414697
 20
15605.91206908384
 30
0.0
 11
37180.04051414697
 21
15705.91239900361
 31
0.0
  0
LINE
  5
208
330
22
100
AcDbEntity
  8
_0-F_
  6
Continuous
 62
     4
100
AcDbLine
 10
37580.04183382602
 20
16298.73120047109
 30
0.0
 11
38580.0401842272
 21
16298.73120047109
 31
0.0
  0
LINE
  5
209
330
22
100
AcDbEntity
  8
_0-F_
  6
Continuous
 62
     4
100
AcDbLine
 10
37180.04051414697
 20
15605.91206908384
 30
0.0
 11
37580.04183382602
 21
16298.73120047109
 31
0.0
  0
LINE
  5
20A
330
22
100
AcDbEntity
  8
_0-F_
  6
Continuous
 62
     4
100
AcDbLine
 10
37210.69830817145
 20
11705.91281140331
 30
0.0
 11
37210.69830817145
 21
11805.91314132307
 31
0.0
  0
LINE
  5
20B
330
22
100
AcDbEntity
  8
_0-F_
  6
Continuous
 62
     4
100
AcDbLine
 10
37610.69962785051
 20
12398.73194279055
 30
0.0
 11
38610.6979782517
 21
12398.73194279055
 31
0.0
  0
LINE
  5
20C
330
22
100
AcDbEntity
  8
_0-F_
  6
Continuous
 62
     4
100
AcDbLine
 10
37210.69830817145
 20
11705.91281140331
 30
0.0
 11
37610.69962785051
 21
12398.73194279055
 31
0.0
  0
LINE
  5
20D
330
22
100
AcDbEntity
  8
ADD_LINE
  6
DOT
 62
     4
100
AcDbLine
 10
36962.15490392737
 20
23256.40868080788
 30
0.0
 11
36962.15490392737
 21
24456.40769104858
 31
0.0
  0
LINE
  5
20E
330
22
100
AcDbEntity
  8
_0-6_
  6
Continuous
 62
     5
100
AcDbLine
 10
10162.15803816512
 20
11556.40843336805
 30
0.0
 11
7162.158038165121
 21
16752.55934196707
 31
0.0
  0
LINE
  5
20F
330
22
100
AcDbEntity
  8
_0-6_
  6
Continuous
 62
     5
100
AcDbLine
 10
7262.157749485324
 20
11556.40843336805
 30
0.0
 11
7262.157749485324
 21
16579.35517771982
 31
0.0
  0
LINE
  5
210
330
22
100
AcDbEntity
  8
_0-6_
  6
Continuous
 62
     5
100
AcDbLine
 10
7362.15746080553
 20
11556.40843336805
 30
0.0
 11
7362.15746080553
 21
16406.15101347256
 31
0.0
  0
LINE
  5
211
330
22
100
AcDbEntity
  8
_0-6_
  6
Continuous
 62
     5
100
AcDbLine
 10
7562.157502045502
 20
11556.40843336805
 30
0.0
 11
7562.157502045502
 21
16059.74021057983
 31
0.0
  0
LINE
  5
212
330
22
100
AcDbEntity
  8
_0-6_
  6
Continuous
 62
     5
100
AcDbLine
 10
7462.157790725296
 20
11556.40843336805
 30
0.0
 11
7462.157790725296
 21
16232.94561202619
 31
0.0
  0
LINE
  5
213
330
22
100
AcDbEntity
  8
_0-6_
  6
Continuous
 62
     5
100
AcDbLine
 10
7662.157831965267
 20
11556.40843336805
 30
0.0
 11
7662.157831965267
 21
15886.53480913346
 31
0.0
  0
LINE
  5
214
330
22
100
AcDbEntity
  8
_0-6_
  6
Continuous
 62
     5
100
AcDbLine
 10
7962.157584525442
 20
11556.40843336805
 30
0.0
 11
7962.157584525442
 21
15366.91984199347
 31
0.0
  0
LINE
  5
215
330
22
100
AcDbEntity
  8
_0-6_
  6
Continuous
 62
     5
100
AcDbLine
 10
8062.157914445206
 20
11556.40843336805
 30
0.0
 11
8062.157914445206
 21
15193.7144405471
 31
0.0
  0
LINE
  5
216
330
22
100
AcDbEntity
  8
_0-6_
  6
Continuous
 62
     5
100
AcDbLine
 10
8162.157625765415
 20
11556.40843336805
 30
0.0
 11
8162.157625765415
 21
15020.51027629984
 31
0.0
  0
LINE
  5
217
330
22
100
AcDbEntity
  8
_0-6_
  6
Continuous
 62
     5
100
AcDbLine
 10
8262.15795568518
 20
11556.40843336805
 30
0.0
 11
8262.15795568518
 21
14847.30487485348
 31
0.0
  0
LINE
  5
218
330
22
100
AcDbEntity
  8
_0-6_
  6
Continuous
 62
     5
100
AcDbLine
 10
8562.157708245356
 20
11556.40843336805
 30
0.0
 11
8562.157708245356
 21
14327.68990771348
 31
0.0
  0
LINE
  5
219
330
22
100
AcDbEntity
  8
_0-6_
  6
Continuous
 62
     5
100
AcDbLine
 10
8462.157996925148
 20
11556.40843336805
 30
0.0
 11
8462.157996925148
 21
14500.89407196074
 31
0.0
  0
LINE
  5
21A
330
22
100
AcDbEntity
  8
_0-6_
  6
Continuous
 62
     5
100
AcDbLine
 10
8662.158038165118
 20
11556.40843336805
 30
0.0
 11
8662.158038165118
 21
14154.48326906801
 31
0.0
  0
LINE
  5
21B
330
22
100
AcDbEntity
  8
_0-6_
  6
Continuous
 62
     5
100
AcDbLine
 10
8762.157749485327
 20
11556.40843336805
 30
0.0
 11
8762.157749485327
 21
13981.27910482075
 31
0.0
  0
LINE
  5
21C
330
22
100
AcDbEntity
  8
_0-6_
  6
Continuous
 62
     5
100
AcDbLine
 10
9262.157543285471
 20
11556.40843336805
 30
0.0
 11
9262.157543285471
 21
13115.25457198713
 31
0.0
  0
LINE
  5
21D
330
22
100
AcDbEntity
  8
_0-6_
  6
Continuous
 62
     5
100
AcDbLine
 10
9762.15795568518
 20
11556.40843336805
 30
0.0
 11
9762.15795568518
 21
12249.22880195441
 31
0.0
  0
LINE
  5
21E
330
22
100
AcDbEntity
  8
_0-6_
  6
Continuous
 62
     5
100
AcDbLine
 10
9862.157048405828
 20
11556.40843336805
 30
0.0
 11
9862.157048405828
 21
12076.02463770715
 31
0.0
  0
LINE
  5
21F
330
22
100
AcDbEntity
  8
_0-6_
  6
Continuous
 62
     5
100
AcDbLine
 10
9962.157378325592
 20
11556.40843336805
 30
0.0
 11
9962.157378325592
 21
11902.81923626078
 31
0.0
  0
LINE
  5
220
330
22
100
AcDbEntity
  8
_0-6_
  6
Continuous
 62
     5
100
AcDbLine
 10
10062.15770824536
 20
11556.40843336805
 30
0.0
 11
10062.15770824536
 21
11729.61383481441
 31
0.0
  0
LINE
  5
221
330
22
100
AcDbEntity
  8
_0-6_
  6
Continuous
 62
     5
100
AcDbLine
 10
7162.527960699958
 20
15456.40892824769
 30
0.0
 11
10104.42290434966
 21
15456.40892824769
 31
0.0
  0
LINE
  5
222
330
22
100
AcDbEntity
  8
_0-6_
  6
Continuous
 62
     5
100
AcDbLine
 10
7162.527960699958
 20
16656.40917568751
 30
0.0
 11
7217.670543773755
 21
16656.40917568751
 31
0.0
  0
LINE
  5
223
330
22
100
AcDbEntity
  8
_0-6_
  6
Continuous
 62
     5
100
AcDbLine
 10
7162.527960699958
 20
16556.40884576775
 30
0.0
 11
7275.405677589211
 21
16556.40884576775
 31
0.0
  0
LINE
  5
224
330
22
100
AcDbEntity
  8
_0-6_
  6
Continuous
 62
     5
100
AcDbLine
 10
7162.527960699958
 20
16456.40851584798
 30
0.0
 11
7333.140811404665
 21
16456.40851584798
 31
0.0
  0
LINE
  5
225
330
22
100
AcDbEntity
  8
_0-6_
  6
Continuous
 62
     5
100
AcDbLine
 10
7162.527960699958
 20
16356.40818592822
 30
0.0
 11
7390.875945220122
 21
16356.40818592822
 31
0.0
  0
LINE
  5
226
330
22
100
AcDbEntity
  8
_0-6_
  6
Continuous
 62
     5
100
AcDbLine
 10
7162.527960699958
 20
16256.40909320757
 30
0.0
 11
7448.610460436019
 21
16256.40909320757
 31
0.0
  0
LINE
  5
227
330
22
100
AcDbEntity
  8
_0-6_
  6
Continuous
 62
     5
100
AcDbLine
 10
7162.527960699958
 20
16156.40876328781
 30
0.0
 11
7506.345594251477
 21
16156.40876328781
 31
0.0
  0
LINE
  5
228
330
22
100
AcDbEntity
  8
_0-6_
  6
Continuous
 62
     5
100
AcDbLine
 10
7162.527960699958
 20
16056.40843336805
 30
0.0
 11
7564.08134666649
 21
16056.40843336805
 31
0.0
  0
LINE
  5
229
330
22
100
AcDbEntity
  8
_0-6_
  6
Continuous
 62
     5
100
AcDbLine
 10
7162.527960699958
 20
15956.40934064739
 30
0.0
 11
7621.815861882393
 21
15956.40934064739
 31
0.0
  0
LINE
  5
22A
330
22
100
AcDbEntity
  8
_0-6_
  6
Continuous
 62
     5
100
AcDbLine
 10
7162.527960699958
 20
15856.40901072763
 30
0.0
 11
7679.550995697846
 21
15856.40901072763
 31
0.0
  0
LINE
  5
22B
330
22
100
AcDbEntity
  8
_0-6_
  6
Continuous
 62
     5
100
AcDbLine
 10
7162.527960699958
 20
15756.40868080787
 30
0.0
 11
7737.286129513302
 21
15756.40868080787
 31
0.0
  0
LINE
  5
22C
330
22
100
AcDbEntity
  8
_0-6_
  6
Continuous
 62
     5
100
AcDbLine
 10
7162.527960699958
 20
15656.4083508881
 30
0.0
 11
7795.021263328762
 21
15656.4083508881
 31
0.0
  0
LINE
  5
22D
330
22
100
AcDbEntity
  8
_0-6_
  6
Continuous
 62
     5
100
AcDbLine
 10
7162.527960699958
 20
15556.40925816746
 30
0.0
 11
7852.75577854466
 21
15556.40925816746
 31
0.0
  0
LINE
  5
22E
330
22
100
AcDbEntity
  8
_0-6_
  6
Continuous
 62
     5
100
AcDbLine
 10
7762.157543285474
 20
11556.40843336805
 30
0.0
 11
7762.157543285474
 21
15713.32940768709
 31
0.0
  0
LINE
  5
22F
330
22
100
AcDbEntity
  8
_0-6_
  6
Continuous
 62
     5
100
AcDbLine
 10
7162.527960699958
 20
15256.40950560727
 30
0.0
 11
8025.960561391469
 21
15256.40950560727
 31
0.0
  0
LINE
  5
230
330
22
100
AcDbEntity
  8
_0-6_
  6
Continuous
 62
     5
100
AcDbLine
 10
7162.527960699958
 20
15356.40859832793
 30
0.0
 11
7968.226664775126
 21
15356.40859832793
 31
0.0
  0
LINE
  5
231
330
22
100
AcDbEntity
  8
_0-6_
  6
Continuous
 62
     5
100
AcDbLine
 10
7162.527960699958
 20
15156.40917568751
 30
0.0
 11
8083.696313806482
 21
15156.40917568751
 31
0.0
  0
LINE
  5
232
330
22
100
AcDbEntity
  8
_0-6_
  6
Continuous
 62
     5
100
AcDbLine
 10
7162.527960699958
 20
15056.40884576775
 30
0.0
 11
8141.431447621938
 21
15056.40884576775
 31
0.0
  0
LINE
  5
233
330
22
100
AcDbEntity
  8
_0-6_
  6
Continuous
 62
     5
100
AcDbLine
 10
7862.157873205235
 20
11556.40843336805
 30
0.0
 11
7862.157873205235
 21
15540.12400624072
 31
0.0
  0
LINE
  5
234
330
22
100
AcDbEntity
  8
_0-6_
  6
Continuous
 62
     5
100
AcDbLine
 10
7162.527960699958
 20
14956.40851584799
 30
0.0
 11
8199.166581437395
 21
14956.40851584799
 31
0.0
  0
LINE
  5
235
330
22
100
AcDbEntity
  8
_0-6_
  6
Continuous
 62
     5
100
AcDbLine
 10
7162.527960699958
 20
14856.40818592822
 30
0.0
 11
8256.901715252853
 21
14856.40818592822
 31
0.0
  0
LINE
  5
236
330
22
100
AcDbEntity
  8
_0-6_
  6
Continuous
 62
     5
100
AcDbLine
 10
7162.527960699958
 20
14756.40909320757
 30
0.0
 11
8314.63623046875
 21
14756.40909320757
 31
0.0
  0
LINE
  5
237
330
22
100
AcDbEntity
  8
_0-6_
  6
Continuous
 62
     5
100
AcDbLine
 10
7162.527960699958
 20
14656.40876328781
 30
0.0
 11
8372.371364284207
 21
14656.40876328781
 31
0.0
  0
LINE
  5
238
330
22
100
AcDbEntity
  8
_0-6_
  6
Continuous
 62
     5
100
AcDbLine
 10
7162.527960699958
 20
14556.40843336805
 30
0.0
 11
8430.107116699216
 21
14556.40843336805
 31
0.0
  0
LINE
  5
239
330
22
100
AcDbEntity
  8
_0-6_
  6
Continuous
 62
     5
100
AcDbLine
 10
7162.527960699958
 20
14456.40934064739
 30
0.0
 11
8487.841631915118
 21
14456.40934064739
 31
0.0
  0
LINE
  5
23A
330
22
100
AcDbEntity
  8
_0-6_
  6
Continuous
 62
     5
100
AcDbLine
 10
7162.527960699958
 20
14356.40901072764
 30
0.0
 11
8545.576765730572
 21
14356.40901072764
 31
0.0
  0
LINE
  5
23B
330
22
100
AcDbEntity
  8
_0-6_
  6
Continuous
 62
     5
100
AcDbLine
 10
7162.527960699958
 20
14256.40868080787
 30
0.0
 11
8603.311899546032
 21
14256.40868080787
 31
0.0
  0
LINE
  5
23C
330
22
100
AcDbEntity
  8
_0-6_
  6
Continuous
 62
     5
100
AcDbLine
 10
7162.527960699958
 20
14156.4083508881
 30
0.0
 11
8661.047033361485
 21
14156.4083508881
 31
0.0
  0
LINE
  5
23D
330
22
100
AcDbEntity
  8
_0-6_
  6
Continuous
 62
     5
100
AcDbLine
 10
7162.527960699958
 20
14056.40925816746
 30
0.0
 11
8718.781548577387
 21
14056.40925816746
 31
0.0
  0
LINE
  5
23E
330
22
100
AcDbEntity
  8
_0-6_
  6
Continuous
 62
     5
100
AcDbLine
 10
8362.157667005382
 20
11556.40843336805
 30
0.0
 11
8362.157667005382
 21
14674.09947340711
 31
0.0
  0
LINE
  5
23F
330
22
100
AcDbEntity
  8
_0-6_
  6
Continuous
 62
     5
100
AcDbLine
 10
7162.527960699958
 20
13956.40892824769
 30
0.0
 11
8776.516682392843
 21
13956.40892824769
 31
0.0
  0
LINE
  5
240
330
22
100
AcDbEntity
  8
_0-6_
  6
Continuous
 62
     5
100
AcDbLine
 10
7162.527960699958
 20
13856.40859832792
 30
0.0
 11
8834.252434807856
 21
13856.40859832792
 31
0.0
  0
LINE
  5
241
330
22
100
AcDbEntity
  8
_0-6_
  6
Continuous
 62
     5
100
AcDbLine
 10
7162.527960699958
 20
13756.40826840816
 30
0.0
 11
8891.98756862331
 21
13756.40826840816
 31
0.0
  0
LINE
  5
242
330
22
100
AcDbEntity
  8
_0-6_
  6
Continuous
 62
     5
100
AcDbLine
 10
8862.157460805534
 20
11556.40843336805
 30
0.0
 11
8862.157460805534
 21
13808.0749405735
 31
0.0
  0
LINE
  5
243
330
22
100
AcDbEntity
  8
_0-6_
  6
Continuous
 62
     5
100
AcDbLine
 10
7162.527960699958
 20
13656.40917568752
 30
0.0
 11
8949.721465239655
 21
13656.40917568752
 31
0.0
  0
LINE
  5
244
330
22
100
AcDbEntity
  8
_0-6_
  6
Continuous
 62
     5
100
AcDbLine
 10
7162.527960699958
 20
13556.40884576775
 30
0.0
 11
9007.457217654666
 21
13556.40884576775
 31
0.0
  0
LINE
  5
245
330
22
100
AcDbEntity
  8
_0-6_
  6
Continuous
 62
     5
100
AcDbLine
 10
8962.157790725296
 20
11556.40843336805
 30
0.0
 11
8962.157790725296
 21
13634.86953912713
 31
0.0
  0
LINE
  5
246
330
22
100
AcDbEntity
  8
_0-6_
  6
Continuous
 62
     5
100
AcDbLine
 10
7162.527960699958
 20
13456.40851584799
 30
0.0
 11
9065.192351470125
 21
13456.40851584799
 31
0.0
  0
LINE
  5
247
330
22
100
AcDbEntity
  8
_0-6_
  6
Continuous
 62
     5
100
AcDbLine
 10
7162.527960699958
 20
13356.40818592822
 30
0.0
 11
9122.927485285579
 21
13356.40818592822
 31
0.0
  0
LINE
  5
248
330
22
100
AcDbEntity
  8
_0-6_
  6
Continuous
 62
     5
100
AcDbLine
 10
7162.527960699958
 20
13256.40909320757
 30
0.0
 11
9180.662000501476
 21
13256.40909320757
 31
0.0
  0
LINE
  5
249
330
22
100
AcDbEntity
  8
_0-6_
  6
Continuous
 62
     5
100
AcDbLine
 10
7162.527960699958
 20
13156.40876328781
 30
0.0
 11
9238.397134316937
 21
13156.40876328781
 31
0.0
  0
LINE
  5
24A
330
22
100
AcDbEntity
  8
_0-6_
  6
Continuous
 62
     5
100
AcDbLine
 10
7162.527960699958
 20
13056.40843336804
 30
0.0
 11
9296.132268132394
 21
13056.40843336804
 31
0.0
  0
LINE
  5
24B
330
22
100
AcDbEntity
  8
_0-6_
  6
Continuous
 62
     5
100
AcDbLine
 10
9062.15812064506
 20
11556.40843336805
 30
0.0
 11
9062.15812064506
 21
13461.66413768076
 31
0.0
  0
LINE
  5
24C
330
22
100
AcDbEntity
  8
_0-6_
  6
Continuous
 62
     5
100
AcDbLine
 10
7162.527960699958
 20
12856.40901072764
 30
0.0
 11
9411.602535763305
 21
12856.40901072764
 31
0.0
  0
LINE
  5
24D
330
22
100
AcDbEntity
  8
_0-6_
  6
Continuous
 62
     5
100
AcDbLine
 10
9162.15783196527
 20
11556.40843336805
 30
0.0
 11
9162.15783196527
 21
13288.45873623439
 31
0.0
  0
LINE
  5
24E
330
22
100
AcDbEntity
  8
_0-6_
  6
Continuous
 62
     5
100
AcDbLine
 10
7162.527960699958
 20
12956.40934064739
 30
0.0
 11
9353.867401947843
 21
12956.40934064739
 31
0.0
  0
LINE
  5
24F
330
22
100
AcDbEntity
  8
_0-6_
  6
Continuous
 62
     5
100
AcDbLine
 10
7162.527960699958
 20
12756.40868080787
 30
0.0
 11
9469.337050979202
 21
12756.40868080787
 31
0.0
  0
LINE
  5
250
330
22
100
AcDbEntity
  8
_0-6_
  6
Continuous
 62
     5
100
AcDbLine
 10
7162.527960699958
 20
12656.4083508881
 30
0.0
 11
9527.072803394217
 21
12656.4083508881
 31
0.0
  0
LINE
  5
251
330
22
100
AcDbEntity
  8
_0-6_
  6
Continuous
 62
     5
100
AcDbLine
 10
7162.527960699958
 20
12556.40925816746
 30
0.0
 11
9584.807318610112
 21
12556.40925816746
 31
0.0
  0
LINE
  5
252
330
22
100
AcDbEntity
  8
_0-6_
  6
Continuous
 62
     5
100
AcDbLine
 10
7162.527960699958
 20
12456.40892824769
 30
0.0
 11
9642.542452425573
 21
12456.40892824769
 31
0.0
  0
LINE
  5
253
330
22
100
AcDbEntity
  8
_0-6_
  6
Continuous
 62
     5
100
AcDbLine
 10
9362.157873205235
 20
11556.40843336805
 30
0.0
 11
9362.157873205235
 21
12942.04917054077
 31
0.0
  0
LINE
  5
254
330
22
100
AcDbEntity
  8
_0-6_
  6
Continuous
 62
     5
100
AcDbLine
 10
7162.527960699958
 20
12256.40826840816
 30
0.0
 11
9758.01333865604
 21
12256.40826840816
 31
0.0
  0
LINE
  5
255
330
22
100
AcDbEntity
  8
_0-6_
  6
Continuous
 62
     5
100
AcDbLine
 10
7162.527960699958
 20
12356.40859832793
 30
0.0
 11
9700.277586241023
 21
12356.40859832793
 31
0.0
  0
LINE
  5
256
330
22
100
AcDbEntity
  8
_0-6_
  6
Continuous
 62
     5
100
AcDbLine
 10
7162.527960699958
 20
12156.40917568751
 30
0.0
 11
9815.747235272384
 21
12156.40917568751
 31
0.0
  0
LINE
  5
257
330
22
100
AcDbEntity
  8
_0-6_
  6
Continuous
 62
     5
100
AcDbLine
 10
9462.157584525446
 20
11556.40843336805
 30
0.0
 11
9462.157584525446
 21
12768.8450062935
 31
0.0
  0
LINE
  5
258
330
22
100
AcDbEntity
  8
_0-6_
  6
Continuous
 62
     5
100
AcDbLine
 10
7162.527960699958
 20
12056.40884576775
 30
0.0
 11
9873.482369087838
 21
12056.40884576775
 31
0.0
  0
LINE
  5
259
330
22
100
AcDbEntity
  8
_0-6_
  6
Continuous
 62
     5
100
AcDbLine
 10
7162.527960699958
 20
11956.40851584799
 30
0.0
 11
9931.217502903296
 21
11956.40851584799
 31
0.0
  0
LINE
  5
25A
330
22
100
AcDbEntity
  8
_0-6_
  6
Continuous
 62
     5
100
AcDbLine
 10
9562.157914445206
 20
11556.40843336805
 30
0.0
 11
9562.157914445206
 21
12595.63836764802
 31
0.0
  0
LINE
  5
25B
330
22
100
AcDbEntity
  8
_0-6_
  6
Continuous
 62
     5
100
AcDbLine
 10
9662.157625765416
 20
11556.40843336805
 30
0.0
 11
9662.157625765416
 21
12422.43420340078
 31
0.0
  0
LINE
  5
25C
330
22
100
AcDbEntity
  8
_0-6_
  6
Continuous
 62
     5
100
AcDbLine
 10
7162.527960699958
 20
11756.40909320757
 30
0.0
 11
10046.68777053421
 21
11756.40909320757
 31
0.0
  0
LINE
  5
25D
330
22
100
AcDbEntity
  8
_0-6_
  6
Continuous
 62
     5
100
AcDbLine
 10
7162.527960699958
 20
11856.40818592822
 30
0.0
 11
9988.95263671875
 21
11856.40818592822
 31
0.0
  0
LINE
  5
25E
330
22
100
AcDbEntity
  8
_0-6_
  6
Continuous
 62
     5
100
AcDbLine
 10
7162.527960699958
 20
11656.40876328781
 30
0.0
 11
10104.42290434966
 21
11656.40876328781
 31
0.0
  0
LINE
  5
25F
330
22
100
AcDbEntity
  8
_0-2_
  6
Continuous
 62
     7
100
AcDbLine
 10
31137.15424408784
 20
23231.3677707572
 30
0.0
 11
31187.15193464949
 21
23231.3677707572
 31
0.0
  0
LINE
  5
260
330
22
100
AcDbEntity
  8
_0-2_
  6
Continuous
 62
     7
100
AcDbLine
 10
31187.15193464949
 20
23381.36579123861
 30
0.0
 11
31187.15193464949
 21
23231.3677707572
 31
0.0
  0
LINE
  5
261
330
22
100
AcDbEntity
  8
_0-2_
  6
Continuous
 62
     7
100
AcDbLine
 10
31137.15424408784
 20
23381.36579123861
 30
0.0
 11
31187.15193464949
 21
23381.36579123861
 31
0.0
  0
LINE
  5
262
330
22
100
AcDbEntity
  8
_0-2_
  6
Continuous
 62
     7
100
AcDbLine
 10
31137.15424408784
 20
23381.36579123861
 30
0.0
 11
31137.15424408784
 21
23231.3677707572
 31
0.0
  0
LINE
  5
263
330
22
100
AcDbEntity
  8
_0-2_
  6
Continuous
 62
     7
100
AcDbLine
 10
31000.15671188768
 20
23306.36678099791
 30
0.0
 11
31137.15424408784
 21
23306.36678099791
 31
0.0
  0
LINE
  5
264
330
22
100
AcDbEntity
  8
_0-2_
  6
Continuous
 62
     7
100
AcDbLine
 10
31324.15441564612
 20
23306.36678099791
 30
0.0
 11
31187.15193464949
 21
23306.36678099791
 31
0.0
  0
LINE
  5
265
330
22
100
AcDbEntity
  8
_0-2_
  6
Continuous
 62
     7
100
AcDbLine
 10
23137.15506888724
 20
23231.07331736826
 30
0.0
 11
23187.15275944891
 21
23231.07331736826
 31
0.0
  0
LINE
  5
266
330
22
100
AcDbEntity
  8
_0-2_
  6
Continuous
 62
     7
100
AcDbLine
 10
23137.15506888724
 20
23381.07133784968
 30
0.0
 11
23137.15506888724
 21
23231.07331736826
 31
0.0
  0
LINE
  5
267
330
22
100
AcDbEntity
  8
_0-2_
  6
Continuous
 62
     7
100
AcDbLine
 10
23187.15275944891
 20
23231.07331736826
 30
0.0
 11
23187.15275944891
 21
23381.07133784968
 31
0.0
  0
LINE
  5
268
330
22
100
AcDbEntity
  8
_0-2_
  6
Continuous
 62
     7
100
AcDbLine
 10
23137.15506888724
 20
23381.07133784968
 30
0.0
 11
23187.15275944891
 21
23381.07133784968
 31
0.0
  0
LINE
  5
269
330
22
100
AcDbEntity
  8
_0-2_
  6
Continuous
 62
     7
100
AcDbLine
 10
23000.16248548353
 20
23306.07232760897
 30
0.0
 11
23137.15506888724
 21
23306.07232760897
 31
0.0
  0
LINE
  5
26A
330
22
100
AcDbEntity
  8
_0-2_
  6
Continuous
 62
     7
100
AcDbLine
 10
23324.16018924197
 20
23306.07232760897
 30
0.0
 11
23187.15275944891
 21
23306.07232760897
 31
0.0
  0
LINE
  5
26B
330
22
100
AcDbEntity
  8
_0-0_
  6
CENTER1
 62
     4
100
AcDbLine
 10
7162.158038165121
 20
24456.40769104858
 30
0.0
 11
7162.158038165121
 21
19330.95528857285
 31
0.0
  0
LINE
  5
26C
330
22
100
AcDbEntity
  8
_0-0_
  6
CENTER1
 62
     4
100
AcDbLine
 10
23162.15638856631
 20
24456.40769104858
 30
0.0
 11
23162.15638856631
 21
19331.8881367042
 31
0.0
  0
LINE
  5
26D
330
22
100
AcDbEntity
  8
_0-0_
  6
Continuous
 62
     7
100
AcDbLine
 10
23187.15770824536
 20
23231.07331736826
 30
0.0
 11
23137.15506888724
 21
23231.07331736826
 31
0.0
  0
LINE
  5
26E
330
22
100
AcDbEntity
  8
_0-0_
  6
Continuous
 62
     7
100
AcDbLine
 10
31187.15193464949
 20
23231.3677707572
 30
0.0
 11
31137.14929529139
 21
23231.3677707572
 31
0.0
  0
LINE
  5
26F
330
22
100
AcDbEntity
  8
_0-0_
  6
CENTER1
 62
     4
100
AcDbLine
 10
31162.15061497044
 20
23231.3677707572
 30
0.0
 11
31162.15061497044
 21
19480.91248148354
 31
0.0
  0
LINE
  5
270
330
22
100
AcDbEntity
  8
_0-3_
  6
Continuous
 62
     6
100
AcDbLine
 10
23162.15638856631
 20
23181.08057560306
 30
0.0
 11
23162.15638856631
 21
19480.91248148354
 31
0.0
  0
LINE
  5
271
330
22
100
AcDbEntity
  8
_0-6_
  6
Continuous
 62
     5
100
AcDbLine
 10
33162.15226456926
 20
11556.40843336805
 30
0.0
 11
26407.15645455026
 21
23256.40868080788
 31
0.0
  0
LINE
  5
272
330
22
100
AcDbEntity
  8
_0-6_
  6
Continuous
 62
     5
100
AcDbLine
 10
26522.62672218116
 20
23056.40802096835
 30
0.0
 11
33162.15226456926
 21
23056.40802096835
 31
0.0
  0
LINE
  5
273
330
22
100
AcDbEntity
  8
_0-6_
  6
Continuous
 62
     5
100
AcDbLine
 10
26580.3593815984
 20
22956.40769104859
 30
0.0
 11
33162.15226456926
 21
22956.40769104859
 31
0.0
  0
LINE
  5
274
330
22
100
AcDbEntity
  8
_0-6_
  6
Continuous
 62
     5
100
AcDbLine
 10
26638.09204101562
 20
22856.40983552705
 30
0.0
 11
33162.15226456926
 21
22856.40983552705
 31
0.0
  0
LINE
  5
275
330
22
100
AcDbEntity
  8
_0-6_
  6
Continuous
 62
     5
100
AcDbLine
 10
26753.56230864653
 20
22656.40917568751
 30
0.0
 11
33162.15226456926
 21
22656.40917568751
 31
0.0
  0
LINE
  5
276
330
22
100
AcDbEntity
  8
_0-6_
  6
Continuous
 62
     5
100
AcDbLine
 10
26811.29991686022
 20
22556.40884576775
 30
0.0
 11
33162.15226456926
 21
22556.40884576775
 31
0.0
  0
LINE
  5
277
330
22
100
AcDbEntity
  8
_0-6_
  6
Continuous
 62
     5
100
AcDbLine
 10
26464.88911396748
 20
23156.40835088811
 30
0.0
 11
33162.15226456926
 21
23156.40835088811
 31
0.0
  0
LINE
  5
278
330
22
100
AcDbEntity
  8
_0-6_
  6
Continuous
 62
     5
100
AcDbLine
 10
26562.1527594489
 20
23256.40868080788
 30
0.0
 11
26562.1527594489
 21
22987.94389644343
 31
0.0
  0
LINE
  5
279
330
22
100
AcDbEntity
  8
_0-6_
  6
Continuous
 62
     5
100
AcDbLine
 10
26662.15308936866
 20
23256.40868080788
 30
0.0
 11
26662.15308936866
 21
22814.73849499707
 31
0.0
  0
LINE
  5
27A
330
22
100
AcDbEntity
  8
_0-6_
  6
Continuous
 62
     5
100
AcDbLine
 10
26762.15341928843
 20
23256.40868080788
 30
0.0
 11
26762.15341928843
 21
22641.53061915247
 31
0.0
  0
LINE
  5
27B
330
22
100
AcDbEntity
  8
_0-6_
  6
Continuous
 62
     5
100
AcDbLine
 10
26695.82964922931
 20
22756.40950560728
 30
0.0
 11
33162.15226456926
 21
22756.40950560728
 31
0.0
  0
LINE
  5
27C
330
22
100
AcDbEntity
  8
_0-6_
  6
Continuous
 62
     5
100
AcDbLine
 10
26862.15374920819
 20
23256.40868080788
 30
0.0
 11
26862.15374920819
 21
22468.33016650255
 31
0.0
  0
LINE
  5
27D
330
22
100
AcDbEntity
  8
_0-6_
  6
Continuous
 62
     5
100
AcDbLine
 10
26962.15407912796
 20
23256.40868080788
 30
0.0
 11
26962.15407912796
 21
22295.12476505618
 31
0.0
  0
LINE
  5
27E
330
22
100
AcDbEntity
  8
_0-6_
  6
Continuous
 62
     5
100
AcDbLine
 10
26869.03752507391
 20
22456.40851584799
 30
0.0
 11
33162.15226456926
 21
22456.40851584799
 31
0.0
  0
LINE
  5
27F
330
22
100
AcDbEntity
  8
_0-6_
  6
Continuous
 62
     5
100
AcDbLine
 10
27062.15440904772
 20
23256.40868080788
 30
0.0
 11
27062.15440904772
 21
22121.91936360981
 31
0.0
  0
LINE
  5
280
330
22
100
AcDbEntity
  8
_0-6_
  6
Continuous
 62
     5
100
AcDbLine
 10
26926.77018449113
 20
22356.40818592823
 30
0.0
 11
33162.15226456926
 21
22356.40818592823
 31
0.0
  0
LINE
  5
281
330
22
100
AcDbEntity
  8
_0-6_
  6
Continuous
 62
     5
100
AcDbLine
 10
26984.50779270482
 20
22256.40785600845
 30
0.0
 11
33162.15226456926
 21
22256.40785600845
 31
0.0
  0
LINE
  5
282
330
22
100
AcDbEntity
  8
_0-6_
  6
Continuous
 62
     5
100
AcDbLine
 10
27042.24045212205
 20
22156.4075260887
 30
0.0
 11
33162.15226456926
 21
22156.4075260887
 31
0.0
  0
LINE
  5
283
330
22
100
AcDbEntity
  8
_0-6_
  6
Continuous
 62
     5
100
AcDbLine
 10
27099.97311153928
 20
22056.40967056716
 30
0.0
 11
33162.15226456926
 21
22056.40967056716
 31
0.0
  0
LINE
  5
284
330
22
100
AcDbEntity
  8
_0-6_
  6
Continuous
 62
     5
100
AcDbLine
 10
27157.71071975296
 20
21956.4093406474
 30
0.0
 11
33162.15226456926
 21
21956.4093406474
 31
0.0
  0
LINE
  5
285
330
22
100
AcDbEntity
  8
_0-6_
  6
Continuous
 62
     5
100
AcDbLine
 10
27215.44337917019
 20
21856.40901072764
 30
0.0
 11
33162.15226456926
 21
21856.40901072764
 31
0.0
  0
LINE
  5
286
330
22
100
AcDbEntity
  8
_0-6_
  6
Continuous
 62
     5
100
AcDbLine
 10
27273.18098738387
 20
21756.40868080788
 30
0.0
 11
33162.15226456926
 21
21756.40868080788
 31
0.0
  0
LINE
  5
287
330
22
100
AcDbEntity
  8
_0-6_
  6
Continuous
 62
     5
100
AcDbLine
 10
27262.15506888725
 20
23256.40868080788
 30
0.0
 11
27262.15506888725
 21
21775.50856071708
 31
0.0
  0
LINE
  5
288
330
22
100
AcDbEntity
  8
_0-6_
  6
Continuous
 62
     5
100
AcDbLine
 10
27162.15473896748
 20
23256.40868080788
 30
0.0
 11
27162.15473896748
 21
21948.71396216345
 31
0.0
  0
LINE
  5
289
330
22
100
AcDbEntity
  8
_0-6_
  6
Continuous
 62
     5
100
AcDbLine
 10
27362.15539880701
 20
23256.40868080788
 30
0.0
 11
27362.15539880701
 21
21602.30068487249
 31
0.0
  0
LINE
  5
28A
330
22
100
AcDbEntity
  8
_0-6_
  6
Continuous
 62
     5
100
AcDbLine
 10
27462.15572872677
 20
23256.40868080788
 30
0.0
 11
27462.15572872677
 21
21429.09528342611
 31
0.0
  0
LINE
  5
28B
330
22
100
AcDbEntity
  8
_0-6_
  6
Continuous
 62
     5
100
AcDbLine
 10
27330.9136468011
 20
21656.40835088811
 30
0.0
 11
33162.15226456926
 21
21656.40835088811
 31
0.0
  0
LINE
  5
28C
330
22
100
AcDbEntity
  8
_0-6_
  6
Continuous
 62
     5
100
AcDbLine
 10
27388.65125501479
 20
21556.40802096835
 30
0.0
 11
33162.15226456926
 21
21556.40802096835
 31
0.0
  0
LINE
  5
28D
330
22
100
AcDbEntity
  8
_0-6_
  6
Continuous
 62
     5
100
AcDbLine
 10
27562.15605864654
 20
23256.40868080788
 30
0.0
 11
27562.15605864654
 21
21255.88988197975
 31
0.0
  0
LINE
  5
28E
330
22
100
AcDbEntity
  8
_0-6_
  6
Continuous
 62
     5
100
AcDbLine
 10
27446.38391443201
 20
21456.40892824769
 30
0.0
 11
33162.15226456926
 21
21456.40892824769
 31
0.0
  0
LINE
  5
28F
330
22
100
AcDbEntity
  8
_0-6_
  6
Continuous
 62
     5
100
AcDbLine
 10
27504.12152264569
 20
21356.40859832793
 30
0.0
 11
33162.15226456926
 21
21356.40859832793
 31
0.0
  0
LINE
  5
290
330
22
100
AcDbEntity
  8
_0-6_
  6
Continuous
 62
     5
100
AcDbLine
 10
27561.85418206292
 20
21256.40826840817
 30
0.0
 11
33162.15226456926
 21
21256.40826840817
 31
0.0
  0
LINE
  5
291
330
22
100
AcDbEntity
  8
_0-6_
  6
Continuous
 62
     5
100
AcDbLine
 10
27619.5917902766
 20
21156.4079384884
 30
0.0
 11
33162.15226456926
 21
21156.4079384884
 31
0.0
  0
LINE
  5
292
330
22
100
AcDbEntity
  8
_0-6_
  6
Continuous
 62
     5
100
AcDbLine
 10
27662.15143976985
 20
23256.40868080788
 30
0.0
 11
27662.15143976985
 21
21082.68942932983
 31
0.0
  0
LINE
  5
293
330
22
100
AcDbEntity
  8
_0-6_
  6
Continuous
 62
     5
100
AcDbLine
 10
27677.32444969384
 20
21056.40884576775
 30
0.0
 11
33162.15226456926
 21
21056.40884576775
 31
0.0
  0
LINE
  5
294
330
22
100
AcDbEntity
  8
_0-6_
  6
Continuous
 62
     5
100
AcDbLine
 10
27735.06205790752
 20
20956.40851584799
 30
0.0
 11
33162.15226456926
 21
20956.40851584799
 31
0.0
  0
LINE
  5
295
330
22
100
AcDbEntity
  8
_0-6_
  6
Continuous
 62
     5
100
AcDbLine
 10
27792.79471732475
 20
20856.40818592823
 30
0.0
 11
33162.15226456926
 21
20856.40818592823
 31
0.0
  0
LINE
  5
296
330
22
100
AcDbEntity
  8
_0-6_
  6
Continuous
 62
     5
100
AcDbLine
 10
27850.53232553843
 20
20756.40909320757
 30
0.0
 11
33162.15226456926
 21
20756.40909320757
 31
0.0
  0
LINE
  5
297
330
22
100
AcDbEntity
  8
_0-6_
  6
Continuous
 62
     5
100
AcDbLine
 10
27762.15176968962
 20
23256.40868080788
 30
0.0
 11
27762.15176968962
 21
20909.48402788346
 31
0.0
  0
LINE
  5
298
330
22
100
AcDbEntity
  8
_0-6_
  6
Continuous
 62
     5
100
AcDbLine
 10
27862.15209960937
 20
23256.40868080788
 30
0.0
 11
27862.15209960937
 21
20736.27862643709
 31
0.0
  0
LINE
  5
299
330
22
100
AcDbEntity
  8
_0-6_
  6
Continuous
 62
     5
100
AcDbLine
 10
27908.26498495567
 20
20656.40876328781
 30
0.0
 11
33162.15226456926
 21
20656.40876328781
 31
0.0
  0
LINE
  5
29A
330
22
100
AcDbEntity
  8
_0-6_
  6
Continuous
 62
     5
100
AcDbLine
 10
27962.14995513091
 20
23256.40868080788
 30
0.0
 11
27962.14995513091
 21
20563.07198779161
 31
0.0
  0
LINE
  5
29B
330
22
100
AcDbEntity
  8
_0-6_
  6
Continuous
 62
     5
100
AcDbLine
 10
28062.15028505068
 20
23256.40868080788
 30
0.0
 11
28062.15028505068
 21
20389.86658634525
 31
0.0
  0
LINE
  5
29C
330
22
100
AcDbEntity
  8
_0-6_
  6
Continuous
 62
     5
100
AcDbLine
 10
27966.00011877112
 20
20556.40843336805
 30
0.0
 11
33162.15226456926
 21
20556.40843336805
 31
0.0
  0
LINE
  5
29D
330
22
100
AcDbEntity
  8
_0-6_
  6
Continuous
 62
     5
100
AcDbLine
 10
28023.73277818834
 20
20456.40810344829
 30
0.0
 11
33162.15226456926
 21
20456.40810344829
 31
0.0
  0
LINE
  5
29E
330
22
100
AcDbEntity
  8
_0-6_
  6
Continuous
 62
     5
100
AcDbLine
 10
28081.47038640203
 20
20356.40901072763
 30
0.0
 11
33162.15226456926
 21
20356.40901072763
 31
0.0
  0
LINE
  5
29F
330
22
100
AcDbEntity
  8
_0-6_
  6
Continuous
 62
     5
100
AcDbLine
 10
28162.15061497045
 20
23256.40868080788
 30
0.0
 11
28162.15061497045
 21
20216.66242209799
 31
0.0
  0
LINE
  5
2A0
330
22
100
AcDbEntity
  8
_0-6_
  6
Continuous
 62
     5
100
AcDbLine
 10
28139.20304581926
 20
20256.40868080787
 30
0.0
 11
33162.15226456926
 21
20256.40868080787
 31
0.0
  0
LINE
  5
2A1
330
22
100
AcDbEntity
  8
_0-6_
  6
Continuous
 62
     5
100
AcDbLine
 10
28196.94065403295
 20
20156.4083508881
 30
0.0
 11
33162.15226456926
 21
20156.4083508881
 31
0.0
  0
LINE
  5
2A2
330
22
100
AcDbEntity
  8
_0-6_
  6
Continuous
 62
     5
100
AcDbLine
 10
28254.67331345017
 20
20056.40802096835
 30
0.0
 11
33162.15226456926
 21
20056.40802096835
 31
0.0
  0
LINE
  5
2A3
330
22
100
AcDbEntity
  8
_0-6_
  6
Continuous
 62
     5
100
AcDbLine
 10
28312.41092166385
 20
19956.40892824769
 30
0.0
 11
33162.15226456926
 21
19956.40892824769
 31
0.0
  0
LINE
  5
2A4
330
22
100
AcDbEntity
  8
_0-6_
  6
Continuous
 62
     5
100
AcDbLine
 10
28370.14358108108
 20
19856.40859832792
 30
0.0
 11
33162.15226456926
 21
19856.40859832792
 31
0.0
  0
LINE
  5
2A5
330
22
100
AcDbEntity
  8
_0-6_
  6
Continuous
 62
     5
100
AcDbLine
 10
28427.88118929477
 20
19756.40826840817
 30
0.0
 11
33162.15226456926
 21
19756.40826840817
 31
0.0
  0
LINE
  5
2A6
330
22
100
AcDbEntity
  8
_0-6_
  6
Continuous
 62
     5
100
AcDbLine
 10
28462.15160472973
 20
23256.40868080788
 30
0.0
 11
28462.15160472973
 21
19697.04869215711
 31
0.0
  0
LINE
  5
2A7
330
22
100
AcDbEntity
  8
_0-6_
  6
Continuous
 62
     5
100
AcDbLine
 10
28362.15127480997
 20
23256.40868080788
 30
0.0
 11
28362.15127480997
 21
19870.25409360348
 31
0.0
  0
LINE
  5
2A8
330
22
100
AcDbEntity
  8
_0-6_
  6
Continuous
 62
     5
100
AcDbLine
 10
28262.1509448902
 20
23256.40868080788
 30
0.0
 11
28262.1509448902
 21
20043.4545462534
 31
0.0
  0
LINE
  5
2A9
330
22
100
AcDbEntity
  8
_0-6_
  6
Continuous
 62
     5
100
AcDbLine
 10
28485.613848712
 20
19656.40917568751
 30
0.0
 11
33162.15226456926
 21
19656.40917568751
 31
0.0
  0
LINE
  5
2AA
330
22
100
AcDbEntity
  8
_0-6_
  6
Continuous
 62
     5
100
AcDbLine
 10
28543.34650812922
 20
19556.40884576775
 30
0.0
 11
33162.15226456926
 21
19556.40884576775
 31
0.0
  0
LINE
  5
2AB
330
22
100
AcDbEntity
  8
_0-6_
  6
Continuous
 62
     5
100
AcDbLine
 10
28562.15193464949
 20
23256.40868080788
 30
0.0
 11
28562.15193464949
 21
19523.84205351163
 31
0.0
  0
LINE
  5
2AC
330
22
100
AcDbEntity
  8
_0-6_
  6
Continuous
 62
     5
100
AcDbLine
 10
28662.15226456926
 20
23256.40868080788
 30
0.0
 11
28662.15226456926
 21
19350.63788926436
 31
0.0
  0
LINE
  5
2AD
330
22
100
AcDbEntity
  8
_0-6_
  6
Continuous
 62
     5
100
AcDbLine
 10
28601.08411634291
 20
19456.40851584798
 30
0.0
 11
33162.15226456926
 21
19456.40851584798
 31
0.0
  0
LINE
  5
2AE
330
22
100
AcDbEntity
  8
_0-6_
  6
Continuous
 62
     5
100
AcDbLine
 10
28762.15259448902
 20
23256.40868080788
 30
0.0
 11
28762.15259448902
 21
19177.43125061889
 31
0.0
  0
LINE
  5
2AF
330
22
100
AcDbEntity
  8
_0-6_
  6
Continuous
 62
     5
100
AcDbLine
 10
28716.55438397382
 20
19256.40785600846
 30
0.0
 11
33162.15226456926
 21
19256.40785600846
 31
0.0
  0
LINE
  5
2B0
330
22
100
AcDbEntity
  8
_0-6_
  6
Continuous
 62
     5
100
AcDbLine
 10
28774.28704339105
 20
19156.40876328781
 30
0.0
 11
33162.15226456926
 21
19156.40876328781
 31
0.0
  0
LINE
  5
2B1
330
22
100
AcDbEntity
  8
_0-6_
  6
Continuous
 62
     5
100
AcDbLine
 10
28862.15292440879
 20
23256.40868080788
 30
0.0
 11
28862.15292440879
 21
19004.22584917252
 31
0.0
  0
LINE
  5
2B2
330
22
100
AcDbEntity
  8
_0-6_
  6
Continuous
 62
     5
100
AcDbLine
 10
28832.02465160473
 20
19056.40843336805
 30
0.0
 11
33162.15226456926
 21
19056.40843336805
 31
0.0
  0
LINE
  5
2B3
330
22
100
AcDbEntity
  8
_0-6_
  6
Continuous
 62
     5
100
AcDbLine
 10
28962.15325432855
 20
23256.40868080788
 30
0.0
 11
28962.15325432855
 21
18831.01921052704
 31
0.0
  0
LINE
  5
2B4
330
22
100
AcDbEntity
  8
_0-6_
  6
Continuous
 62
     5
100
AcDbLine
 10
28889.75731102196
 20
18956.40810344828
 30
0.0
 11
33162.15226456926
 21
18956.40810344828
 31
0.0
  0
LINE
  5
2B5
330
22
100
AcDbEntity
  8
_0-6_
  6
Continuous
 62
     5
100
AcDbLine
 10
28947.49491923565
 20
18856.40901072763
 30
0.0
 11
33162.15226456926
 21
18856.40901072763
 31
0.0
  0
LINE
  5
2B6
330
22
100
AcDbEntity
  8
_0-6_
  6
Continuous
 62
     5
100
AcDbLine
 10
29062.15358424832
 20
23256.40868080788
 30
0.0
 11
29062.15358424832
 21
18657.81380908066
 31
0.0
  0
LINE
  5
2B7
330
22
100
AcDbEntity
  8
_0-6_
  6
Continuous
 62
     5
100
AcDbLine
 10
29162.14896537163
 20
23256.40868080788
 30
0.0
 11
29162.14896537163
 21
18484.61335643076
 31
0.0
  0
LINE
  5
2B8
330
22
100
AcDbEntity
  8
_0-6_
  6
Continuous
 62
     5
100
AcDbLine
 10
29005.22757865288
 20
18756.40868080787
 30
0.0
 11
33162.15226456926
 21
18756.40868080787
 31
0.0
  0
LINE
  5
2B9
330
22
100
AcDbEntity
  8
_0-6_
  6
Continuous
 62
     5
100
AcDbLine
 10
29062.96518686655
 20
18656.4083508881
 30
0.0
 11
33162.15226456926
 21
18656.4083508881
 31
0.0
  0
LINE
  5
2BA
330
22
100
AcDbEntity
  8
_0-6_
  6
Continuous
 62
     5
100
AcDbLine
 10
29120.69784628379
 20
18556.40802096834
 30
0.0
 11
33162.15226456926
 21
18556.40802096834
 31
0.0
  0
LINE
  5
2BB
330
22
100
AcDbEntity
  8
_0-6_
  6
Continuous
 62
     5
100
AcDbLine
 10
29178.43545449747
 20
18456.40892824769
 30
0.0
 11
33162.15226456926
 21
18456.40892824769
 31
0.0
  0
LINE
  5
2BC
330
22
100
AcDbEntity
  8
_0-6_
  6
Continuous
 62
     5
100
AcDbLine
 10
29236.1681139147
 20
18356.40859832792
 30
0.0
 11
33162.15226456926
 21
18356.40859832792
 31
0.0
  0
LINE
  5
2BD
330
22
100
AcDbEntity
  8
_0-6_
  6
Continuous
 62
     5
100
AcDbLine
 10
29262.14929529139
 20
23256.40868080788
 30
0.0
 11
29262.14929529139
 21
18311.40795498439
 31
0.0
  0
LINE
  5
2BE
330
22
100
AcDbEntity
  8
_0-6_
  6
Continuous
 62
     5
100
AcDbLine
 10
29362.14962521115
 20
23256.40868080788
 30
0.0
 11
29362.14962521115
 21
18138.20131633891
 31
0.0
  0
LINE
  5
2BF
330
22
100
AcDbEntity
  8
_0-6_
  6
Continuous
 62
     5
100
AcDbLine
 10
29293.90572212838
 20
18256.40826840817
 30
0.0
 11
33162.15226456926
 21
18256.40826840817
 31
0.0
  0
LINE
  5
2C0
330
22
100
AcDbEntity
  8
_0-6_
  6
Continuous
 62
     5
100
AcDbLine
 10
29351.63838154561
 20
18156.40917568751
 30
0.0
 11
33162.15226456926
 21
18156.40917568751
 31
0.0
  0
LINE
  5
2C1
330
22
100
AcDbEntity
  8
_0-6_
  6
Continuous
 62
     5
100
AcDbLine
 10
29467.10864917652
 20
17956.40851584798
 30
0.0
 11
33162.15226456926
 21
17956.40851584798
 31
0.0
  0
LINE
  5
2C2
330
22
100
AcDbEntity
  8
_0-6_
  6
Continuous
 62
     5
100
AcDbLine
 10
29409.37598975929
 20
18056.40884576775
 30
0.0
 11
33162.15226456926
 21
18056.40884576775
 31
0.0
  0
LINE
  5
2C3
330
22
100
AcDbEntity
  8
_0-6_
  6
Continuous
 62
     5
100
AcDbLine
 10
29462.14995513091
 20
23256.40868080788
 30
0.0
 11
29462.14995513091
 21
17964.99467769343
 31
0.0
  0
LINE
  5
2C4
330
22
100
AcDbEntity
  8
_0-6_
  6
Continuous
 62
     5
100
AcDbLine
 10
29562.15028505068
 20
23256.40868080788
 30
0.0
 11
29562.15028505068
 21
17791.79051344617
 31
0.0
  0
LINE
  5
2C5
330
22
100
AcDbEntity
  8
_0-6_
  6
Continuous
 62
     5
100
AcDbLine
 10
29662.15061497044
 20
23256.40868080788
 30
0.0
 11
29662.15061497044
 21
17618.58387480069
 31
0.0
  0
LINE
  5
2C6
330
22
100
AcDbEntity
  8
_0-6_
  6
Continuous
 62
     5
100
AcDbLine
 10
29524.8462573902
 20
17856.40818592821
 30
0.0
 11
33162.15226456926
 21
17856.40818592821
 31
0.0
  0
LINE
  5
2C7
330
22
100
AcDbEntity
  8
_0-6_
  6
Continuous
 62
     5
100
AcDbLine
 10
29582.57891680744
 20
17756.40785600846
 30
0.0
 11
33162.15226456926
 21
17756.40785600846
 31
0.0
  0
LINE
  5
2C8
330
22
100
AcDbEntity
  8
_0-6_
  6
Continuous
 62
     5
100
AcDbLine
 10
29640.31652502112
 20
17656.40876328781
 30
0.0
 11
33162.15226456926
 21
17656.40876328781
 31
0.0
  0
LINE
  5
2C9
330
22
100
AcDbEntity
  8
_0-6_
  6
Continuous
 62
     5
100
AcDbLine
 10
29698.04918443835
 20
17556.40843336805
 30
0.0
 11
33162.15226456926
 21
17556.40843336805
 31
0.0
  0
LINE
  5
2CA
330
22
100
AcDbEntity
  8
_0-6_
  6
Continuous
 62
     5
100
AcDbLine
 10
29755.78679265203
 20
17456.40810344828
 30
0.0
 11
33162.15226456926
 21
17456.40810344828
 31
0.0
  0
LINE
  5
2CB
330
22
100
AcDbEntity
  8
_0-6_
  6
Continuous
 62
     5
100
AcDbLine
 10
29762.1509448902
 20
23256.40868080788
 30
0.0
 11
29762.1509448902
 21
17445.37971055343
 31
0.0
  0
LINE
  5
2CC
330
22
100
AcDbEntity
  8
_0-6_
  6
Continuous
 62
     5
100
AcDbLine
 10
29862.15127480997
 20
23256.40868080788
 30
0.0
 11
29862.15127480997
 21
17272.17307190795
 31
0.0
  0
LINE
  5
2CD
330
22
100
AcDbEntity
  8
_0-6_
  6
Continuous
 62
     5
100
AcDbLine
 10
29813.51945206927
 20
17356.40901072763
 30
0.0
 11
33162.15226456926
 21
17356.40901072763
 31
0.0
  0
LINE
  5
2CE
330
22
100
AcDbEntity
  8
_0-6_
  6
Continuous
 62
     5
100
AcDbLine
 10
29871.25211148649
 20
17256.40868080787
 30
0.0
 11
33162.15226456926
 21
17256.40868080787
 31
0.0
  0
LINE
  5
2CF
330
22
100
AcDbEntity
  8
_0-6_
  6
Continuous
 62
     5
100
AcDbLine
 10
29986.7223791174
 20
17056.40925816745
 30
0.0
 11
33162.15226456926
 21
17056.40925816745
 31
0.0
  0
LINE
  5
2D0
330
22
100
AcDbEntity
  8
_0-6_
  6
Continuous
 62
     5
100
AcDbLine
 10
29928.98971970017
 20
17156.40958808722
 30
0.0
 11
33162.15226456926
 21
17156.40958808722
 31
0.0
  0
LINE
  5
2D1
330
22
100
AcDbEntity
  8
_0-6_
  6
Continuous
 62
     5
100
AcDbLine
 10
29962.15160472973
 20
23256.40868080788
 30
0.0
 11
29962.15160472973
 21
17098.97261925804
 31
0.0
  0
LINE
  5
2D2
330
22
100
AcDbEntity
  8
_0-6_
  6
Continuous
 62
     5
100
AcDbLine
 10
30062.15193464949
 20
23256.40868080788
 30
0.0
 11
30062.15193464949
 21
16925.76721781167
 31
0.0
  0
LINE
  5
2D3
330
22
100
AcDbEntity
  8
_0-6_
  6
Continuous
 62
     5
100
AcDbLine
 10
30162.15226456926
 20
23256.40868080788
 30
0.0
 11
30162.15226456926
 21
16752.5618163653
 31
0.0
  0
LINE
  5
2D4
330
22
100
AcDbEntity
  8
_0-6_
  6
Continuous
 62
     5
100
AcDbLine
 10
30044.45998733109
 20
16956.40892824769
 30
0.0
 11
33162.15226456926
 21
16956.40892824769
 31
0.0
  0
LINE
  5
2D5
330
22
100
AcDbEntity
  8
_0-6_
  6
Continuous
 62
     5
100
AcDbLine
 10
30102.19264674832
 20
16856.40859832792
 30
0.0
 11
33162.15226456926
 21
16856.40859832792
 31
0.0
  0
LINE
  5
2D6
330
22
100
AcDbEntity
  8
_0-6_
  6
Continuous
 62
     5
100
AcDbLine
 10
30217.66291437923
 20
16656.40917568751
 30
0.0
 11
33162.15226456926
 21
16656.40917568751
 31
0.0
  0
LINE
  5
2D7
330
22
100
AcDbEntity
  8
_0-6_
  6
Continuous
 62
     5
100
AcDbLine
 10
30262.15259448902
 20
23256.40868080788
 30
0.0
 11
30262.15259448902
 21
16579.35517771982
 31
0.0
  0
LINE
  5
2D8
330
22
100
AcDbEntity
  8
_0-6_
  6
Continuous
 62
     5
100
AcDbLine
 10
30159.930254962
 20
16756.40950560727
 30
0.0
 11
33162.15226456926
 21
16756.40950560727
 31
0.0
  0
LINE
  5
2D9
330
22
100
AcDbEntity
  8
_0-6_
  6
Continuous
 62
     5
100
AcDbLine
 10
30275.40052259291
 20
16556.40884576775
 30
0.0
 11
33162.15226456926
 21
16556.40884576775
 31
0.0
  0
LINE
  5
2DA
330
22
100
AcDbEntity
  8
_0-6_
  6
Continuous
 62
     5
100
AcDbLine
 10
30362.15292440879
 20
23256.40868080788
 30
0.0
 11
30362.15292440879
 21
16406.14977627345
 31
0.0
  0
LINE
  5
2DB
330
22
100
AcDbEntity
  8
_0-6_
  6
Continuous
 62
     5
100
AcDbLine
 10
30333.13318201014
 20
16456.40851584798
 30
0.0
 11
33162.15226456926
 21
16456.40851584798
 31
0.0
  0
LINE
  5
2DC
330
22
100
AcDbEntity
  8
_0-6_
  6
Continuous
 62
     5
100
AcDbLine
 10
30462.15325432855
 20
23256.40868080788
 30
0.0
 11
30462.15325432855
 21
16232.94437482708
 31
0.0
  0
LINE
  5
2DD
330
22
100
AcDbEntity
  8
_0-6_
  6
Continuous
 62
     5
100
AcDbLine
 10
30390.87079022382
 20
16356.40942312734
 30
0.0
 11
33162.15226456926
 21
16356.40942312734
 31
0.0
  0
LINE
  5
2DE
330
22
100
AcDbEntity
  8
_0-6_
  6
Continuous
 62
     5
100
AcDbLine
 10
30448.60344964105
 20
16256.40909320757
 30
0.0
 11
33162.15226456926
 21
16256.40909320757
 31
0.0
  0
LINE
  5
2DF
330
22
100
AcDbEntity
  8
_0-6_
  6
Continuous
 62
     5
100
AcDbLine
 10
30506.34105785473
 20
16156.40876328781
 30
0.0
 11
33162.15226456926
 21
16156.40876328781
 31
0.0
  0
LINE
  5
2E0
330
22
100
AcDbEntity
  8
_0-6_
  6
Continuous
 62
     5
100
AcDbLine
 10
30562.14863545186
 20
23256.40868080788
 30
0.0
 11
30562.14863545186
 21
16059.74268497806
 31
0.0
  0
LINE
  5
2E1
330
22
100
AcDbEntity
  8
_0-6_
  6
Continuous
 62
     5
100
AcDbLine
 10
30662.14896537163
 20
23256.40868080788
 30
0.0
 11
30662.14896537163
 21
15886.53728353168
 31
0.0
  0
LINE
  5
2E2
330
22
100
AcDbEntity
  8
_0-6_
  6
Continuous
 62
     5
100
AcDbLine
 10
30564.07371727197
 20
16056.40967056716
 30
0.0
 11
33162.15226456926
 21
16056.40967056716
 31
0.0
  0
LINE
  5
2E3
330
22
100
AcDbEntity
  8
_0-6_
  6
Continuous
 62
     5
100
AcDbLine
 10
30621.81132548565
 20
15956.40934064739
 30
0.0
 11
33162.15226456926
 21
15956.40934064739
 31
0.0
  0
LINE
  5
2E4
330
22
100
AcDbEntity
  8
_0-6_
  6
Continuous
 62
     5
100
AcDbLine
 10
30737.28159311657
 20
15756.40868080787
 30
0.0
 11
33162.15226456926
 21
15756.40868080787
 31
0.0
  0
LINE
  5
2E5
330
22
100
AcDbEntity
  8
_0-6_
  6
Continuous
 62
     5
100
AcDbLine
 10
30679.54398490288
 20
15856.40901072763
 30
0.0
 11
33162.15226456926
 21
15856.40901072763
 31
0.0
  0
LINE
  5
2E6
330
22
100
AcDbEntity
  8
_0-6_
  6
Continuous
 62
     5
100
AcDbLine
 10
30762.14929529139
 20
23256.40868080788
 30
0.0
 11
30762.14929529139
 21
15713.33188208532
 31
0.0
  0
LINE
  5
2E7
330
22
100
AcDbEntity
  8
_0-6_
  6
Continuous
 62
     5
100
AcDbLine
 10
30862.14962521116
 20
23256.40868080788
 30
0.0
 11
30862.14962521116
 21
15540.12524343984
 31
0.0
  0
LINE
  5
2E8
330
22
100
AcDbEntity
  8
_0-6_
  6
Continuous
 62
     5
100
AcDbLine
 10
30795.01425253379
 20
15656.4083508881
 30
0.0
 11
33162.15226456926
 21
15656.4083508881
 31
0.0
  0
LINE
  5
2E9
330
22
100
AcDbEntity
  8
_0-6_
  6
Continuous
 62
     5
100
AcDbLine
 10
30852.75186074747
 20
15556.40925816746
 30
0.0
 11
33162.15226456926
 21
15556.40925816746
 31
0.0
  0
LINE
  5
2EA
330
22
100
AcDbEntity
  8
_0-6_
  6
Continuous
 62
     5
100
AcDbLine
 10
30962.14995513091
 20
23256.40868080788
 30
0.0
 11
30962.14995513091
 21
15366.91984199347
 31
0.0
  0
LINE
  5
2EB
330
22
100
AcDbEntity
  8
_0-6_
  6
Continuous
 62
     5
100
AcDbLine
 10
31062.15028505069
 20
23256.40868080788
 30
0.0
 11
31062.15028505069
 21
15193.71567774621
 31
0.0
  0
LINE
  5
2EC
330
22
100
AcDbEntity
  8
_0-6_
  6
Continuous
 62
     5
100
AcDbLine
 10
30968.22212837838
 20
15356.40859832793
 30
0.0
 11
33162.15226456926
 21
15356.40859832793
 31
0.0
  0
LINE
  5
2ED
330
22
100
AcDbEntity
  8
_0-6_
  6
Continuous
 62
     5
100
AcDbLine
 10
31025.95478779561
 20
15256.40950560727
 30
0.0
 11
33162.15226456926
 21
15256.40950560727
 31
0.0
  0
LINE
  5
2EE
330
22
100
AcDbEntity
  8
_0-6_
  6
Continuous
 62
     5
100
AcDbLine
 10
31083.68744721284
 20
15156.40917568751
 30
0.0
 11
33162.15226456926
 21
15156.40917568751
 31
0.0
  0
LINE
  5
2EF
330
22
100
AcDbEntity
  8
_0-6_
  6
Continuous
 62
     5
100
AcDbLine
 10
31141.42505542652
 20
15056.40884576775
 30
0.0
 11
33162.15226456926
 21
15056.40884576775
 31
0.0
  0
LINE
  5
2F0
330
22
100
AcDbEntity
  8
_0-6_
  6
Continuous
 62
     5
100
AcDbLine
 10
31262.1509448902
 20
23256.40868080788
 30
0.0
 11
31262.1509448902
 21
14847.3073492517
 31
0.0
  0
LINE
  5
2F1
330
22
100
AcDbEntity
  8
_0-6_
  6
Continuous
 62
     5
100
AcDbLine
 10
31199.15771484375
 20
14956.40851584799
 30
0.0
 11
33162.15226456926
 21
14956.40851584799
 31
0.0
  0
LINE
  5
2F2
330
22
100
AcDbEntity
  8
_0-6_
  6
Continuous
 62
     5
100
AcDbLine
 10
31256.89532305744
 20
14856.40942312734
 30
0.0
 11
33162.15226456926
 21
14856.40942312734
 31
0.0
  0
LINE
  5
2F3
330
22
100
AcDbEntity
  8
_0-2_
  6
Continuous
 62
     7
100
AcDbLine
 10
31332.30013460727
 20
15505.91173916408
 30
0.0
 11
31361.06748838683
 21
11705.91281140331
 31
0.0
  0
LINE
  5
2F4
330
22
100
AcDbEntity
  8
_0-6_
  6
Continuous
 62
     5
100
AcDbLine
 10
31362.15127480997
 20
23256.40868080788
 30
0.0
 11
31362.15127480997
 21
14674.10194780534
 31
0.0
  0
LINE
  5
2F5
330
22
100
AcDbEntity
  8
_0-6_
  6
Continuous
 62
     5
100
AcDbLine
 10
31314.62798247466
 20
14756.40909320757
 30
0.0
 11
33162.15226456926
 21
14756.40909320757
 31
0.0
  0
LINE
  5
2F6
330
22
100
AcDbEntity
  8
_0-6_
  6
Continuous
 62
     5
100
AcDbLine
 10
31372.36559068834
 20
14656.40876328781
 30
0.0
 11
33162.15226456926
 21
14656.40876328781
 31
0.0
  0
LINE
  5
2F7
330
22
100
AcDbEntity
  8
_0-6_
  6
Continuous
 62
     5
100
AcDbLine
 10
31462.15160472973
 20
23256.40868080788
 30
0.0
 11
31462.15160472973
 21
14500.89654635896
 31
0.0
  0
LINE
  5
2F8
330
22
100
AcDbEntity
  8
_0-6_
  6
Continuous
 62
     5
100
AcDbLine
 10
31430.09825010558
 20
14556.40967056716
 30
0.0
 11
33162.15226456926
 21
14556.40967056716
 31
0.0
  0
LINE
  5
2F9
330
22
100
AcDbEntity
  8
_0-6_
  6
Continuous
 62
     5
100
AcDbLine
 10
31487.83585831926
 20
14456.40934064739
 30
0.0
 11
33162.15226456926
 21
14456.40934064739
 31
0.0
  0
LINE
  5
2FA
330
22
100
AcDbEntity
  8
_0-6_
  6
Continuous
 62
     5
100
AcDbLine
 10
31562.15193464949
 20
23256.40868080788
 30
0.0
 11
31562.15193464949
 21
14327.6911449126
 31
0.0
  0
LINE
  5
2FB
330
22
100
AcDbEntity
  8
_0-6_
  6
Continuous
 62
     5
100
AcDbLine
 10
31662.15226456926
 20
23256.40868080788
 30
0.0
 11
31662.15226456926
 21
14154.48450626712
 31
0.0
  0
LINE
  5
2FC
330
22
100
AcDbEntity
  8
_0-6_
  6
Continuous
 62
     5
100
AcDbLine
 10
31545.56851773649
 20
14356.40901072764
 30
0.0
 11
33162.15226456926
 21
14356.40901072764
 31
0.0
  0
LINE
  5
2FD
330
22
100
AcDbEntity
  8
_0-6_
  6
Continuous
 62
     5
100
AcDbLine
 10
31603.30612595017
 20
14256.40868080787
 30
0.0
 11
33162.15226456926
 21
14256.40868080787
 31
0.0
  0
LINE
  5
2FE
330
22
100
AcDbEntity
  8
_0-6_
  6
Continuous
 62
     5
100
AcDbLine
 10
31661.0387853674
 20
14156.4083508881
 30
0.0
 11
33162.15226456926
 21
14156.4083508881
 31
0.0
  0
LINE
  5
2FF
330
22
100
AcDbEntity
  8
_0-6_
  6
Continuous
 62
     5
100
AcDbLine
 10
31718.77639358108
 20
14056.40925816746
 30
0.0
 11
33162.15226456926
 21
14056.40925816746
 31
0.0
  0
LINE
  5
300
330
22
100
AcDbEntity
  8
_0-6_
  6
Continuous
 62
     5
100
AcDbLine
 10
31762.15259448902
 20
23256.40868080788
 30
0.0
 11
31762.15259448902
 21
13981.27910482075
 31
0.0
  0
LINE
  5
301
330
22
100
AcDbEntity
  8
_0-6_
  6
Continuous
 62
     5
100
AcDbLine
 10
31776.50905299832
 20
13956.40892824769
 30
0.0
 11
33162.15226456926
 21
13956.40892824769
 31
0.0
  0
LINE
  5
302
330
22
100
AcDbEntity
  8
_0-6_
  6
Continuous
 62
     5
100
AcDbLine
 10
31862.15292440879
 20
23256.40868080788
 30
0.0
 11
31862.15292440879
 21
13808.07370337438
 31
0.0
  0
LINE
  5
303
330
22
100
AcDbEntity
  8
_0-6_
  6
Continuous
 62
     5
100
AcDbLine
 10
31834.246661212
 20
13856.40859832792
 30
0.0
 11
33162.15226456926
 21
13856.40859832792
 31
0.0
  0
LINE
  5
304
330
22
100
AcDbEntity
  8
_0-6_
  6
Continuous
 62
     5
100
AcDbLine
 10
31962.14830553209
 20
23256.40868080788
 30
0.0
 11
31962.14830553209
 21
13634.87201352535
 31
0.0
  0
LINE
  5
305
330
22
100
AcDbEntity
  8
_0-6_
  6
Continuous
 62
     5
100
AcDbLine
 10
31891.97932062922
 20
13756.40950560728
 30
0.0
 11
33162.15226456926
 21
13756.40950560728
 31
0.0
  0
LINE
  5
306
330
22
100
AcDbEntity
  8
_0-6_
  6
Continuous
 62
     5
100
AcDbLine
 10
32065.18719647382
 20
13456.40851584799
 30
0.0
 11
33162.15226456926
 21
13456.40851584799
 31
0.0
  0
LINE
  5
307
330
22
100
AcDbEntity
  8
_0-6_
  6
Continuous
 62
     5
100
AcDbLine
 10
32007.44958826014
 20
13556.40884576775
 30
0.0
 11
33162.15226456926
 21
13556.40884576775
 31
0.0
  0
LINE
  5
308
330
22
100
AcDbEntity
  8
_0-6_
  6
Continuous
 62
     5
100
AcDbLine
 10
31949.71692884291
 20
13656.40917568752
 30
0.0
 11
33162.15226456926
 21
13656.40917568752
 31
0.0
  0
LINE
  5
309
330
22
100
AcDbEntity
  8
_0-6_
  6
Continuous
 62
     5
100
AcDbLine
 10
32062.14863545186
 20
23256.40868080788
 30
0.0
 11
32062.14863545186
 21
13461.66661207898
 31
0.0
  0
LINE
  5
30A
330
22
100
AcDbEntity
  8
_0-6_
  6
Continuous
 62
     5
100
AcDbLine
 10
32162.14896537163
 20
23256.40868080788
 30
0.0
 11
32162.14896537163
 21
13288.46121063262
 31
0.0
  0
LINE
  5
30B
330
22
100
AcDbEntity
  8
_0-6_
  6
Continuous
 62
     5
100
AcDbLine
 10
32122.91985589105
 20
13356.40818592822
 30
0.0
 11
33162.15226456926
 21
13356.40818592822
 31
0.0
  0
LINE
  5
30C
330
22
100
AcDbEntity
  8
_0-6_
  6
Continuous
 62
     5
100
AcDbLine
 10
32262.14929529139
 20
23256.40868080788
 30
0.0
 11
32262.14929529139
 21
13115.25457198713
 31
0.0
  0
LINE
  5
30D
330
22
100
AcDbEntity
  8
_0-6_
  6
Continuous
 62
     5
100
AcDbLine
 10
32180.65746410473
 20
13256.40909320757
 30
0.0
 11
33162.15226456926
 21
13256.40909320757
 31
0.0
  0
LINE
  5
30E
330
22
100
AcDbEntity
  8
_0-6_
  6
Continuous
 62
     5
100
AcDbLine
 10
32238.39012352196
 20
13156.40876328781
 30
0.0
 11
33162.15226456926
 21
13156.40876328781
 31
0.0
  0
LINE
  5
30F
330
22
100
AcDbEntity
  8
_0-6_
  6
Continuous
 62
     5
100
AcDbLine
 10
32362.14962521116
 20
23256.40868080788
 30
0.0
 11
32362.14962521116
 21
12942.04917054077
 31
0.0
  0
LINE
  5
310
330
22
100
AcDbEntity
  8
_0-6_
  6
Continuous
 62
     5
100
AcDbLine
 10
32296.12278293919
 20
13056.40967056716
 30
0.0
 11
33162.15226456926
 21
13056.40967056716
 31
0.0
  0
LINE
  5
311
330
22
100
AcDbEntity
  8
_0-6_
  6
Continuous
 62
     5
100
AcDbLine
 10
32353.86039115288
 20
12956.40934064739
 30
0.0
 11
33162.15226456926
 21
12956.40934064739
 31
0.0
  0
LINE
  5
312
330
22
100
AcDbEntity
  8
_0-6_
  6
Continuous
 62
     5
100
AcDbLine
 10
32411.5930505701
 20
12856.40901072764
 30
0.0
 11
33162.15226456926
 21
12856.40901072764
 31
0.0
  0
LINE
  5
313
330
22
100
AcDbEntity
  8
_0-6_
  6
Continuous
 62
     5
100
AcDbLine
 10
32462.14995513092
 20
23256.40868080788
 30
0.0
 11
32462.14995513092
 21
12768.8437690944
 31
0.0
  0
LINE
  5
314
330
22
100
AcDbEntity
  8
_0-6_
  6
Continuous
 62
     5
100
AcDbLine
 10
32469.33065878379
 20
12756.40868080787
 30
0.0
 11
33162.15226456926
 21
12756.40868080787
 31
0.0
  0
LINE
  5
315
330
22
100
AcDbEntity
  8
_0-6_
  6
Continuous
 62
     5
100
AcDbLine
 10
32527.06331820102
 20
12656.4083508881
 30
0.0
 11
33162.15226456926
 21
12656.4083508881
 31
0.0
  0
LINE
  5
316
330
22
100
AcDbEntity
  8
_0-6_
  6
Continuous
 62
     5
100
AcDbLine
 10
32584.8009264147
 20
12556.40925816746
 30
0.0
 11
33162.15226456926
 21
12556.40925816746
 31
0.0
  0
LINE
  5
317
330
22
100
AcDbEntity
  8
_0-6_
  6
Continuous
 62
     5
100
AcDbLine
 10
32642.53358583193
 20
12456.40892824769
 30
0.0
 11
33162.15226456926
 21
12456.40892824769
 31
0.0
  0
LINE
  5
318
330
22
100
AcDbEntity
  8
_0-6_
  6
Continuous
 62
     5
100
AcDbLine
 10
32562.15028505069
 20
23256.40868080788
 30
0.0
 11
32562.15028505069
 21
12595.63836764802
 31
0.0
  0
LINE
  5
319
330
22
100
AcDbEntity
  8
_0-6_
  6
Continuous
 62
     5
100
AcDbLine
 10
32662.15061497045
 20
23256.40868080788
 30
0.0
 11
32662.15061497045
 21
12422.43296620166
 31
0.0
  0
LINE
  5
31A
330
22
100
AcDbEntity
  8
_0-6_
  6
Continuous
 62
     5
100
AcDbLine
 10
32762.15094489022
 20
23256.40868080788
 30
0.0
 11
32762.15094489022
 21
12249.23127635263
 31
0.0
  0
LINE
  5
31B
330
22
100
AcDbEntity
  8
_0-6_
  6
Continuous
 62
     5
100
AcDbLine
 10
32862.15127480997
 20
23256.40868080788
 30
0.0
 11
32862.15127480997
 21
12076.02587490626
 31
0.0
  0
LINE
  5
31C
330
22
100
AcDbEntity
  8
_0-6_
  6
Continuous
 62
     5
100
AcDbLine
 10
32700.27119404561
 20
12356.40859832793
 30
0.0
 11
33162.15226456926
 21
12356.40859832793
 31
0.0
  0
LINE
  5
31D
330
22
100
AcDbEntity
  8
_0-6_
  6
Continuous
 62
     5
100
AcDbLine
 10
32758.00385346284
 20
12256.40950560728
 30
0.0
 11
33162.15226456926
 21
12256.40950560728
 31
0.0
  0
LINE
  5
31E
330
22
100
AcDbEntity
  8
_0-6_
  6
Continuous
 62
     5
100
AcDbLine
 10
32815.74146167653
 20
12156.40917568751
 30
0.0
 11
33162.15226456926
 21
12156.40917568751
 31
0.0
  0
LINE
  5
31F
330
22
100
AcDbEntity
  8
_0-6_
  6
Continuous
 62
     5
100
AcDbLine
 10
32873.47412109375
 20
12056.40884576775
 30
0.0
 11
33162.15226456926
 21
12056.40884576775
 31
0.0
  0
LINE
  5
320
330
22
100
AcDbEntity
  8
_0-6_
  6
Continuous
 62
     5
100
AcDbLine
 10
33062.15193464951
 20
23256.40868080788
 30
0.0
 11
33062.15193464951
 21
11729.61383481441
 31
0.0
  0
LINE
  5
321
330
22
100
AcDbEntity
  8
_0-6_
  6
Continuous
 62
     5
100
AcDbLine
 10
32988.94438872466
 20
11856.40818592822
 30
0.0
 11
33162.15226456926
 21
11856.40818592822
 31
0.0
  0
LINE
  5
322
330
22
100
AcDbEntity
  8
_0-6_
  6
Continuous
 62
     5
100
AcDbLine
 10
32931.21172930744
 20
11956.40851584799
 30
0.0
 11
33162.15226456926
 21
11956.40851584799
 31
0.0
  0
LINE
  5
323
330
22
100
AcDbEntity
  8
_0-6_
  6
Continuous
 62
     5
100
AcDbLine
 10
33046.68199693834
 20
11756.40909320757
 30
0.0
 11
33162.15226456926
 21
11756.40909320757
 31
0.0
  0
LINE
  5
324
330
22
100
AcDbEntity
  8
_0-6_
  6
Continuous
 62
     5
100
AcDbLine
 10
32962.15160472974
 20
23256.40868080788
 30
0.0
 11
32962.15160472974
 21
11902.82047345989
 31
0.0
  0
LINE
  5
325
330
22
100
AcDbEntity
  8
_0-6_
  6
Continuous
 62
     5
100
AcDbLine
 10
33104.41465635558
 20
11656.40876328781
 30
0.0
 11
33162.15226456926
 21
11656.40876328781
 31
0.0
  0
LINE
  5
326
330
22
100
AcDbEntity
  8
_0-3_
  6
Continuous
 62
     6
100
AcDbLine
 10
15137.15836808488
 20
23256.40868080788
 30
0.0
 11
7187.15812064506
 21
23256.40868080788
 31
0.0
  0
LINE
  5
327
330
22
100
AcDbEntity
  8
_0-3_
  6
Continuous
 62
     6
100
AcDbLine
 10
15187.16100744299
 20
23256.40868080788
 30
0.0
 11
23137.15506888724
 21
23256.40868080788
 31
0.0
  0
LINE
  5
328
330
22
100
AcDbEntity
  8
_0-3_
  6
Continuous
 62
     6
100
AcDbLine
 10
31324.15441564612
 20
23307.60150571285
 30
0.0
 11
33162.15226456926
 21
20497.72189343456
 31
0.0
  0
LINE
  5
329
330
22
100
AcDbEntity
  8
_0-3_
  6
Continuous
 62
     6
100
AcDbLine
 10
23187.15275944891
 20
23256.40868080788
 30
0.0
 11
31137.15424408784
 21
23256.40868080788
 31
0.0
  0
LINE
  5
32A
330
22
100
AcDbEntity
  8
_0-3_
  6
Continuous
 62
     6
100
AcDbLine
 10
31187.15193464949
 20
23256.40868080788
 30
0.0
 11
33162.15226456926
 21
23256.40868080788
 31
0.0
  0
LINE
  5
32B
330
22
100
AcDbEntity
  8
_0-6_
  6
Continuous
 62
     5
100
AcDbLine
 10
31162.15061497044
 20
23230.65266966978
 30
0.0
 11
31162.15061497044
 21
11828.67265620905
 31
0.0
  0
LINE
  5
32C
330
22
100
AcDbEntity
  8
_0-3_
  6
Continuous
 62
     6
100
AcDbLine
 10
31199.36556429477
 20
19356.40818592823
 30
0.0
 11
33162.15226456926
 21
19356.40818592823
 31
0.0
  0
LINE
  5
32D
330
22
100
AcDbEntity
  8
_0-6_
  6
Continuous
 62
     5
100
AcDbLine
 10
28716.01001636402
 20
19356.40818592823
 30
0.0
 11
31124.65358424832
 21
19356.40818592823
 31
0.0
  0
LINE
  5
32E
330
22
100
AcDbEntity
  8
_0-3_
  6
Continuous
 62
     6
100
AcDbLine
 10
23199.65836808488
 20
19356.40818592823
 30
0.0
 11
31124.65358424832
 21
19356.40818592823
 31
0.0
  0
LINE
  5
32F
330
22
100
AcDbEntity
  8
_0-3_
  6
Continuous
 62
     6
100
AcDbLine
 10
31162.15061497044
 20
23181.36760579732
 30
0.0
 11
31162.15061497044
 21
19480.91248148354
 31
0.0
  0
LINE
  5
330
330
22
100
AcDbEntity
  8
_0-3_
  6
Continuous
 62
     6
100
AcDbLine
 10
31162.15061497044
 20
19330.9119866039
 30
0.0
 11
31162.15061497044
 21
15580.9119866039
 31
0.0
  0
LINE
  5
331
330
22
100
AcDbEntity
  8
_0-3_
  6
Continuous
 62
     6
100
AcDbLine
 10
31199.19235641893
 20
15456.40769104858
 30
0.0
 11
33162.15226456926
 21
15456.40769104858
 31
0.0
  0
LINE
  5
332
330
22
100
AcDbEntity
  8
_0-3_
  6
Continuous
 62
     6
100
AcDbLine
 10
29870.71269267315
 20
15456.40892824769
 30
0.0
 11
31123.05512299409
 21
15456.40892824769
 31
0.0
  0
LINE
  5
333
330
22
100
AcDbEntity
  8
_0-6_
  6
Continuous
 62
     5
100
AcDbLine
 10
29870.71269267315
 20
15456.40892824769
 30
0.0
 11
31124.33686127534
 21
15456.40892824769
 31
0.0
  0
LINE
  5
334
330
22
100
AcDbEntity
  8
_0-6_
  6
Continuous
 62
     5
100
AcDbLine
 10
31200.35532358532
 20
15456.40892824769
 30
0.0
 11
33162.15226456926
 21
15456.40892824769
 31
0.0
  0
LINE
  5
335
330
22
100
AcDbEntity
  8
_0-3_
  6
Continuous
 62
     6
100
AcDbLine
 10
31199.65754328547
 20
15456.40892824769
 30
0.0
 11
33162.15226456926
 21
15456.40892824769
 31
0.0
  0
LINE
  5
336
330
22
100
AcDbEntity
  8
_0-6_
  6
Continuous
 62
     5
100
AcDbLine
 10
31124.65853304477
 20
15456.40769104858
 30
0.0
 11
31200.35532358532
 21
15456.40769104858
 31
0.0
  0
LINE
  5
337
330
22
100
AcDbEntity
  8
_0-3_
  6
Continuous
 62
     6
100
AcDbLine
 10
31162.15061497044
 20
15430.91149172425
 30
0.0
 11
31162.15061497044
 21
11680.91272892337
 31
0.0
  0
LINE
  5
338
330
22
100
AcDbEntity
  8
_0-0_
  6
Continuous
 62
     6
100
AcDbLine
 10
31125.41075010558
 20
11556.40843336805
 30
0.0
 11
23199.65836808488
 21
11556.40843336805
 31
0.0
  0
LINE
  5
339
330
22
100
AcDbEntity
  8
_0-0_
  6
Continuous
 62
     6
100
AcDbLine
 10
33162.15226456926
 20
11556.40843336805
 30
0.0
 11
31200.40976034629
 21
11556.40843336805
 31
0.0
  0
LINE
  5
33A
330
22
100
AcDbEntity
  8
_0-3_
  6
Continuous
 62
     6
100
AcDbLine
 10
23324.16018924197
 20
23308.67044574664
 30
0.0
 11
30913.63195470862
 21
11702.15914929393
 31
0.0
  0
LINE
  5
33B
330
22
100
AcDbEntity
  8
_0-3_
  6
Continuous
 62
     6
100
AcDbLine
 10
33162.15226456926
 20
14380.99710590289
 30
0.0
 11
31411.45613386824
 21
11703.15633177915
 31
0.0
  0
LINE
  5
33C
330
22
100
AcDbEntity
  8
ADD_LINE
  6
DOT
 62
     7
100
AcDbLine
 10
23162.15638856631
 20
19561.39352099473
 30
0.0
 11
23162.15638856631
 21
19298.90440834693
 31
0.0
  0
LINE
  5
33D
330
22
100
AcDbEntity
  8
_0-3_
  6
Continuous
 62
     6
100
AcDbLine
 10
23162.15638856631
 20
19331.8881367042
 30
0.0
 11
23162.15638856631
 21
15580.9119866039
 31
0.0
  0
LINE
  5
33E
330
22
100
AcDbEntity
  8
_0-0_
  6
CENTER1
 62
     4
100
AcDbLine
 10
23162.15638856631
 20
15580.9119866039
 30
0.0
 11
23162.15638856631
 21
15431.32471622805
 31
0.0
  0
LINE
  5
33F
330
22
100
AcDbEntity
  8
_0-3_
  6
Continuous
 62
     6
100
AcDbLine
 10
23162.15638856631
 20
15431.32471622805
 30
0.0
 11
23162.15638856631
 21
11680.91272892337
 31
0.0
  0
LINE
  5
340
330
22
100
AcDbEntity
  8
_0-3_
  6
Continuous
 62
     6
100
AcDbLine
 10
15311.02195945946
 20
23301.32890620905
 30
0.0
 11
22912.87561365076
 21
11702.45855147932
 31
0.0
  0
LINE
  5
341
330
22
100
AcDbEntity
  8
_0-3_
  6
Continuous
 62
     6
100
AcDbLine
 10
23410.69979281039
 20
11703.21571733659
 30
0.0
 11
31000.15671188768
 21
23311.32052624707
 31
0.0
  0
LINE
  5
342
330
22
100
AcDbEntity
  8
_0-3_
  6
Continuous
 62
     6
100
AcDbLine
 10
23199.65341928843
 20
15456.40769104858
 30
0.0
 11
31124.65853304477
 21
15456.40769104858
 31
0.0
  0
LINE
  5
343
330
22
100
AcDbEntity
  8
_0-3_
  6
Continuous
 62
     6
100
AcDbLine
 10
15198.97997057116
 20
19356.40818592823
 30
0.0
 11
23124.65935784417
 21
19356.40818592823
 31
0.0
  0
LINE
  5
344
330
22
100
AcDbEntity
  8
_0-3_
  6
Continuous
 62
     6
100
AcDbLine
 10
15162.15721336571
 20
23256.40868080788
 30
0.0
 11
15162.15721336571
 21
19480.91248148354
 31
0.0
  0
LINE
  5
345
330
22
100
AcDbEntity
  8
ADD_LINE
  6
DOT
 62
     7
100
AcDbLine
 10
15162.15721336571
 20
19334.74977825297
 30
0.0
 11
15162.15721336571
 21
19298.90440834693
 31
0.0
  0
LINE
  5
346
330
22
100
AcDbEntity
  8
ADD_LINE
  6
DOT
 62
     7
100
AcDbLine
 10
15162.15721336571
 20
19561.39352099473
 30
0.0
 11
15162.15721336571
 21
19480.91248148354
 31
0.0
  0
LINE
  5
347
330
22
100
AcDbEntity
  8
_0-0_
  6
CENTER1
 62
     4
100
AcDbLine
 10
15162.15721336571
 20
19330.3206054278
 30
0.0
 11
15162.15721336571
 21
15672.0700544618
 31
0.0
  0
LINE
  5
348
330
22
100
AcDbEntity
  8
_0-3_
  6
Continuous
 62
     6
100
AcDbLine
 10
15162.15721336571
 20
19331.5973949126
 30
0.0
 11
15162.15721336571
 21
15582.65396295525
 31
0.0
  0
LINE
  5
349
330
22
100
AcDbEntity
  8
_0-0_
  6
CENTER1
 62
     4
100
AcDbLine
 10
15162.15721336571
 20
15582.65396295525
 30
0.0
 11
15162.15721336571
 21
15428.25398802915
 31
0.0
  0
LINE
  5
34A
330
22
100
AcDbEntity
  8
_0-3_
  6
Continuous
 62
     6
100
AcDbLine
 10
15199.65671848606
 20
15456.40769104858
 30
0.0
 11
23124.65440904772
 21
15456.40769104858
 31
0.0
  0
LINE
  5
34B
330
22
100
AcDbEntity
  8
_0-3_
  6
Continuous
 62
     6
100
AcDbLine
 10
7309.231938542549
 20
23301.32890620905
 30
0.0
 11
14912.87520125106
 21
11701.1891851892
 31
0.0
  0
LINE
  5
34C
330
22
100
AcDbEntity
  8
_0-3_
  6
Continuous
 62
     6
100
AcDbLine
 10
15410.69938041068
 20
11701.70633441851
 30
0.0
 11
23000.16248548353
 21
23311.41950217611
 31
0.0
  0
LINE
  5
34D
330
22
100
AcDbEntity
  8
_0-0_
  6
CENTER1
 62
     4
100
AcDbLine
 10
15162.15721336571
 20
15233.48296884102
 30
0.0
 11
15162.15721336571
 21
7456.407897248431
 31
0.0
  0
LINE
  5
34E
330
22
100
AcDbEntity
  8
_0-0_
  6
Continuous
 62
     6
100
AcDbLine
 10
23124.65935784417
 20
11556.40843336805
 30
0.0
 11
15198.97131017736
 21
11556.40843336805
 31
0.0
  0
LINE
  5
34F
330
22
100
AcDbEntity
  8
_0-0_
  6
Continuous
 62
     6
100
AcDbLine
 10
15124.12818702491
 20
11556.40843336805
 30
0.0
 11
7200.027465820312
 21
11556.40843336805
 31
0.0
  0
LINE
  5
350
330
22
100
AcDbEntity
  8
_0-0_
  6
CENTER1
 62
     4
100
AcDbLine
 10
15162.15721336571
 20
19480.91248148354
 30
0.0
 11
15162.15721336571
 21
19334.74977825297
 31
0.0
  0
LINE
  5
351
330
22
100
AcDbEntity
  8
_0-3_
  6
Continuous
 62
     6
100
AcDbLine
 10
7162.158038165121
 20
23191.32458426015
 30
0.0
 11
7162.158038165121
 21
19481.27003202725
 31
0.0
  0
LINE
  5
352
330
22
100
AcDbEntity
  8
_0-3_
  6
Continuous
 62
     6
100
AcDbLine
 10
7199.657543285474
 20
19356.40818592823
 30
0.0
 11
15124.9533988334
 21
19356.40818592823
 31
0.0
  0
LINE
  5
353
330
22
100
AcDbEntity
  8
_0-3_
  6
Continuous
 62
     6
100
AcDbLine
 10
7162.158038165121
 20
19330.9119866039
 30
0.0
 11
7162.158038165121
 21
15580.9119866039
 31
0.0
  0
LINE
  5
354
330
22
100
AcDbEntity
  8
_0-3_
  6
Continuous
 62
     6
100
AcDbLine
 10
7162.158038165121
 20
15431.27893986087
 30
0.0
 11
7162.158038165121
 21
11680.91272892337
 31
0.0
  0
LINE
  5
355
330
22
100
AcDbEntity
  8
_0-3_
  6
Continuous
 62
     6
100
AcDbLine
 10
7411.068890545819
 20
11702.45855147932
 30
0.0
 11
15012.78521563556
 21
23301.32890620905
 31
0.0
  0
LINE
  5
356
330
22
100
AcDbEntity
  8
_0-0_
  6
CENTER1
 62
     4
100
AcDbLine
 10
7162.158038165121
 20
19330.54082686995
 30
0.0
 11
7162.158038165121
 21
15608.26893339444
 31
0.0
  0
LINE
  5
357
330
22
100
AcDbEntity
  8
_0-0_
  6
Continuous
 62
     6
100
AcDbLine
 10
7162.158038165121
 20
15580.9119866039
 30
0.0
 11
7162.158038165121
 21
19330.95528857285
 31
0.0
  0
LINE
  5
358
330
22
100
AcDbEntity
  8
_0-0_
  6
Continuous
 62
     6
100
AcDbLine
 10
7162.158038165121
 20
19481.41725872172
 30
0.0
 11
7162.158038165121
 21
23256.40868080788
 31
0.0
  0
LINE
  5
359
330
22
100
AcDbEntity
  8
_0-0_
  6
CENTER1
 62
     4
100
AcDbLine
 10
7162.158038165121
 20
15580.9119866039
 30
0.0
 11
7162.158038165121
 21
7456.407897248431
 31
0.0
  0
LINE
  5
35A
330
22
100
AcDbEntity
  8
_0-2_
  6
Continuous
 62
     7
100
AcDbLine
 10
7199.657543285474
 20
15580.9119866039
 30
0.0
 11
7199.657543285474
 21
15430.91149172425
 31
0.0
  0
LINE
  5
35B
330
22
100
AcDbEntity
  8
_0-3_
  6
Continuous
 62
     6
100
AcDbLine
 10
7199.657543285474
 20
15456.40769104858
 30
0.0
 11
15124.65770824535
 21
15456.40769104858
 31
0.0
  0
LINE
  5
35C
330
22
100
AcDbEntity
  8
_0-2_
  6
Continuous
 62
     7
100
AcDbLine
 10
23124.65935784417
 20
11680.91272892337
 30
0.0
 11
23199.65836808488
 21
11680.91272892337
 31
0.0
  0
LINE
  5
35D
330
22
100
AcDbEntity
  8
_0-0_
  6
CENTER1
 62
     4
100
AcDbLine
 10
23162.15638856631
 20
11681.57957924537
 30
0.0
 11
23162.15638856631
 21
7456.407897248431
 31
0.0
  0
LINE
  5
35E
330
22
100
AcDbEntity
  8
_0-6_
  6
DASHED1
 62
     5
100
AcDbLine
 10
36800.1610008446
 20
23306.07232760897
 30
0.0
 11
36712.87412901183
 21
11705.91281140331
 31
0.0
  0
LINE
  5
35F
330
22
100
AcDbEntity
  8
_0-9_
  6
Continuous
 62
     4
100
AcDbLine
 10
6162.157831965267
 20
23456.4093406474
 30
0.0
 11
4096.144186483849
 21
23456.4093406474
 31
0.0
  0
LINE
  5
360
330
22
100
AcDbEntity
  8
_0-0_
  6
Continuous
 62
     4
100
AcDbLine
 10
6644.13967648068
 20
11456.41181504562
 30
0.0
 11
3662.160100163641
 21
11456.41181504562
 31
0.0
  0
LINE
  5
361
330
22
100
AcDbEntity
  8
_0-9_
  6
Continuous
 62
     4
100
AcDbLine
 10
6596.144392683697
 20
11456.40810344828
 30
0.0
 11
3662.160100163641
 21
11456.40810344828
 31
0.0
  0
LINE
  5
362
330
22
100
AcDbEntity
  8
_0-0_
  6
Continuous
 62
     4
100
AcDbLine
 10
6662.157625765414
 20
23456.4093406474
 30
0.0
 11
3162.157213365708
 21
23456.4093406474
 31
0.0
  0
LINE
  5
363
330
22
100
AcDbEntity
  8
_0-9_
  6
Continuous
 62
     4
100
AcDbLine
 10
6662.157625765414
 20
23256.40868080788
 30
0.0
 11
4162.157419565563
 21
23256.40868080788
 31
0.0
  0
LINE
  5
364
330
22
100
AcDbEntity
  8
_0-9_
  6
Continuous
 62
     4
100
AcDbLine
 10
6662.157625765414
 20
19356.40818592823
 30
0.0
 11
4162.157419565563
 21
19356.40818592823
 31
0.0
  0
LINE
  5
365
330
22
100
AcDbEntity
  8
_0-9_
  6
Continuous
 62
     4
100
AcDbLine
 10
6662.157625765414
 20
15456.40769104858
 30
0.0
 11
4162.157419565563
 21
15456.40769104858
 31
0.0
  0
LINE
  5
366
330
22
100
AcDbEntity
  8
_0-0_
  6
Continuous
 62
     4
100
AcDbLine
 10
6662.157625765414
 20
8456.409959246954
 30
0.0
 11
3162.157213365708
 21
8456.409959246954
 31
0.0
  0
CIRCLE
  5
367
330
22
100
AcDbEntity
  8
_0-0_
  6
Continuous
 62
     7
100
AcDbCircle
 10
7030.018986882393
 20
23376.32791644977
 30
0.0
 40
10.00000012887491
  0
CIRCLE
  5
368
330
22
100
AcDbEntity
  8
_0-0_
  6
Continuous
 62
     7
100
AcDbCircle
 10
7029.850727803
 20
23326.32527709165
 30
0.0
 40
10.00000012887491
  0
CIRCLE
  5
369
330
22
100
AcDbEntity
  8
_0-0_
  6
Continuous
 62
     7
100
AcDbCircle
 10
7162.158038165121
 20
23326.32527709165
 30
0.0
 40
10.00000012887491
  0
CIRCLE
  5
36A
330
22
100
AcDbEntity
  8
_0-0_
  6
Continuous
 62
     7
100
AcDbCircle
 10
7162.158038165121
 20
23376.32791644977
 30
0.0
 40
10.00000012887491
  0
CIRCLE
  5
36B
330
22
100
AcDbEntity
  8
_0-0_
  6
Continuous
 62
     7
100
AcDbCircle
 10
7475.616042678422
 20
23376.34276283913
 30
0.0
 40
15.00000019331236
  0
CIRCLE
  5
36C
330
22
100
AcDbEntity
  8
_0-0_
  6
Continuous
 62
     7
100
AcDbCircle
 10
7294.297089447846
 20
23376.32791644977
 30
0.0
 40
10.00000012887491
  0
CIRCLE
  5
36D
330
22
100
AcDbEntity
  8
_0-0_
  6
Continuous
 62
     7
100
AcDbCircle
 10
7161.998439479521
 20
11556.04345962966
 30
0.0
 40
10.00000012887491
  0
ARC
  5
36E
330
22
100
AcDbEntity
  8
_0-0_
  6
Continuous
 62
     6
100
AcDbCircle
 10
7682.208499392946
 20
11556.04345962966
 30
0.0
 40
50.00114118730699
100
AcDbArc
 50
89.64202880859373
 51
270.3579711914062
  0
ARC
  5
36F
330
22
100
AcDbEntity
  8
_0-0_
  6
Continuous
 62
     6
100
AcDbCircle
 10
7882.444227063979
 20
11556.04345962966
 30
0.0
 40
50.00022295359018
100
AcDbArc
 50
270.0879058837891
 51
89.91209411621095
  0
CIRCLE
  5
370
330
22
100
AcDbEntity
  8
_0-0_
  6
Continuous
 62
     6
100
AcDbCircle
 10
8032.44348474451
 20
11556.04345962966
 30
0.0
 40
50.00000064437454
  0
ARC
  5
371
330
22
100
AcDbEntity
  8
_0-0_
  6
Continuous
 62
     6
100
AcDbCircle
 10
7162.232270111909
 20
11855.91330628295
 30
0.0
 40
50.00114118730699
100
AcDbArc
 50
179.6420288085938
 51
0.3579711914061931
  0
ARC
  5
372
330
22
100
AcDbEntity
  8
_0-0_
  6
Continuous
 62
     6
100
AcDbCircle
 10
7162.232270111909
 20
12056.14779675487
 30
0.0
 40
50.00022295359018
100
AcDbArc
 50
0.0879058837891062
 51
179.9120941162109
  0
CIRCLE
  5
373
330
22
100
AcDbEntity
  8
_0-0_
  6
Continuous
 62
     6
100
AcDbCircle
 10
7162.232270111909
 20
12206.14829163452
 30
0.0
 40
50.00000064437454
  0
CIRCLE
  5
374
330
22
100
AcDbEntity
  8
_0-0_
  6
Continuous
 62
     7
100
AcDbCircle
 10
15294.29997624578
 20
23376.32791644977
 30
0.0
 40
10.00000012887491
  0
CIRCLE
  5
375
330
22
100
AcDbEntity
  8
_0-0_
  6
Continuous
 62
     7
100
AcDbCircle
 10
15162.15721336571
 20
23376.32791644977
 30
0.0
 40
10.00000012887491
  0
CIRCLE
  5
376
330
22
100
AcDbEntity
  8
_0-0_
  6
Continuous
 62
     7
100
AcDbCircle
 10
15030.02187368032
 20
23376.32791644977
 30
0.0
 40
10.00000012887491
  0
CIRCLE
  5
377
330
22
100
AcDbEntity
  8
_0-0_
  6
Continuous
 62
     7
100
AcDbCircle
 10
15294.29750184755
 20
23376.32791644977
 30
0.0
 40
10.00000012887491
  0
CIRCLE
  5
378
330
22
100
AcDbEntity
  8
_0-0_
  6
Continuous
 62
     7
100
AcDbCircle
 10
15162.15721336571
 20
23326.32527709165
 30
0.0
 40
10.00000012887491
  0
CIRCLE
  5
379
330
22
100
AcDbEntity
  8
_0-0_
  6
Continuous
 62
     7
100
AcDbCircle
 10
15162.15721336571
 20
23256.32455126818
 30
0.0
 40
10.00000012887491
  0
CIRCLE
  5
37A
330
22
100
AcDbEntity
  8
_0-0_
  6
Continuous
 62
     7
100
AcDbCircle
 10
15030.01692488387
 20
23376.32791644977
 30
0.0
 40
10.00000012887491
  0
CIRCLE
  5
37B
330
22
100
AcDbEntity
  8
_0-0_
  6
Continuous
 62
     7
100
AcDbCircle
 10
15029.85361460093
 20
23326.32527709165
 30
0.0
 40
10.00000012887491
  0
CIRCLE
  5
37C
330
22
100
AcDbEntity
  8
_0-0_
  6
Continuous
 62
     7
100
AcDbCircle
 10
15294.46576092694
 20
23326.32527709165
 30
0.0
 40
10.00000012887491
  0
CIRCLE
  5
37D
330
22
100
AcDbEntity
  8
_0-0_
  6
Continuous
 62
     7
100
AcDbCircle
 10
14848.6992088524
 20
23376.34276283913
 30
0.0
 40
15.00000019331236
  0
CIRCLE
  5
37E
330
22
100
AcDbEntity
  8
_0-2_
  6
Continuous
 62
     7
100
AcDbCircle
 10
23029.96413772171
 20
23356.33230438262
 30
0.0
 40
10.00000012887491
  0
CIRCLE
  5
37F
330
22
100
AcDbEntity
  8
_0-2_
  6
Continuous
 62
     7
100
AcDbCircle
 10
23294.02696764147
 20
23355.04561730492
 30
0.0
 40
10.00000012887491
  0
CIRCLE
  5
380
330
22
100
AcDbEntity
  8
_0-2_
  6
Continuous
 62
     7
100
AcDbCircle
 10
23162.39887959249
 20
23355.90670788769
 30
0.0
 40
10.00000012887491
  0
CIRCLE
  5
381
330
22
100
AcDbEntity
  8
_0-2_
  6
Continuous
 62
     7
100
AcDbCircle
 10
23162.39887959249
 20
23256.23794733025
 30
0.0
 40
10.00000012887491
  0
CIRCLE
  5
382
330
22
100
AcDbEntity
  8
_0-2_
  6
Continuous
 62
     7
100
AcDbCircle
 10
31029.95836412584
 20
23356.62675777156
 30
0.0
 40
10.00000012887491
  0
CIRCLE
  5
383
330
22
100
AcDbEntity
  8
_0-2_
  6
Continuous
 62
     7
100
AcDbCircle
 10
31294.02614284207
 20
23355.34007069385
 30
0.0
 40
10.00000012887491
  0
CIRCLE
  5
384
330
22
100
AcDbEntity
  8
_0-2_
  6
Continuous
 62
     7
100
AcDbCircle
 10
31162.39805479308
 20
23356.20116127663
 30
0.0
 40
10.00000012887491
  0
CIRCLE
  5
385
330
22
100
AcDbEntity
  8
_0-2_
  6
Continuous
 62
     7
100
AcDbCircle
 10
31162.39805479308
 20
23256.5324007192
 30
0.0
 40
10.00000012887491
  0
CIRCLE
  5
386
330
22
100
AcDbEntity
  8
_0-2_
  6
Continuous
 62
     7
100
AcDbCircle
 10
31162.39805479308
 20
19356.077853765
 30
0.0
 40
10.00000012887491
  0
CIRCLE
  5
387
330
22
100
AcDbEntity
  8
_0-2_
  6
Continuous
 62
     7
100
AcDbCircle
 10
31001.45824535473
 20
19456.42336223735
 30
0.0
 40
10.00000012887491
  0
CIRCLE
  5
388
330
22
100
AcDbEntity
  8
_0-2_
  6
Continuous
 62
     7
100
AcDbCircle
 10
31322.38274651605
 20
19456.47408740098
 30
0.0
 40
10.00000012887491
  0
CIRCLE
  5
389
330
22
100
AcDbEntity
  8
_0-2_
  6
Continuous
 62
     7
100
AcDbCircle
 10
31162.39805479308
 20
19455.74661432243
 30
0.0
 40
10.00000012887491
  0
CIRCLE
  5
38A
330
22
100
AcDbEntity
  8
_0-2_
  6
Continuous
 62
     7
100
AcDbCircle
 10
23162.39887959249
 20
19356.077853765
 30
0.0
 40
10.00000012887491
  0
CIRCLE
  5
38B
330
22
100
AcDbEntity
  8
_0-2_
  6
Continuous
 62
     7
100
AcDbCircle
 10
23001.45907015415
 20
19456.42336223735
 30
0.0
 40
10.00000012887491
  0
CIRCLE
  5
38C
330
22
100
AcDbEntity
  8
_0-2_
  6
Continuous
 62
     7
100
AcDbCircle
 10
23322.38357131545
 20
19456.47408740098
 30
0.0
 40
10.00000012887491
  0
CIRCLE
  5
38D
330
22
100
AcDbEntity
  8
_0-2_
  6
Continuous
 62
     7
100
AcDbCircle
 10
23162.39887959249
 20
19455.74661432243
 30
0.0
 40
10.00000012887491
  0
CIRCLE
  5
38E
330
22
100
AcDbEntity
  8
_0-2_
  6
Continuous
 62
     7
100
AcDbCircle
 10
15162.39970439189
 20
19356.077853765
 30
0.0
 40
10.00000012887491
  0
CIRCLE
  5
38F
330
22
100
AcDbEntity
  8
_0-2_
  6
Continuous
 62
     7
100
AcDbCircle
 10
15001.45989495355
 20
19456.42336223735
 30
0.0
 40
10.00000012887491
  0
CIRCLE
  5
390
330
22
100
AcDbEntity
  8
_0-2_
  6
Continuous
 62
     7
100
AcDbCircle
 10
15322.38439611486
 20
19456.47408740098
 30
0.0
 40
10.00000012887491
  0
CIRCLE
  5
391
330
22
100
AcDbEntity
  8
_0-2_
  6
Continuous
 62
     7
100
AcDbCircle
 10
15162.39970439189
 20
19455.74661432243
 30
0.0
 40
10.00000012887491
  0
CIRCLE
  5
392
330
22
100
AcDbEntity
  8
_0-2_
  6
Continuous
 62
     7
100
AcDbCircle
 10
7162.400529191302
 20
19356.077853765
 30
0.0
 40
10.00000012887491
  0
CIRCLE
  5
393
330
22
100
AcDbEntity
  8
_0-2_
  6
Continuous
 62
     7
100
AcDbCircle
 10
7001.460719752959
 20
19456.42336223735
 30
0.0
 40
10.00000012887491
  0
CIRCLE
  5
394
330
22
100
AcDbEntity
  8
_0-2_
  6
Continuous
 62
     7
100
AcDbCircle
 10
7322.385220914274
 20
19456.47408740098
 30
0.0
 40
10.00000012887491
  0
CIRCLE
  5
395
330
22
100
AcDbEntity
  8
_0-2_
  6
Continuous
 62
     7
100
AcDbCircle
 10
7162.400529191302
 20
19455.74661432243
 30
0.0
 40
10.00000012887491
  0
CIRCLE
  5
396
330
22
100
AcDbEntity
  8
_0-2_
  6
Continuous
 62
     7
100
AcDbCircle
 10
7162.400529191302
 20
15456.07735888536
 30
0.0
 40
10.00000012887491
  0
CIRCLE
  5
397
330
22
100
AcDbEntity
  8
_0-2_
  6
Continuous
 62
     7
100
AcDbCircle
 10
6974.166870117187
 20
15556.4228673577
 30
0.0
 40
10.00000012887491
  0
CIRCLE
  5
398
330
22
100
AcDbEntity
  8
_0-2_
  6
Continuous
 62
     7
100
AcDbCircle
 10
7162.400529191302
 20
15555.74611944279
 30
0.0
 40
10.00000012887491
  0
CIRCLE
  5
399
330
22
100
AcDbEntity
  8
_0-2_
  6
Continuous
 62
     7
100
AcDbCircle
 10
7350.149206213051
 20
15556.4228673577
 30
0.0
 40
10.00000012887491
  0
CIRCLE
  5
39A
330
22
100
AcDbEntity
  8
_0-2_
  6
Continuous
 62
     7
100
AcDbCircle
 10
15162.39970439189
 20
15456.07735888536
 30
0.0
 40
10.00000012887491
  0
CIRCLE
  5
39B
330
22
100
AcDbEntity
  8
_0-2_
  6
Continuous
 62
     7
100
AcDbCircle
 10
14974.16604531778
 20
15556.4228673577
 30
0.0
 40
10.00000012887491
  0
CIRCLE
  5
39C
330
22
100
AcDbEntity
  8
_0-2_
  6
Continuous
 62
     7
100
AcDbCircle
 10
15162.39970439189
 20
15555.74611944279
 30
0.0
 40
10.00000012887491
  0
CIRCLE
  5
39D
330
22
100
AcDbEntity
  8
_0-2_
  6
Continuous
 62
     7
100
AcDbCircle
 10
15350.14838141364
 20
15556.4228673577
 30
0.0
 40
10.00000012887491
  0
CIRCLE
  5
39E
330
22
100
AcDbEntity
  8
_0-2_
  6
Continuous
 62
     7
100
AcDbCircle
 10
23162.39887959249
 20
15456.07735888536
 30
0.0
 40
10.00000012887491
  0
CIRCLE
  5
39F
330
22
100
AcDbEntity
  8
_0-2_
  6
Continuous
 62
     7
100
AcDbCircle
 10
22974.16645771749
 20
15556.4228673577
 30
0.0
 40
10.00000012887491
  0
CIRCLE
  5
3A0
330
22
100
AcDbEntity
  8
_0-2_
  6
Continuous
 62
     7
100
AcDbCircle
 10
23162.39887959249
 20
15555.74611944279
 30
0.0
 40
10.00000012887491
  0
CIRCLE
  5
3A1
330
22
100
AcDbEntity
  8
_0-2_
  6
Continuous
 62
     7
100
AcDbCircle
 10
23350.14631941512
 20
15556.4228673577
 30
0.0
 40
10.00000012887491
  0
CIRCLE
  5
3A2
330
22
100
AcDbEntity
  8
_0-2_
  6
Continuous
 62
     7
100
AcDbCircle
 10
31162.39805479308
 20
15456.07735888536
 30
0.0
 40
10.00000012887491
  0
CIRCLE
  5
3A3
330
22
100
AcDbEntity
  8
_0-2_
  6
Continuous
 62
     7
100
AcDbCircle
 10
30974.16563291808
 20
15556.4228673577
 30
0.0
 40
10.00000012887491
  0
CIRCLE
  5
3A4
330
22
100
AcDbEntity
  8
_0-2_
  6
Continuous
 62
     7
100
AcDbCircle
 10
31162.39805479308
 20
15555.74611944279
 30
0.0
 40
10.00000012887491
  0
CIRCLE
  5
3A5
330
22
100
AcDbEntity
  8
_0-2_
  6
Continuous
 62
     7
100
AcDbCircle
 10
31350.14549461572
 20
15556.4228673577
 30
0.0
 40
10.00000012887491
  0
CIRCLE
  5
3A6
330
22
100
AcDbEntity
  8
_0-2_
  6
Continuous
 62
     7
100
AcDbCircle
 10
6943.361849398226
 20
11655.75799655428
 30
0.0
 40
10.00000012887491
  0
CIRCLE
  5
3A7
330
22
100
AcDbEntity
  8
_0-2_
  6
Continuous
 62
     7
100
AcDbCircle
 10
7162.188968142948
 20
11655.74686176226
 30
0.0
 40
10.00000012887491
  0
CIRCLE
  5
3A8
330
22
100
AcDbEntity
  8
_0-2_
  6
Continuous
 62
     7
100
AcDbCircle
 10
7380.954226932009
 20
11655.75675935517
 30
0.0
 40
10.00000012887491
  0
CIRCLE
  5
3A9
330
22
100
AcDbEntity
  8
_0-0_
  6
Continuous
 62
     7
100
AcDbCircle
 10
15162.22154771959
 20
11556.17583993477
 30
0.0
 40
10.00000012887491
  0
CIRCLE
  5
3AA
330
22
100
AcDbEntity
  8
_0-2_
  6
Continuous
 62
     7
100
AcDbCircle
 10
14942.99110206398
 20
11655.75799655428
 30
0.0
 40
10.00000012887491
  0
CIRCLE
  5
3AB
330
22
100
AcDbEntity
  8
_0-2_
  6
Continuous
 62
     7
100
AcDbCircle
 10
15162.39970439189
 20
11655.74686176226
 30
0.0
 40
10.00000012887491
  0
CIRCLE
  5
3AC
330
22
100
AcDbEntity
  8
_0-2_
  6
Continuous
 62
     7
100
AcDbCircle
 10
15380.58347959776
 20
11655.75675935517
 30
0.0
 40
10.00000012887491
  0
ARC
  5
3AD
330
22
100
AcDbEntity
  8
_0-0_
  6
Continuous
 62
     6
100
AcDbCircle
 10
15162.2314453125
 20
11855.91330628295
 30
0.0
 40
50.00114118730699
100
AcDbArc
 50
179.6420288085938
 51
0.3579711914061931
  0
ARC
  5
3AE
330
22
100
AcDbEntity
  8
_0-0_
  6
Continuous
 62
     6
100
AcDbCircle
 10
15162.2314453125
 20
12056.14779675487
 30
0.0
 40
50.00022295359018
100
AcDbArc
 50
0.0879058837891062
 51
179.9120941162109
  0
CIRCLE
  5
3AF
330
22
100
AcDbEntity
  8
_0-0_
  6
Continuous
 62
     6
100
AcDbCircle
 10
15162.2314453125
 20
12206.14829163452
 30
0.0
 40
50.00000064437454
  0
ARC
  5
3B0
330
22
100
AcDbEntity
  8
_0-0_
  6
Continuous
 62
     6
100
AcDbCircle
 10
23162.23062051308
 20
11855.91330628295
 30
0.0
 40
50.00114118730699
100
AcDbArc
 50
179.6420288085938
 51
0.3579711914061931
  0
ARC
  5
3B1
330
22
100
AcDbEntity
  8
_0-0_
  6
Continuous
 62
     6
100
AcDbCircle
 10
23162.23062051308
 20
12056.14779675487
 30
0.0
 40
50.00022295359018
100
AcDbArc
 50
0.0879058837891062
 51
179.9120941162109
  0
CIRCLE
  5
3B2
330
22
100
AcDbEntity
  8
_0-0_
  6
Continuous
 62
     6
100
AcDbCircle
 10
23162.23062051308
 20
12206.14829163452
 30
0.0
 40
50.00000064437454
  0
ARC
  5
3B3
330
22
100
AcDbEntity
  8
_0-0_
  6
Continuous
 62
     6
100
AcDbCircle
 10
31162.22979571368
 20
11855.91330628295
 30
0.0
 40
50.00114118730699
100
AcDbArc
 50
179.6420288085938
 51
0.3579711914061931
  0
ARC
  5
3B4
330
22
100
AcDbEntity
  8
_0-0_
  6
Continuous
 62
     6
100
AcDbCircle
 10
31162.22979571368
 20
12056.14779675487
 30
0.0
 40
50.00022295359018
100
AcDbArc
 50
0.0879058837891062
 51
179.9120941162109
  0
CIRCLE
  5
3B5
330
22
100
AcDbEntity
  8
_0-0_
  6
Continuous
 62
     6
100
AcDbCircle
 10
31162.22979571368
 20
12206.14829163452
 30
0.0
 40
50.00000064437454
  0
CIRCLE
  5
3B6
330
22
100
AcDbEntity
  8
_0-3_
  6
Continuous
 62
     6
100
AcDbCircle
 10
7685.610796954184
 20
12120.22605042358
 30
0.0
 40
50.00000064437454
  0
ARC
  5
3B7
330
22
100
AcDbEntity
  8
_0-3_
  6
Continuous
 62
     6
100
AcDbCircle
 10
14720.00699429898
 20
11997.09875748122
 30
0.0
 40
50.00280850642437
100
AcDbArc
 50
34.17466735839845
 51
212.9642333984376
  0
ARC
  5
3B8
330
22
100
AcDbEntity
  8
_0-3_
  6
Continuous
 62
     6
100
AcDbCircle
 10
14830.30453243771
 20
11830.89590301543
 30
0.0
 40
50.00001997561067
100
AcDbArc
 50
213.5697479248047
 51
33.56915283203125
  0
CIRCLE
  5
3B9
330
22
100
AcDbEntity
  8
_0-3_
  6
Continuous
 62
     6
100
AcDbCircle
 10
14635.92323097023
 20
12120.28914757835
 30
0.0
 40
50.00000064437454
  0
CIRCLE
  5
3BA
330
22
100
AcDbEntity
  8
_0-0_
  6
Continuous
 62
     7
100
AcDbCircle
 10
23162.22072292019
 20
11556.17583993477
 30
0.0
 40
10.00000012887491
  0
CIRCLE
  5
3BB
330
22
100
AcDbEntity
  8
_0-2_
  6
Continuous
 62
     7
100
AcDbCircle
 10
22942.99398886191
 20
11655.75799655428
 30
0.0
 40
10.00000012887491
  0
CIRCLE
  5
3BC
330
22
100
AcDbEntity
  8
_0-2_
  6
Continuous
 62
     7
100
AcDbCircle
 10
23162.39887959249
 20
11655.74686176226
 30
0.0
 40
10.00000012887491
  0
CIRCLE
  5
3BD
330
22
100
AcDbEntity
  8
_0-2_
  6
Continuous
 62
     7
100
AcDbCircle
 10
23380.58636639569
 20
11655.75675935517
 30
0.0
 40
10.00000012887491
  0
CIRCLE
  5
3BE
330
22
100
AcDbEntity
  8
_0-0_
  6
Continuous
 62
     7
100
AcDbCircle
 10
31162.97706397804
 20
11556.17583993477
 30
0.0
 40
10.00000012887491
  0
CIRCLE
  5
3BF
330
22
100
AcDbEntity
  8
_0-2_
  6
Continuous
 62
     7
100
AcDbCircle
 10
30943.74538112332
 20
11655.75799655428
 30
0.0
 40
10.00000012887491
  0
CIRCLE
  5
3C0
330
22
100
AcDbEntity
  8
_0-2_
  6
Continuous
 62
     7
100
AcDbCircle
 10
31163.15522065034
 20
11655.74686176226
 30
0.0
 40
10.00000012887491
  0
CIRCLE
  5
3C1
330
22
100
AcDbEntity
  8
_0-2_
  6
Continuous
 62
     7
100
AcDbCircle
 10
31350.14054581926
 20
15556.4228673577
 30
0.0
 40
10.00000012887491
  0
CIRCLE
  5
3C2
330
22
100
AcDbEntity
  8
_0-2_
  6
Continuous
 62
     7
100
AcDbCircle
 10
31380.58059279984
 20
11655.75675935517
 30
0.0
 40
10.00000012887491
  0
CIRCLE
  5
3C3
330
22
100
AcDbEntity
  8
_0-2_
  6
Continuous
 62
     7
100
AcDbCircle
 10
7294.532157279348
 20
23325.53346965922
 30
0.0
 40
10.00000012887491
  0
CIRCLE
  5
3C4
330
22
100
AcDbEntity
  8
_0-2_
  6
Continuous
 62
     7
100
AcDbCircle
 10
7294.537106075802
 20
23325.53346965922
 30
0.0
 40
10.00000012887491
  0
ARC
  5
3C5
330
22
100
AcDbEntity
  8
_0-3_
  6
Continuous
 62
     6
100
AcDbCircle
 10
7602.921357025971
 20
11995.19099644871
 30
0.0
 40
49.99990882100285
100
AcDbArc
 50
326.7613372802734
 51
146.7593688964844
  0
ARC
  5
3C6
330
22
100
AcDbEntity
  8
_0-3_
  6
Continuous
 62
     6
100
AcDbCircle
 10
7493.291906408362
 20
11827.9167275509
 30
0.0
 40
50.00024711763535
100
AcDbArc
 50
146.7613372802735
 51
326.7581939697266
  0
ARC
  5
3C7
330
22
100
AcDbEntity
  8
_0-3_
  6
Continuous
 62
     6
100
AcDbCircle
 10
15604.30743243243
 20
11997.09875748122
 30
0.0
 40
50.00280850642437
100
AcDbArc
 50
327.0357666015625
 51
145.8253326416015
  0
ARC
  5
3C8
330
22
100
AcDbEntity
  8
_0-3_
  6
Continuous
 62
     6
100
AcDbCircle
 10
15494.00989429371
 20
11830.89590301543
 30
0.0
 40
50.00001997561067
100
AcDbArc
 50
146.4308471679688
 51
326.4302520751952
  0
CIRCLE
  5
3C9
330
22
100
AcDbEntity
  8
_0-3_
  6
Continuous
 62
     6
100
AcDbCircle
 10
15688.39119576119
 20
12120.28914757835
 30
0.0
 40
50.00000064437454
  0
ARC
  5
3CA
330
22
100
AcDbEntity
  8
_0-3_
  6
Continuous
 62
     6
100
AcDbCircle
 10
22720.00616949958
 20
11997.09875748122
 30
0.0
 40
50.00280850642437
100
AcDbArc
 50
34.17466735839845
 51
212.9642333984376
  0
ARC
  5
3CB
330
22
100
AcDbEntity
  8
_0-3_
  6
Continuous
 62
     6
100
AcDbCircle
 10
22830.30494483741
 20
11830.89590301543
 30
0.0
 40
50.00001997561067
100
AcDbArc
 50
213.5697479248047
 51
33.56915283203125
  0
CIRCLE
  5
3CC
330
22
100
AcDbEntity
  8
_0-3_
  6
Continuous
 62
     6
100
AcDbCircle
 10
22635.92116897171
 20
12120.28914757835
 30
0.0
 40
50.00000064437454
  0
ARC
  5
3CD
330
22
100
AcDbEntity
  8
_0-3_
  6
Continuous
 62
     6
100
AcDbCircle
 10
30720.00534470017
 20
11997.09875748122
 30
0.0
 40
50.00280850642437
100
AcDbArc
 50
34.17466735839845
 51
212.9642333984376
  0
ARC
  5
3CE
330
22
100
AcDbEntity
  8
_0-3_
  6
Continuous
 62
     6
100
AcDbCircle
 10
30830.29917124156
 20
11830.89590301543
 30
0.0
 40
50.00001997561067
100
AcDbArc
 50
213.5697479248047
 51
33.56915283203125
  0
CIRCLE
  5
3CF
330
22
100
AcDbEntity
  8
_0-3_
  6
Continuous
 62
     6
100
AcDbCircle
 10
30635.9203441723
 20
12120.28914757835
 30
0.0
 40
50.00000064437454
  0
ARC
  5
3D0
330
22
100
AcDbEntity
  8
_0-3_
  6
Continuous
 62
     6
100
AcDbCircle
 10
23604.30660763302
 20
11997.09875748122
 30
0.0
 40
50.00280850642437
100
AcDbArc
 50
327.0357666015625
 51
145.8253326416015
  0
ARC
  5
3D1
330
22
100
AcDbEntity
  8
_0-3_
  6
Continuous
 62
     6
100
AcDbCircle
 10
23494.00783229519
 20
11830.89590301543
 30
0.0
 40
50.00001997561067
100
AcDbArc
 50
146.4308471679688
 51
326.4302520751952
  0
CIRCLE
  5
3D2
330
22
100
AcDbEntity
  8
_0-3_
  6
Continuous
 62
     6
100
AcDbCircle
 10
23688.3916081609
 20
12120.28914757835
 30
0.0
 40
50.00000064437454
  0
ARC
  5
3D3
330
22
100
AcDbEntity
  8
_0-3_
  6
Continuous
 62
     6
100
AcDbCircle
 10
31604.30578283361
 20
11997.09875748122
 30
0.0
 40
50.00280850642437
100
AcDbArc
 50
327.0357666015625
 51
145.8253326416015
  0
ARC
  5
3D4
330
22
100
AcDbEntity
  8
_0-3_
  6
Continuous
 62
     6
100
AcDbCircle
 10
31494.00700749578
 20
11830.89590301543
 30
0.0
 40
50.00001997561067
100
AcDbArc
 50
146.4308471679688
 51
326.4302520751952
  0
CIRCLE
  5
3D5
330
22
100
AcDbEntity
  8
_0-3_
  6
Continuous
 62
     6
100
AcDbCircle
 10
31688.38583456504
 20
12120.28914757835
 30
0.0
 40
50.00000064437454
  0
CIRCLE
  5
3D6
330
22
100
AcDbEntity
  8
_0-0_
  6
Continuous
 62
     7
100
AcDbCircle
 10
7162.397436193518
 20
23256.61900465711
 30
0.0
 40
10.00000012887491
  0
ARC
  5
3D7
330
22
100
AcDbEntity
  8
_0-0_
  6
Continuous
 62
     6
100
AcDbCircle
 10
7205.412993559966
 20
23244.20247435728
 30
0.0
 40
68.31585877650494
100
AcDbArc
 50
182.4142456054686
 51
230.7162933349609
  0
ARC
  5
3D8
330
22
100
AcDbEntity
  8
_0-0_
  6
Continuous
 62
     6
100
AcDbCircle
 10
7118.903082770271
 20
23244.20247435728
 30
0.0
 40
68.31585877650494
100
AcDbArc
 50
309.2837066650391
 51
357.5857543945312
  0
ARC
  5
3D9
330
22
100
AcDbEntity
  8
_0-0_
  6
Continuous
 62
     6
100
AcDbCircle
 10
15205.41216876055
 20
23244.20247435728
 30
0.0
 40
68.31585877650494
100
AcDbArc
 50
182.4142456054686
 51
230.7162933349609
  0
ARC
  5
3DA
330
22
100
AcDbEntity
  8
_0-0_
  6
Continuous
 62
     6
100
AcDbCircle
 10
15118.90225797086
 20
23244.20247435728
 30
0.0
 40
68.31585877650494
100
AcDbArc
 50
309.2837066650391
 51
357.5857543945312
  0
ARC
  5
3DB
330
22
100
AcDbEntity
  8
_0-0_
  6
Continuous
 62
     6
100
AcDbCircle
 10
23205.40886956293
 20
23233.9510425055
 30
0.0
 40
68.31585877650494
100
AcDbArc
 50
182.4142456054686
 51
230.7162933349609
  0
ARC
  5
3DC
330
22
100
AcDbEntity
  8
_0-0_
  6
Continuous
 62
     6
100
AcDbCircle
 10
23118.89895877322
 20
23233.9510425055
 30
0.0
 40
68.31585877650494
100
AcDbArc
 50
309.2837066650391
 51
357.5857543945312
  0
ARC
  5
3DD
330
22
100
AcDbEntity
  8
_0-0_
  6
Continuous
 62
     6
100
AcDbCircle
 10
31205.40309596707
 20
23234.24549589444
 30
0.0
 40
68.31585877650494
100
AcDbArc
 50
182.4142456054686
 51
230.7162933349609
  0
ARC
  5
3DE
330
22
100
AcDbEntity
  8
_0-0_
  6
Continuous
 62
     6
100
AcDbCircle
 10
31118.89318517736
 20
23234.24549589444
 30
0.0
 40
68.31585877650494
100
AcDbArc
 50
309.2837066650391
 51
357.5857543945312
  0
CIRCLE
  5
3DF
330
22
100
AcDbEntity
  8
_0-9_
  6
Continuous
 62
     4
100
AcDbCircle
 10
6662.157625765414
 20
23756.41033040669
 30
0.0
 40
300.0000038662473
  0
CIRCLE
  5
3E0
330
22
100
AcDbEntity
  8
_0-9_
  6
Continuous
 62
     4
100
AcDbCircle
 10
6659.638688370987
 20
15793.70157367632
 30
0.0
 40
300.0000038662473
  0
CIRCLE
  5
3E1
330
22
100
AcDbEntity
  8
_0-9_
  6
Continuous
 62
     4
100
AcDbCircle
 10
6618.861224200277
 20
12056.88269302809
 30
0.0
 40
300.0000038662473
  0
CIRCLE
  5
3E2
330
22
100
AcDbEntity
  8
_0-9_
  6
Continuous
 62
     4
100
AcDbCircle
 10
6659.638688370987
 20
19656.39804089549
 30
0.0
 40
300.0000038662473
  0
TEXT
  5
3E3
330
22
100
AcDbEntity
  8
_0-0_
 62
     4
100
AcDbText
 10
3612.159935203758
 20
9643.91088714629
 30
0.0
 40
250.0
  1
3,000
 50
90.0
100
AcDbText
  0
TEXT
  5
3E4
330
22
100
AcDbEntity
  8
_0-9_
 62
     4
100
AcDbText
 10
10849.65948156408
 20
6006.408371508094
 30
0.0
 40
250.0
  1
8,000
100
AcDbText
  0
TEXT
  5
3E5
330
22
100
AcDbEntity
  8
_0-0_
 62
     4
100
AcDbText
 10
3092.973657556481
 20
15644.08213612354
 30
0.0
 40
250.0
  1
15,000
 50
90.0
100
AcDbText
  0
TEXT
  5
3E6
330
22
100
AcDbEntity
  8
_0-0_
 62
     4
100
AcDbText
 10
3581.959904851141
 20
17144.08213612354
 30
0.0
 40
250.0
  1
12,000
 50
90.0
100
AcDbText
  0
TEXT
  5
3E7
330
22
100
AcDbEntity
  8
_0-0_
 62
     7
100
AcDbText
 10
5964.823954814189
 20
20614.26336929763
 30
0.0
 40
300.0
  1
PC　POLE
 50
90.0
100
AcDbText
  0
TEXT
  5
3E8
330
22
100
AcDbEntity
  8
_0-9_
 62
     4
100
AcDbText
 10
4097.60098843961
 20
23042.71964998017
 30
0.0
 40
250.0
  1
200
 50
90.0
100
AcDbText
  0
TEXT
  5
3E9
330
22
100
AcDbEntity
  8
_0-9_
 62
     4
100
AcDbText
 10
4112.157254605679
 20
20993.90781476849
 30
0.0
 40
250.0
  1
3,900
 50
90.0
100
AcDbText
  0
TEXT
  5
3EA
330
22
100
AcDbEntity
  8
_0-9_
 62
     4
100
AcDbText
 10
4112.157254605679
 20
17093.90731988884
 30
0.0
 40
250.0
  1
3,900
 50
90.0
100
AcDbText
  0
TEXT
  5
3EB
330
22
100
AcDbEntity
  8
_0-9_
 62
     4
100
AcDbText
 10
4112.157254605679
 20
13193.90806220831
 30
0.0
 40
250.0
  1
3,950
 50
90.0
100
AcDbText
  0
TEXT
  5
3EC
330
22
100
AcDbEntity
  8
_0-9_
 62
     4
100
AcDbText
 10
4124.71915580131
 20
11477.83030919285
 30
0.0
 40
250.0
  1
50
 50
90.0
100
AcDbText
  0
TEXT
  5
3ED
330
22
100
AcDbEntity
  8
_0-9_
 62
     4
100
AcDbText
 10
4122.443328032622
 20
11039.23012988145
 30
0.0
 40
250.0
  1
400
 50
90.0
100
AcDbText
  0
TEXT
  5
3EE
330
22
100
AcDbEntity
  8
_0-9_
 62
     4
100
AcDbText
 10
4112.157254605679
 20
9431.408330268119
 30
0.0
 40
250.0
  1
2,600
 50
90.0
100
AcDbText
  0
TEXT
  5
3EF
330
22
100
AcDbEntity
  8
_0-F_
 62
     4
100
AcDbText
 10
5203.390894709406
 20
11712.53801265436
 30
0.0
 40
250.0
  1
ＧＬ
100
AcDbText
  0
TEXT
  5
3F0
330
22
100
AcDbEntity
  8
_0-F_
 62
     7
100
AcDbText
 10
37628.34225216428
 20
20264.56058576459
 30
0.0
 40
300.0
  1
ﾊﾞﾝﾄﾞ
100
AcDbText
  0
TEXT
  5
3F1
330
22
100
AcDbEntity
  8
_0-F_
 62
     7
100
AcDbText
 10
8317.089039570577
 20
24148.85483790246
 30
0.0
 40
300.0
  1
ｼﾞｮｲﾝﾄﾋﾞｰﾑ
100
AcDbText
  0
TEXT
  5
3F2
330
22
100
AcDbEntity
  8
_0-F_
 62
     7
100
AcDbText
 10
8367.349469983901
 20
10311.53311829467
 30
0.0
 40
300.0
  1
ﾈｶｾ
100
AcDbText
  0
TEXT
  5
3F3
330
22
100
AcDbEntity
  8
_0-F_
 62
     7
100
AcDbText
 10
37607.65628299199
 20
24171.02297161235
 30
0.0
 40
300.0
  1
ﾊﾞﾝﾄﾞ
100
AcDbText
  0
TEXT
  5
3F4
330
22
100
AcDbEntity
  8
_0-F_
 62
     7
100
AcDbText
 10
37655.72394293708
 20
16364.56009088494
 30
0.0
 40
300.0
  1
ﾊﾞﾝﾄﾞ
100
AcDbText
  0
TEXT
  5
3F5
330
22
100
AcDbEntity
  8
_0-F_
 62
     7
100
AcDbText
 10
37686.38173696157
 20
12464.56083320441
 30
0.0
 40
300.0
  1
ﾊﾞﾝﾄﾞ
100
AcDbText
  0
TEXT
  5
3F6
330
22
100
AcDbEntity
  8
_0-9_
 62
     7
100
AcDbText
 10
6512.157625765414
 20
23606.40983552705
 30
0.0
 40
300.0
  1
Ａ
100
AcDbText
  0
TEXT
  5
3F7
330
22
100
AcDbEntity
  8
_0-9_
 62
     7
100
AcDbText
 10
6509.638688370987
 20
15643.70107879668
 30
0.0
 40
300.0
  1
Ｂ
100
AcDbText
  0
TEXT
  5
3F8
330
22
100
AcDbEntity
  8
_0-9_
 62
     7
100
AcDbText
 10
6468.861224200279
 20
11906.88219814845
 30
0.0
 40
300.0
  1
Ｃ
100
AcDbText
  0
TEXT
  5
3F9
330
22
100
AcDbEntity
  8
_0-9_
 62
     7
100
AcDbText
 10
6509.638688370987
 20
19506.39754601585
 30
0.0
 40
300.0
  1
Ｂ
100
AcDbText
  0
POINT
  5
3FA
330
22
100
AcDbEntity
  8
_0-0_
 62
     4
100
AcDbPoint
 10
3162.156594766154
 20
23456.4093406474
 30
0.0
  0
POINT
  5
3FB
330
22
100
AcDbEntity
  8
_0-0_
 62
     4
100
AcDbPoint
 10
3162.157831965265
 20
8456.409959246954
 30
0.0
  0
POINT
  5
3FC
330
22
100
AcDbEntity
  8
_0-0_
 62
     4
100
AcDbPoint
 10
3662.160100163641
 20
8456.409959246954
 30
0.0
  0
POINT
  5
3FD
330
22
100
AcDbEntity
  8
_0-0_
 62
     4
100
AcDbPoint
 10
3662.160100163641
 20
11456.41181504562
 30
0.0
  0
POINT
  5
3FE
330
22
100
AcDbEntity
  8
_0-0_
 62
     4
100
AcDbPoint
 10
3662.157625765416
 20
23456.4093406474
 30
0.0
  0
POINT
  5
3FF
330
22
100
AcDbEntity
  8
_0-9_
 62
     4
100
AcDbPoint
 10
7162.161749762458
 20
5956.408206548211
 30
0.0
  0
POINT
  5
400
330
22
100
AcDbEntity
  8
_0-9_
 62
     4
100
AcDbPoint
 10
15162.15721336571
 20
5956.408206548211
 30
0.0
  0
POINT
  5
401
330
22
100
AcDbEntity
  8
_0-9_
 62
     4
100
AcDbPoint
 10
23162.15638856631
 20
5956.408206548211
 30
0.0
  0
POINT
  5
402
330
22
100
AcDbEntity
  8
_0-9_
 62
     4
100
AcDbPoint
 10
31162.1555637669
 20
5956.408206548211
 30
0.0
  0
POINT
  5
403
330
22
100
AcDbEntity
  8
_0-9_
 62
     4
100
AcDbPoint
 10
4162.157419565563
 20
23456.4093406474
 30
0.0
  0
POINT
  5
404
330
22
100
AcDbEntity
  8
_0-9_
 62
     4
100
AcDbPoint
 10
4162.157419565563
 20
23256.40868080788
 30
0.0
  0
POINT
  5
405
330
22
100
AcDbEntity
  8
_0-9_
 62
     4
100
AcDbPoint
 10
4162.157419565563
 20
19356.40818592823
 30
0.0
  0
POINT
  5
406
330
22
100
AcDbEntity
  8
_0-9_
 62
     4
100
AcDbPoint
 10
4162.157419565563
 20
15456.40769104858
 30
0.0
  0
POINT
  5
407
330
22
100
AcDbEntity
  8
_0-9_
 62
     4
100
AcDbPoint
 10
4162.157419565563
 20
11556.40843336805
 30
0.0
  0
POINT
  5
408
330
22
100
AcDbEntity
  8
_0-9_
 62
     4
100
AcDbPoint
 10
4162.157419565563
 20
11456.40810344828
 30
0.0
  0
POINT
  5
409
330
22
100
AcDbEntity
  8
_0-9_
 62
     4
100
AcDbPoint
 10
4162.157419565563
 20
11031.40855708796
 30
0.0
  0
POINT
  5
40A
330
22
100
AcDbEntity
  8
_0-9_
 62
     4
100
AcDbPoint
 10
4162.157419565563
 20
8456.40748484873
 30
0.0
  0
TEXT
  5
40B
330
22
100
AcDbEntity
  8
_0-0_
 62
     7
100
AcDbText
 10
6419.797558710974
 20
20450.28424359945
 30
0.0
 40
300.0
  1
15-22-1200
 50
90.0
100
AcDbText
  0
TEXT
  5
40C
330
22
100
AcDbEntity
  8
_0-9_
 62
     4
100
AcDbText
 10
10521.61888482519
 20
5580.831874343162
 30
0.0
 40
250.0
  1
（10,500）
100
AcDbText
  0
TEXT
  5
40D
330
22
100
AcDbEntity
  8
_0-9_
 62
     4
100
AcDbText
 10
19023.30222645701
 20
6006.408371508094
 30
0.0
 40
250.0
  1
8,000
100
AcDbText
  0
TEXT
  5
40E
330
22
100
AcDbEntity
  8
_0-9_
 62
     4
100
AcDbText
 10
18695.26162971812
 20
5580.831874343162
 30
0.0
 40
250.0
  1
（10,500）
100
AcDbText
  0
TEXT
  5
40F
330
22
100
AcDbEntity
  8
_0-9_
 62
     4
100
AcDbText
 10
27020.62040440047
 20
6006.408371508094
 30
0.0
 40
250.0
  1
8,000
100
AcDbText
  0
TEXT
  5
410
330
22
100
AcDbEntity
  8
_0-9_
 62
     4
100
AcDbText
 10
26692.57980766157
 20
5580.831874343162
 30
0.0
 40
250.0
  1
（10,500）
100
AcDbText
  0
TEXT
  5
411
330
22
100
AcDbEntity
  8
_0-F_
 62
     7
100
AcDbText
 10
9356.680421571477
 20
21756.59178627662
 30
0.0
 40
300.0
  1
ﾌﾞﾚｰｽﾜｲﾔｰ　55m㎡
100
AcDbText
  0
TEXT
  5
412
330
22
100
AcDbEntity
  8
_0-F_
 62
     7
100
AcDbText
 10
19788.31176757812
 20
23840.74029635897
 30
0.0
 40
300.0
  1
横ﾜｲﾔｰ 38m㎡
100
AcDbText
  0
TEXT
  5
413
330
22
100
AcDbEntity
  8
_0-F_
 62
     7
100
AcDbText
 10
19788.31176757812
 20
19936.78571311361
 30
0.0
 40
300.0
  1
横ﾜｲﾔｰ 38m㎡
100
AcDbText
  0
TEXT
  5
414
330
22
100
AcDbEntity
  8
_0-F_
 62
     7
100
AcDbText
 10
19788.31176757812
 20
16036.78645543308
 30
0.0
 40
300.0
  1
横ﾜｲﾔｰ 38m㎡
100
AcDbText
  0
TEXT
  5
415
330
22
100
AcDbEntity
  8
_0-F_
 62
     7
100
AcDbText
 10
19788.31176757812
 20
12136.78472335432
 30
0.0
 40
300.0
  1
横ﾜｲﾔｰ 38m㎡
100
AcDbText
  0
TEXT
  5
416
330
22
100
AcDbEntity
  8
_0-F_
 62
     7
100
AcDbText
 10
15832.47647672086
 20
21149.48952104753
 30
0.0
 40
300.0
  1
縦ﾜｲﾔｰ 38m㎡
100
AcDbText
  0
TEXT
  5
417
330
22
100
AcDbEntity
  8
_0-F_
 62
     7
100
AcDbText
 10
3380.130857343392
 20
5001.968594586762
 30
0.0
 40
400.0
  1
設計条件
100
AcDbText
  0
TEXT
  5
418
330
22
100
AcDbEntity
  8
_0-F_
 62
     7
100
AcDbText
 10
4380.130857343391
 20
3551.968594586763
 30
0.0
 40
300.0
  1
基準風速・・・３４ｍ／ｓｅｃ
100
AcDbText
  0
TEXT
  5
419
330
22
100
AcDbEntity
  8
_0-F_
 62
     7
100
AcDbText
 10
4380.130857343391
 20
3051.968594586763
 30
0.0
 40
300.0
  1
地表面粗度区分・・・Ⅲ
100
AcDbText
  0
TEXT
  5
41A
330
22
100
AcDbEntity
  8
_0-F_
 62
     7
100
AcDbText
 10
4380.130857343391
 20
2551.968594586762
 30
0.0
 40
300.0
  1
基礎　普通土質（Ｂ）を選定
100
AcDbText
  0
TEXT
  5
41B
330
22
100
AcDbEntity
  8
_0-F_
 62
     7
100
AcDbText
 10
3880.130857343392
 20
4551.968594586762
 30
0.0
 40
300.0
  1
・設計荷重　建築基準法・同施工令
100
AcDbText
  0
TEXT
  5
41C
330
22
100
AcDbEntity
  8
_0-F_
 62
     7
100
AcDbText
 10
4119.588735866029
 20
4051.96859458676
 30
0.0
 40
300.0
  1
（平成１２年６月）に基づく風圧力による。
100
AcDbText
  0
TEXT
  5
41D
330
22
100
AcDbEntity
  8
_0-F_
 62
     7
100
AcDbText
 10
24050.25442671299
 20
24001.87805765542
 30
0.0
 40
300.0
  1
ポリロープ4φにてかがりどめ
100
AcDbText
  0
LINE
  5
41E
330
22
100
AcDbEntity
  8
_0-F_
  6
Continuous
 62
     4
100
AcDbLine
 10
23564.23386941253
 20
23259.36558668836
 30
0.0
 11
23964.23518909158
 21
23952.18471807561
 31
0.0
  0
LINE
  5
41F
330
22
100
AcDbEntity
  8
_0-F_
  6
Continuous
 62
     4
100
AcDbLine
 10
23564.23386941253
 20
23259.36558668836
 30
0.0
 11
23564.23386941253
 21
23359.36591660813
 31
0.0
  0
TEXT
  5
420
330
22
100
AcDbEntity
  8
_0-F_
 62
     7
100
AcDbText
 10
15840.02108187289
 20
22773.84164111193
 30
0.0
 40
300.0
  1
ﾎﾟﾘﾛｰﾌﾟ6φ押え
100
AcDbText
  0
LINE
  5
421
330
22
100
AcDbEntity
  8
_0-F_
  6
Continuous
 62
     4
100
AcDbLine
 10
30971.58782092422
 20
25383.67044079418
 30
0.0
 11
30284.36577832498
 21
25383.67044079418
 31
0.0
  0
LINE
  5
422
330
22
100
AcDbEntity
  8
_0-F_
  6
Continuous
 62
     4
100
AcDbLine
 10
30971.58782092422
 20
24574.96402941415
 30
0.0
 11
31153.99303497616
 21
24574.96402941415
 31
0.0
  0
TEXT
  5
423
330
22
100
AcDbEntity
  8
_0-F_
 62
     7
100
AcDbText
 10
31210.11717058638
 20
25453.82457930769
 30
0.0
 40
300.0
  1
ｸﾚﾓﾅ250D/80本×37.5㎜目
100
AcDbText
  0
TEXT
  5
424
330
22
100
AcDbEntity
  8
_0-F_
 62
     7
100
AcDbText
 10
31037.58807290197
 20
25030.87268160431
 30
0.0
 40
300.0
  1
（KRP-40 1800D/18本×40㎜目 ｴｺﾛﾈｯﾄ）
100
AcDbText
  0
TEXT
  5
425
330
22
100
AcDbEntity
  8
_0-F_
 62
     7
100
AcDbText
 10
31037.58807290197
 20
24609.37222957945
 30
0.0
 40
300.0
  1
（KSP-24 37.5㎜目 ｽｰﾊﾟｰﾎﾟﾘｴﾁﾚﾝ）
100
AcDbText
  0
TEXT
  5
426
330
22
100
AcDbEntity
  8
_0-F_
 62
     7
100
AcDbText
 10
31227.22243808533
 20
25900.92359482712
 30
0.0
 40
300.0
  1
NET
100
AcDbText
  0
LINE
  5
427
330
22
100
AcDbEntity
  8
_0-F_
  6
Continuous
 62
     4
100
AcDbLine
 10
30971.58782092422
 20
25790.57533152476
 30
0.0
 11
31153.99303497616
 21
25790.57533152476
 31
0.0
  0
LINE
  5
428
330
22
100
AcDbEntity
  8
_0-F_
  6
Continuous
 62
     4
100
AcDbLine
 10
30971.58782092422
 20
25790.57533152476
 30
0.0
 11
30971.58782092422
 21
24574.96402941415
 31
0.0
  0
LINE
  5
429
330
22
100
AcDbEntity
  8
_0-F_
  6
Continuous
 62
     4
100
AcDbLine
 10
28966.44615029624
 20
23100.96698422848
 30
0.0
 11
30284.36577832498
 21
25383.67044079418
 31
0.0
  0
LINE
  5
42A
330
22
100
AcDbEntity
  8
_0-F_
  6
Continuous
 62
     4
100
AcDbLine
 10
28966.44615029624
 20
23100.96698422848
 30
0.0
 11
28966.44615029624
 21
23200.96731414824
 31
0.0
  0
LINE
  5
42B
330
22
100
AcDbEntity
  8
_0-F_
  6
Continuous
 62
     4
100
AcDbLine
 10
23964.23518909158
 20
23952.18471807561
 30
0.0
 11
28744.16259854049
 21
23952.18471807561
 31
0.0
  0
ENDSEC
  0
SECTION
  2
OBJECTS
  0
DICTIONARY
  5
C
330
0
100
AcDbDictionary
281
     1
  3
ACAD_COLOR
350
1B
  3
ACAD_GROUP
350
D
  3
ACAD_LAYOUT
350
19
  3
ACAD_MATERIAL
350
1A
  3
ACAD_MLINESTYLE
350
16
  3
ACAD_PLOTSETTINGS
350
18
  3
ACAD_PLOTSTYLENAME
350
E
  3
ACAD_TABLESTYLE
350
1C
  3
ACDBHEADERROUNDTRIPXREC
350
9FF
  3
AcDbVariableDictionary
350
716
  3
ADE_QUERY_LIBRARY
350
714
  3
AEC_VARS
350
453
  3
ASE_INDEX_DICTIONARY
350
710
  3
Autodesk_MAP
350
455
  3
Root
350
725
1001
ADE
1000
ADE02C004
1000
[Query]
1000
CaseSensitiveMatch=0
1000
SaveCurrQueryInSession=1
1000
MkSelSetWithQryObj=0
1000
ShowBlockAsInsPt=0
1000
CreateAssociativeHatchObjects=0
1000
ReferenceBoundaryForAreaLocation=1
1000
ShowImageAsBoundary=1
1000
DefaultJoinOperator=2
1000
ColorForAdd=red
1000
ColorForRemove=red
1000
BlockLocnForQuery=1
1000
TextLocnForQuery=1
1000
IncludeAllObjectsInGroups=0
1000
AlwaysUseLibraryDefinitions=0
1000
PreviewDefinitionsFrom=2
1000
[Save Back]
1000
RedefineBlockDefinitions=1
1000
RedefineLayerDefinitions=1
1000
RedefineTextStyleDefinitions=1
1000
RemoveUnusedGroups=1
1000
EraseSavedBackObjects=1
1000
RemoveLockAfterSave=1
1000
CreateHistoryFileOfChanges=0
1000
CreateBackupFileOfSourceDwg=1
1000
DontAddObjectsToSaveSet=0
1000
MarkObjectsForEditingWithoutPrompting=0
1000
[Coordinate Transformation]
1000
RestoreLastActiveDwgsOnStartup=1
1000
ActivateDwgsOnAttach=1
1000
AdjustSizesAndScalesForChangesInUnits=1
1000
AdjustRotationsForMapDistortions=1
1000
AdjustSizesAndScalesForMapDistortions=1
1000
AdjustElevations=1
1000
AdjustZeroRotationObjects=1
1000
ReconnectDbOnWSOpen=1
1000
NoOfSQLConditionsInHistory=10
  0
DICTIONARY
  5
1B
102
{ACAD_REACTORS
330
C
102
}
330
C
100
AcDbDictionary
281
     1
  0
DICTIONARY
  5
D
102
{ACAD_REACTORS
330
C
102
}
330
C
100
AcDbDictionary
281
     1
  0
DICTIONARY
  5
19
102
{ACAD_REACTORS
330
C
102
}
330
C
100
AcDbDictionary
281
     1
  3
Model
350
25
  3
レイアウト1
350
21
  0
DICTIONARY
  5
1A
102
{ACAD_REACTORS
330
C
102
}
330
C
100
AcDbDictionary
281
     1
  0
DICTIONARY
  5
16
102
{ACAD_REACTORS
330
C
102
}
330
C
100
AcDbDictionary
281
     1
  3
Standard
350
17
  0
DICTIONARY
  5
18
102
{ACAD_REACTORS
330
C
102
}
330
C
100
AcDbDictionary
281
     1
  0
ACDBDICTIONARYWDFLT
  5
E
102
{ACAD_REACTORS
330
C
102
}
330
C
100
AcDbDictionary
281
     1
  3
Normal
350
F
100
AcDbDictionaryWithDefault
340
F
  0
DICTIONARY
  5
1C
102
{ACAD_REACTORS
330
C
102
}
330
C
100
AcDbDictionary
281
     1
  3
Legend
350
459
  3
Standard
350
1D
  0
DICTIONARY
  5
9FF
102
{ACAD_REACTORS
330
C
102
}
330
C
100
AcDbDictionary
281
     1
  0
DICTIONARY
  5
716
102
{ACAD_REACTORS
330
C
102
}
330
C
100
AcDbDictionary
281
     1
  3
CTABLESTYLE
350
717
  3
DIMASSOC
350
718
  3
PROJECTNAME
350
719
  0
DICTIONARY
  5
714
102
{ACAD_REACTORS
330
C
102
}
330
C
100
AcDbDictionary
281
     1
  3
_CurrQry
350
9FD
  0
DICTIONARY
  5
453
102
{ACAD_REACTORS
330
C
102
}
330
C
100
AcDbDictionary
281
     1
  3
AEC_VARS_DWG_SETUP
350
74A
  0
DICTIONARY
  5
710
102
{ACAD_REACTORS
330
C
102
}
330
C
100
AcDbDictionary
281
     1
  3
ASEBlockHierarchyIndexRecord
350
712
1001
DCO15
1040
1621942869.875
  0
DICTIONARY
  5
455
102
{ACAD_REACTORS
330
C
102
}
330
C
100
AcDbDictionary
281
     1
  3
MAP_DISPLAY_MANAGEMENT_DICTIONARY
350
456
  3
MAP_DISPLAY_STYLELIBRARY_DICTIONARY
350
457
  0
LAYOUT
  5
25
102
{ACAD_XDICTIONARY
360
A02
102
}
102
{ACAD_REACTORS
330
19
102
}
330
19
100
AcDbPlotSettings
  1

  2
DCColor a450_newosk
  4

  6

 40
0.0
 41
0.0
 42
0.0
 43
0.0
 44
0.0
 45
0.0
 46
0.0
 47
0.0
 48
0.0
 49
0.0
140
0.0
141
0.0
142
1.0
143
1.0
 70
  1712
 72
     0
 73
     0
 74
     0
  7

 75
     0
147
1.0
148
0.0
149
0.0
100
AcDbLayout
  1
Model
 70
     1
 71
     0
 10
0.0
 20
0.0
 11
12.0
 21
9.0
 12
0.0
 22
0.0
 32
0.0
 14
0.0
 24
0.0
 34
0.0
 15
0.0
 25
0.0
 35
0.0
146
0.0
 13
0.0
 23
0.0
 33
0.0
 16
1.0
 26
0.0
 36
0.0
 17
0.0
 27
1.0
 37
0.0
 76
     0
330
22
  0
LAYOUT
  5
21
102
{ACAD_XDICTIONARY
360
A00
102
}
102
{ACAD_REACTORS
330
19
102
}
330
19
100
AcDbPlotSettings
  1

  2
DCColor a450_newosk
  4

  6

 40
0.0
 41
0.0
 42
0.0
 43
0.0
 44
0.0
 45
0.0
 46
0.0
 47
0.0
 48
0.0
 49
0.0
140
0.0
141
0.0
142
1.0
143
1.0
 70
   688
 72
     0
 73
     0
 74
     5
  7

 75
    16
147
1.0
148
0.0
149
0.0
100
AcDbLayout
  1
レイアウト1
 70
     1
 71
     1
 10
0.0
 20
0.0
 11
12.0
 21
9.0
 12
0.0
 22
0.0
 32
0.0
 14
1.000000000000000E+20
 24
1.000000000000000E+20
 34
1.000000000000000E+20
 15
-1.000000000000000E+20
 25
-1.000000000000000E+20
 35
-1.000000000000000E+20
146
0.0
 13
0.0
 23
0.0
 33
0.0
 16
1.0
 26
0.0
 36
0.0
 17
0.0
 27
1.0
 37
0.0
 76
     0
330
1E
  0
MLINESTYLE
  5
17
102
{ACAD_REACTORS
330
16
102
}
330
16
100
AcDbMlineStyle
  2
STANDARD
 70
     0
  3

 62
   256
 51
90.0
 52
90.0
 71
     2
 49
0.5
 62
   256
  6
BYLAYER
 49
-0.5
 62
   256
  6
BYLAYER
  0
ACDBPLACEHOLDER
  5
F
102
{ACAD_REACTORS
330
E
102
}
330
E
  0
TABLESTYLE
  5
459
102
{ACAD_REACTORS
330
1C
102
}
330
1C
100
AcDbTableStyle
  3

 70
     0
 71
     1
 40
0.06
 41
0.06
280
     0
281
     0
  7
STANDARD
140
0.4
170
     4
 62
     0
 63
     7
283
     0
274
    -2
284
     0
 64
     0
275
    -2
285
     0
 65
     0
276
    -2
286
     1
 66
     0
277
    -2
287
     1
 67
     0
278
    -2
288
     0
 68
     0
279
    -2
289
     1
 69
     0
  7
STANDARD
140
0.5
170
     5
 62
     0
 63
     7
283
     0
274
    -2
284
     1
 64
     0
275
    -2
285
     0
 65
     0
276
    -2
286
     1
 66
     0
277
    -2
287
     1
 67
     0
278
    -2
288
     0
 68
     0
279
    -2
289
     1
 69
     0
  7
STANDARD
140
0.4
170
     4
 62
     0
 63
     7
283
     0
274
    -2
284
     1
 64
     0
275
    -2
285
     0
 65
     0
276
    -2
286
     1
 66
     0
277
    -2
287
     1
 67
     0
278
    -2
288
     0
 68
     0
279
    -2
289
     1
 69
     0
  0
TABLESTYLE
  5
1D
102
{ACAD_REACTORS
330
1C
102
}
330
1C
100
AcDbTableStyle
  3
Standard
 70
     0
 71
     0
 40
0.06
 41
0.06
280
     0
281
     0
  7
STANDARD
140
0.18
170
     2
 62
     0
 63
     7
283
     0
274
    -2
284
     1
 64
     0
275
    -2
285
     1
 65
     0
276
    -2
286
     1
 66
     0
277
    -2
287
     1
 67
     0
278
    -2
288
     1
 68
     0
279
    -2
289
     1
 69
     0
  7
STANDARD
140
0.25
170
     5
 62
     0
 63
     7
283
     0
274
    -2
284
     1
 64
     0
275
    -2
285
     1
 65
     0
276
    -2
286
     1
 66
     0
277
    -2
287
     1
 67
     0
278
    -2
288
     1
 68
     0
279
    -2
289
     1
 69
     0
  7
STANDARD
140
0.18
170
     5
 62
     0
 63
     7
283
     0
274
    -2
284
     1
 64
     0
275
    -2
285
     1
 65
     0
276
    -2
286
     1
 66
     0
277
    -2
287
     1
 67
     0
278
    -2
288
     1
 68
     0
279
    -2
289
     1
 69
     0
  0
DICTIONARYVAR
  5
717
102
{ACAD_REACTORS
330
716
102
}
330
716
100
DictionaryVariables
280
     0
  1
STANDARD
  0
DICTIONARYVAR
  5
718
102
{ACAD_REACTORS
330
716
102
}
330
716
100
DictionaryVariables
280
     0
  1
1
  0
DICTIONARYVAR
  5
719
102
{ACAD_REACTORS
330
716
102
}
330
716
100
DictionaryVariables
280
     0
  1

  0
XRECORD
  5
9FD
102
{ACAD_REACTORS
330
714
102
}
330
714
100
AcDbXrecord
280
     1
1000
ADE02C001
1070
     1
1070
     0
1002
{
1002
}
1002
{
1002
}
1002
{
1002
}
1000

  0
XRECORD
  5
712
102
{ACAD_REACTORS
330
710
102
}
330
710
100
AcDbXrecord
280
     1
  0
DMMAPMANAGER
  5
456
102
{ACAD_REACTORS
330
455
102
}
330
455
100
AcDbDictionary
281
     1
  3
DisplayMap1
350
458
100
AcDbDictionaryWithDefault
340
458
100
AcMapDMMapManager
 70
     1
340
458
  0
DMSTYLELIBRARY
  5
457
102
{ACAD_REACTORS
330
455
102
}
330
455
100
AcMapDMStyleLibrary
 70
     1
 70
     1
360
45D
  0
DICTIONARY
  5
A02
330
25
100
AcDbDictionary
280
     1
281
     1
  3
ACAD_XREC_ROUNDTRIP
360
A03
  0
DICTIONARY
  5
A00
330
21
100
AcDbDictionary
280
     1
281
     1
  3
ACAD_XREC_ROUNDTRIP
360
A01
  0
DMMAP
  5
458
102
{ACAD_REACTORS
330
456
330
45A
102
}
330
456
100
AcMapDMMap
 70
     1
  1
既定値
 70
     1
330
0
100
AcMapDMMap
 70
     1
 90
        1
360
45A
 90
        1
 40
1.797693134862314E+99
 70
     1
100
AcMapDMMap
 70
     2
 70
     0
 40
1.797693134862314E+99
290
     0
290
     1
 40
1.0
 40
3.0
  1
Legend
 90
        1
 40
1.797693134862314E+99
  1

 70
     0
 40
100.0
 70
     1
 90
        0
 90
        1
360
45B
  0
DMSTYLECATEGORY
  5
45D
102
{ACAD_REACTORS
330
457
102
}
330
457
100
AcMapDMStyleCategory
 70
     1
  1
スタイルを表示
 70
     0
  0
XRECORD
  5
A03
102
{ACAD_REACTORS
330
A02
102
}
330
A02
100
AcDbXrecord
280
     1
102
SHADEPLOT
 70
     0
102
SHADEPLOTRESLEVEL
 70
     2
102
SHADEPLOTCUSTOMDPI
 70
   300
  0
XRECORD
  5
A01
102
{ACAD_REACTORS
330
A00
102
}
330
A00
100
AcDbXrecord
280
     1
102
SHADEPLOT
 70
     0
102
SHADEPLOTRESLEVEL
 70
     2
102
SHADEPLOTCUSTOMDPI
 70
   300
  0
DMBASEELEMENT
  5
45A
102
{ACAD_REACTORS
330
458
102
}
330
458
100
AcMapDMBaseElement
 70
     1
  1
マップ ベース
 70
     1
330
458
100
AcMapDMBaseElement
 70
     1
  1

 70
     2
  1

 70
     1
 40
1.797693134862314E+99
 70
     1
 70
     1
 70
     1
 70
     1
360
45C
100
AcMapDMBaseElement
 70
     1
  0
DMDEFAULTSTYLE
  5
45B
102
{ACAD_REACTORS
330
458
102
}
330
458
100
AcMapDMDefaultStyle
 70
     1
 90
        1
  1
既定値
100
AcMapDMDefaultStyle
 70
     1
280
   100
 90
     0
  0
DMSTYLEREFERENCE
  5
45C
330
45A
100
AcMapDMStyleReference
 70
     1
 70
     0
340
45B
330
458
  0
ENDSEC
  0
EOF
