  0
SECTION
  2
HEADER
  9
$ACADVER
  1
AC1015
  9
$ACADMAINTVER
 70
    20
  9
$DWGCODEPAGE
  3
ANSI_932
  9
$INSBASE
 10
0.0
 20
0.0
 30
0.0
  9
$EXTMIN
 10
3499.999175200591
 20
2918.837263777449
 30
0.0
  9
$EXTMAX
 10
40500.0
 20
27918.83808857686
 30
0.0
  9
$LIMMIN
 10
0.0
 20
0.0
  9
$LIMMAX
 10
42000.0
 20
29700.0
  9
$ORTHOMODE
 70
     0
  9
$REGENMODE
 70
     1
  9
$FILLMODE
 70
     1
  9
$QTEXTMODE
 70
     0
  9
$MIRRTEXT
 70
     0
  9
$LTSCALE
 40
100.0
  9
$ATTMODE
 70
     1
  9
$TEXTSIZE
 40
0.2
  9
$TRACEWID
 40
0.05
  9
$TEXTSTYLE
  7
STANDARD
  9
$CLAYER
  8
0
  9
$CELTYPE
  6
CONTINUOUS
  9
$CECOLOR
 62
   256
  9
$CELTSCALE
 40
1.0
  9
$DISPSILH
 70
     0
  9
$DIMSCALE
 40
40.0
  9
$DIMASZ
 40
0.18
  9
$DIMEXO
 40
0.0625
  9
$DIMDLI
 40
0.38
  9
$DIMRND
 40
0.0
  9
$DIMDLE
 40
0.0
  9
$DIMEXE
 40
0.18
  9
$DIMTP
 40
0.0
  9
$DIMTM
 40
0.0
  9
$DIMTXT
 40
0.18
  9
$DIMCEN
 40
0.09
  9
$DIMTSZ
 40
0.0
  9
$DIMTOL
 70
     0
  9
$DIMLIM
 70
     0
  9
$DIMTIH
 70
     1
  9
$DIMTOH
 70
     1
  9
$DIMSE1
 70
     0
  9
$DIMSE2
 70
     0
  9
$DIMTAD
 70
     0
  9
$DIMZIN
 70
     0
  9
$DIMBLK
  1

  9
$DIMASO
 70
     1
  9
$DIMSHO
 70
     1
  9
$DIMPOST
  1

  9
$DIMAPOST
  1

  9
$DIMALT
 70
     0
  9
$DIMALTD
 70
     2
  9
$DIMALTF
 40
25.4
  9
$DIMLFAC
 40
1.0
  9
$DIMTOFL
 70
     0
  9
$DIMTVP
 40
0.0
  9
$DIMTIX
 70
     0
  9
$DIMSOXD
 70
     0
  9
$DIMSAH
 70
     0
  9
$DIMBLK1
  1

  9
$DIMBLK2
  1

  9
$DIMSTYLE
  2
Standard
  9
$DIMCLRD
 70
     0
  9
$DIMCLRE
 70
     0
  9
$DIMCLRT
 70
     0
  9
$DIMTFAC
 40
1.0
  9
$DIMGAP
 40
0.09
  9
$DIMJUST
 70
     0
  9
$DIMSD1
 70
     0
  9
$DIMSD2
 70
     0
  9
$DIMTOLJ
 70
     1
  9
$DIMTZIN
 70
     0
  9
$DIMALTZ
 70
     0
  9
$DIMALTTZ
 70
     0
  9
$DIMUPT
 70
     0
  9
$DIMDEC
 70
     4
  9
$DIMTDEC
 70
     4
  9
$DIMALTU
 70
     2
  9
$DIMALTTD
 70
     2
  9
$DIMTXSTY
  7
STANDARD
  9
$DIMAUNIT
 70
     0
  9
$DIMADEC
 70
     0
  9
$DIMALTRND
 40
0.0
  9
$DIMAZIN
 70
     0
  9
$DIMDSEP
 70
    46
  9
$DIMATFIT
 70
     3
  9
$DIMFRAC
 70
     0
  9
$DIMLDRBLK
  1

  9
$DIMLUNIT
 70
     2
  9
$DIMLWD
 70
    -2
  9
$DIMLWE
 70
    -2
  9
$DIMTMOVE
 70
     0
  9
$LUNITS
 70
     2
  9
$LUPREC
 70
     4
  9
$SKETCHINC
 40
0.1
  9
$FILLETRAD
 40
0.0
  9
$AUNITS
 70
     0
  9
$AUPREC
 70
     0
  9
$MENU
  1
.
  9
$ELEVATION
 40
0.0
  9
$PELEVATION
 40
0.0
  9
$THICKNESS
 40
0.0
  9
$LIMCHECK
 70
     0
  9
$CHAMFERA
 40
0.0
  9
$CHAMFERB
 40
0.0
  9
$CHAMFERC
 40
0.0
  9
$CHAMFERD
 40
0.0
  9
$SKPOLY
 70
     0
  9
$TDCREATE
 40
2454575.698880741
  9
$TDUCREATE
 40
2454575.323880741
  9
$TDUPDATE
 40
2454575.699222361
  9
$TDUUPDATE
 40
2454575.324222362
  9
$TDINDWG
 40
0.0003421644
  9
$TDUSRTIMER
 40
0.0003421644
  9
$USRTIMER
 70
     1
  9
$ANGBASE
 50
0.0
  9
$ANGDIR
 70
     0
  9
$PDMODE
 70
     0
  9
$PDSIZE
 40
0.0
  9
$PLINEWID
 40
0.0
  9
$SPLFRAME
 70
     0
  9
$SPLINETYPE
 70
     6
  9
$SPLINESEGS
 70
     8
  9
$HANDSEED
  5
732
  9
$SURFTAB1
 70
     6
  9
$SURFTAB2
 70
     6
  9
$SURFTYPE
 70
     6
  9
$SURFU
 70
     6
  9
$SURFV
 70
     6
  9
$UCSBASE
  2

  9
$UCSNAME
  2

  9
$UCSORG
 10
0.0
 20
0.0
 30
0.0
  9
$UCSXDIR
 10
1.0
 20
0.0
 30
0.0
  9
$UCSYDIR
 10
0.0
 20
1.0
 30
0.0
  9
$UCSORTHOREF
  2

  9
$UCSORTHOVIEW
 70
     0
  9
$UCSORGTOP
 10
0.0
 20
0.0
 30
0.0
  9
$UCSORGBOTTOM
 10
0.0
 20
0.0
 30
0.0
  9
$UCSORGLEFT
 10
0.0
 20
0.0
 30
0.0
  9
$UCSORGRIGHT
 10
0.0
 20
0.0
 30
0.0
  9
$UCSORGFRONT
 10
0.0
 20
0.0
 30
0.0
  9
$UCSORGBACK
 10
0.0
 20
0.0
 30
0.0
  9
$PUCSBASE
  2

  9
$PUCSNAME
  2

  9
$PUCSORG
 10
0.0
 20
0.0
 30
0.0
  9
$PUCSXDIR
 10
1.0
 20
0.0
 30
0.0
  9
$PUCSYDIR
 10
0.0
 20
1.0
 30
0.0
  9
$PUCSORTHOREF
  2

  9
$PUCSORTHOVIEW
 70
     0
  9
$PUCSORGTOP
 10
0.0
 20
0.0
 30
0.0
  9
$PUCSORGBOTTOM
 10
0.0
 20
0.0
 30
0.0
  9
$PUCSORGLEFT
 10
0.0
 20
0.0
 30
0.0
  9
$PUCSORGRIGHT
 10
0.0
 20
0.0
 30
0.0
  9
$PUCSORGFRONT
 10
0.0
 20
0.0
 30
0.0
  9
$PUCSORGBACK
 10
0.0
 20
0.0
 30
0.0
  9
$USERI1
 70
     0
  9
$USERI2
 70
     0
  9
$USERI3
 70
     0
  9
$USERI4
 70
     0
  9
$USERI5
 70
     0
  9
$USERR1
 40
0.0
  9
$USERR2
 40
0.0
  9
$USERR3
 40
0.0
  9
$USERR4
 40
0.0
  9
$USERR5
 40
0.0
  9
$WORLDVIEW
 70
     1
  9
$SHADEDGE
 70
     3
  9
$SHADEDIF
 70
    70
  9
$TILEMODE
 70
     1
  9
$MAXACTVP
 70
    64
  9
$PINSBASE
 10
0.0
 20
0.0
 30
0.0
  9
$PLIMCHECK
 70
     0
  9
$PEXTMIN
 10
1.000000000000000E+20
 20
1.000000000000000E+20
 30
1.000000000000000E+20
  9
$PEXTMAX
 10
-1.000000000000000E+20
 20
-1.000000000000000E+20
 30
-1.000000000000000E+20
  9
$PLIMMIN
 10
0.0
 20
0.0
  9
$PLIMMAX
 10
12.0
 20
9.0
  9
$UNITMODE
 70
     0
  9
$VISRETAIN
 70
     1
  9
$PLINEGEN
 70
     0
  9
$PSLTSCALE
 70
     1
  9
$TREEDEPTH
 70
  3020
  9
$CMLSTYLE
  2
Standard
  9
$CMLJUST
 70
     0
  9
$CMLSCALE
 40
1.0
  9
$PROXYGRAPHICS
 70
     1
  9
$MEASUREMENT
 70
     0
  9
$CELWEIGHT
370
    -1
  9
$ENDCAPS
280
     0
  9
$JOINSTYLE
280
     0
  9
$LWDISPLAY
290
     0
  9
$INSUNITS
 70
     2
  9
$HYPERLINKBASE
  1

  9
$STYLESHEET
  1

  9
$XEDIT
290
     1
  9
$CEPSNTYPE
380
     0
  9
$PSTYLEMODE
290
     1
  9
$FINGERPRINTGUID
  2
{1ED4B004-3FD6-41E4-AD60-A927248D1AB6}
  9
$VERSIONGUID
  2
{355CA11E-F5D7-4B33-A607-B058C0F9598B}
  9
$EXTNAMES
290
     1
  9
$PSVPSCALE
 40
0.0
  9
$OLESTARTUP
290
     0
  0
ENDSEC
  0
SECTION
  2
CLASSES
  0
CLASS
  1
ACDBDICTIONARYWDFLT
  2
AcDbDictionaryWithDefault
  3
ObjectDBX Classes
 90
        0
280
     0
281
     0
  0
CLASS
  1
TABLESTYLE
  2
AcDbTableStyle
  3
ObjectDBX Classes
 90
     2047
280
     0
281
     0
  0
CLASS
  1
AECC_TREE_NODE
  2
AeccDbTreeNode
  3
AeccvBase10|Product Desc: Autodesk Civil 3D |Company: Autodesk,Inc. |WEB Address: www.autodesk.com
 90
     1023
280
     0
281
     0
  0
CLASS
  1
AECC_CLASS_NODE
  2
AeccDbClassNode
  3
AeccLand10|Product Desc: Autodesk Civil 3D |Company: Autodesk,Inc. |WEB Address: www.autodesk.com
 90
     1023
280
     0
281
     0
  0
CLASS
  1
AECC_ROOT_SETTINGS_NODE
  2
AeccDbRootSettingsNode
  3
AeccvBase10|Product Desc: Autodesk Civil 3D |Company: Autodesk,Inc. |WEB Address: www.autodesk.com
 90
     1023
280
     0
281
     0
  0
CLASS
  1
AEC_VARS_DWG_SETUP
  2
AecDbVarsDwgSetup
  3
AecBase40|Product Desc: Autodesk Architectural Desktop 2005 |Company: Autodesk,Inc. |WEB Address: www.autodesk.com
 90
      129
280
     0
281
     0
  0
CLASS
  1
DMMAPMANAGER
  2
AcMapDMMapManager
  3
AcMapDisplayManagement
 90
     1024
280
     0
281
     0
  0
CLASS
  1
DMSTYLELIBRARY
  2
AcMapDMStyleLibrary
  3
AcMapDisplayManagement
 90
     1024
280
     0
281
     0
  0
CLASS
  1
DMMAP
  2
AcMapDMMap
  3
AcMapDisplayManagement
 90
     1024
280
     0
281
     0
  0
CLASS
  1
DMBASEELEMENT
  2
AcMapDMBaseElement
  3
AcMapDisplayManagement
 90
     1024
280
     0
281
     0
  0
CLASS
  1
DMDEFAULTSTYLE
  2
AcMapDMDefaultStyle
  3
AcMapDisplayManagement
 90
     1024
280
     0
281
     0
  0
CLASS
  1
DMSTYLEREFERENCE
  2
AcMapDMStyleReference
  3
AcMapDisplayManagement
 90
     1024
280
     0
281
     0
  0
CLASS
  1
DMSTYLECATEGORY
  2
AcMapDMStyleCategory
  3
AcMapDisplayManagement
 90
     1024
280
     0
281
     0
  0
CLASS
  1
AECC_SETTINGS_NODE
  2
AeccDbSettingsNode
  3
AeccvBase10|Product Desc: Autodesk Civil 3D |Company: Autodesk,Inc. |WEB Address: www.autodesk.com
 90
     1023
280
     0
281
     0
  0
CLASS
  1
AECC_PROFILE_VIEW_STYLE
  2
AeccDbGraphStyleProfile
  3
AeccLand10|Product Desc: Autodesk Civil 3D |Company: Autodesk,Inc. |WEB Address: www.autodesk.com
 90
      129
280
     0
281
     0
  0
CLASS
  1
AECC_PROFILE_VIEW_BAND_STYLE_SET
  2
AeccDbGraphProfileBandStyleSet
  3
AeccLand10|Product Desc: Autodesk Civil 3D |Company: Autodesk,Inc. |WEB Address: www.autodesk.com
 90
      129
280
     0
281
     0
  0
CLASS
  1
AECC_PROFILE_VIEW_DATA_BAND_STYLE
  2
AeccDbGraphStyleProfileDataBands
  3
AeccLand10|Product Desc: Autodesk Civil 3D |Company: Autodesk,Inc. |WEB Address: www.autodesk.com
 90
      129
280
     0
281
     0
  0
CLASS
  1
AECC_LABEL_NODE
  2
AeccDbLabelNode
  3
AeccLand10|Product Desc: Autodesk Civil 3D |Company: Autodesk,Inc. |WEB Address: www.autodesk.com
 90
     1023
280
     0
281
     0
  0
CLASS
  1
AECC_LABEL_COLLECTOR_STYLE
  2
AeccDbLabelStyleCollector
  3
AeccLand10|Product Desc: Autodesk Civil 3D |Company: Autodesk,Inc. |WEB Address: www.autodesk.com
 90
     1023
280
     0
281
     0
  0
CLASS
  1
AECC_LABEL_TEXT_STYLE
  2
AeccDbLabelStyleText
  3
AeccLand10|Product Desc: Autodesk Civil 3D |Company: Autodesk,Inc. |WEB Address: www.autodesk.com
 90
     1023
280
     0
281
     0
  0
CLASS
  1
AECC_PROFILE_VIEW_HORIZONTAL_GEOMETRY_BAND_STYLE
  2
AeccDbGraphStyleHorGeometryBands
  3
AeccLand10|Product Desc: Autodesk Civil 3D |Company: Autodesk,Inc. |WEB Address: www.autodesk.com
 90
      129
280
     0
281
     0
  0
CLASS
  1
AECC_PROFILE_VIEW_VERTICAL_GEOMETRY_BAND_STYLE
  2
AeccDbGraphStyleVertGeometryBands
  3
AeccLand10|Product Desc: Autodesk Civil 3D |Company: Autodesk,Inc. |WEB Address: www.autodesk.com
 90
      129
280
     0
281
     0
  0
CLASS
  1
AECC_LABEL_RADIAL_LINE_STYLE
  2
AeccDbLabelStyleRadialLine
  3
AeccLand10|Product Desc: Autodesk Civil 3D |Company: Autodesk,Inc. |WEB Address: www.autodesk.com
 90
     1023
280
     0
281
     0
  0
CLASS
  1
AECC_POINT_STYLE
  2
AeccDbPointStyle
  3
AeccLand10|Product Desc: Autodesk Civil 3D |Company: Autodesk,Inc. |WEB Address: www.autodesk.com
 90
      895
280
     0
281
     0
  0
CLASS
  1
AECC_PROFILE_LABEL_SET
  2
AeccDbVAlignStnLabelsDlgTemplate
  3
AeccLand10|Product Desc: Autodesk Civil 3D |Company: Autodesk,Inc. |WEB Address: www.autodesk.com
 90
     1023
280
     0
281
     0
  0
CLASS
  1
AECC_SECTION_VIEW_STYLE
  2
AeccDbGraphStyleCrossSection
  3
AeccLand10|Product Desc: Autodesk Civil 3D |Company: Autodesk,Inc. |WEB Address: www.autodesk.com
 90
      129
280
     0
281
     0
  0
CLASS
  1
AECC_SECTION_VIEW_BAND_STYLE_SET
  2
AeccDbGraphSectionBandStyleSet
  3
AeccLand10|Product Desc: Autodesk Civil 3D |Company: Autodesk,Inc. |WEB Address: www.autodesk.com
 90
      129
280
     0
281
     0
  0
CLASS
  1
AECC_SECTION_VIEW_DATA_BAND_STYLE
  2
AeccDbGraphStyleSectionDataBands
  3
AeccLand10|Product Desc: Autodesk Civil 3D |Company: Autodesk,Inc. |WEB Address: www.autodesk.com
 90
      129
280
     0
281
     0
  0
CLASS
  1
AECC_SECTION_LABEL_SET
  2
AeccDbSectionLabelsDlgTemplate
  3
AeccLand10|Product Desc: Autodesk Civil 3D |Company: Autodesk,Inc. |WEB Address: www.autodesk.com
 90
     1023
280
     0
281
     0
  0
CLASS
  1
AECC_ALIGNMENT_STYLE
  2
AeccDbAlignmentStyle
  3
AeccLand10|Product Desc: Autodesk Civil 3D |Company: Autodesk,Inc. |WEB Address: www.autodesk.com
 90
     1023
280
     0
281
     0
  0
CLASS
  1
AECC_LABEL_VECTOR_ARROW_STYLE
  2
AeccDbLabelStyleVectorArrow
  3
AeccLand10|Product Desc: Autodesk Civil 3D |Company: Autodesk,Inc. |WEB Address: www.autodesk.com
 90
     1023
280
     0
281
     0
  0
CLASS
  1
AECC_ALIGNMENT_LABEL_SET
  2
AeccDbAlignStnLabelsDlgTemplate
  3
AeccLand10|Product Desc: Autodesk Civil 3D |Company: Autodesk,Inc. |WEB Address: www.autodesk.com
 90
     1023
280
     0
281
     0
  0
CLASS
  1
AECC_SURFACE_STYLE
  2
AeccDbSurfaceStyle
  3
AeccLand10|Product Desc: Autodesk Civil 3D |Company: Autodesk,Inc. |WEB Address: www.autodesk.com
 90
      129
280
     0
281
     0
  0
CLASS
  1
AECC_LEGEND_TABLE_STYLE
  2
AeccDbLegendScheduleTableStyle
  3
AeccLand10|Product Desc: Autodesk Civil 3D |Company: Autodesk,Inc. |WEB Address: www.autodesk.com
 90
     1023
280
     0
281
     0
  0
CLASS
  1
AECC_SECTION_STYLE
  2
AeccDbSectionStyle
  3
AeccLand10|Product Desc: Autodesk Civil 3D |Company: Autodesk,Inc. |WEB Address: www.autodesk.com
 90
     1023
280
     0
281
     0
  0
CLASS
  1
AECC_GRADING_STYLE
  2
AeccDbGradingStyle
  3
AeccLand10|Product Desc: Autodesk Civil 3D |Company: Autodesk,Inc. |WEB Address: www.autodesk.com
 90
     1023
280
     0
281
     0
  0
CLASS
  1
AECC_GRADING_CRITERIA
  2
AeccDbGradingCriteria
  3
AeccLand10|Product Desc: Autodesk Civil 3D |Company: Autodesk,Inc. |WEB Address: www.autodesk.com
 90
     1023
280
     0
281
     0
  0
CLASS
  1
AECC_PARCEL_STYLE
  2
AeccDbParcelStyle
  3
AeccLand10|Product Desc: Autodesk Civil 3D |Company: Autodesk,Inc. |WEB Address: www.autodesk.com
 90
      129
280
     0
281
     0
  0
CLASS
  1
AECC_SAMPLE_LINE_GROUP_STYLE
  2
AeccDbSampleLineGroupStyle
  3
AeccLand10|Product Desc: Autodesk Civil 3D |Company: Autodesk,Inc. |WEB Address: www.autodesk.com
 90
      129
280
     0
281
     0
  0
CLASS
  1
AECC_SHEET_STYLE
  2
AeccDbSheetStyle
  3
AeccLand10|Product Desc: Autodesk Civil 3D |Company: Autodesk,Inc. |WEB Address: www.autodesk.com
 90
      129
280
     0
281
     0
  0
CLASS
  1
AECC_SAMPLE_LINE_STYLE
  2
AeccDbSampleLineStyle
  3
AeccLand10|Product Desc: Autodesk Civil 3D |Company: Autodesk,Inc. |WEB Address: www.autodesk.com
 90
     1023
280
     0
281
     0
  0
CLASS
  1
AECC_PROFILE_STYLE
  2
AeccDbVAlignmentStyle
  3
AeccLand10|Product Desc: Autodesk Civil 3D |Company: Autodesk,Inc. |WEB Address: www.autodesk.com
 90
     1023
280
     0
281
     0
  0
CLASS
  1
AECC_STATION_FORMAT_STYLE
  2
AeccDbStationFormatStyle
  3
AeccLand10|Product Desc: Autodesk Civil 3D |Company: Autodesk,Inc. |WEB Address: www.autodesk.com
 90
     1023
280
     0
281
     0
  0
CLASS
  1
AECC_TABLE_STYLE
  2
AeccDbScheduleTableStyle
  3
AeccLand10|Product Desc: Autodesk Civil 3D |Company: Autodesk,Inc. |WEB Address: www.autodesk.com
 90
     1023
280
     0
281
     0
  0
CLASS
  1
AECC_GRADING_CRITERIA_SET
  2
AeccDbGradingCriteriaSet
  3
AeccLand10|Product Desc: Autodesk Civil 3D |Company: Autodesk,Inc. |WEB Address: www.autodesk.com
 90
     1023
280
     0
281
     0
  0
CLASS
  1
AECC_FORMAT_MANAGER_OBJECT
  2
AeccDbFormatManagerObject
  3
AeccLand10|Product Desc: Autodesk Civil 3D |Company: Autodesk,Inc. |WEB Address: www.autodesk.com
 90
     1023
280
     0
281
     0
  0
CLASS
  1
AECC_POINT_DESCRIPTION_KEY_SET_NODE
  2
AeccDbPointDescKeySetsNode
  3
AeccvBase10|Product Desc: Autodesk Civil 3D |Company: Autodesk,Inc. |WEB Address: www.autodesk.com
 90
     1023
280
     0
281
     0
  0
CLASS
  1
DICTIONARYVAR
  2
AcDbDictionaryVar
  3
ObjectDBX Classes
 90
        0
280
     0
281
     0
  0
CLASS
  1
ACDBPLACEHOLDER
  2
AcDbPlaceHolder
  3
ObjectDBX Classes
 90
        0
280
     0
281
     0
  0
CLASS
  1
LAYOUT
  2
AcDbLayout
  3
ObjectDBX Classes
 90
        0
280
     0
281
     0
  0
ENDSEC
  0
SECTION
  2
TABLES
  0
TABLE
  2
VPORT
  5
8
330
0
100
AcDbSymbolTable
 70
     2
  0
VPORT
  5
72C
330
8
100
AcDbSymbolTableRecord
100
AcDbViewportTableRecord
  2
*Active
 70
     0
 10
0.0
 20
0.0
 11
1.0
 21
1.0
 12
46199.88031240946
 22
16470.04411397175
 13
0.0
 23
0.0
 14
1.0
 24
1.0
 15
0.0
 25
0.0
 16
0.0
 26
0.0
 36
1.0
 17
0.0
 27
0.0
 37
0.0
 40
83893.15366172924
 41
1.937399678972712
 42
50.0
 43
0.0
 44
0.0
 50
0.0
 51
0.0
 71
     0
 72
   100
 73
     1
 74
     1
 75
     0
 76
     0
 77
     0
 78
     0
281
     0
 65
     1
110
0.0
120
0.0
130
0.0
111
1.0
121
0.0
131
0.0
112
0.0
122
1.0
132
0.0
 79
     0
146
0.0
  0
ENDTAB
  0
TABLE
  2
LTYPE
  5
5
330
0
100
AcDbSymbolTable
 70
    35
  0
LTYPE
  5
13
330
5
100
AcDbSymbolTableRecord
100
AcDbLinetypeTableRecord
  2
ByBlock
 70
     0
  3

 72
    65
 73
     0
 40
0.0
  0
LTYPE
  5
14
330
5
100
AcDbSymbolTableRecord
100
AcDbLinetypeTableRecord
  2
ByLayer
 70
     0
  3

 72
    65
 73
     0
 40
0.0
  0
LTYPE
  5
15
330
5
100
AcDbSymbolTableRecord
100
AcDbLinetypeTableRecord
  2
CONTINUOUS
 70
     0
  3
実線
 72
    65
 73
     0
 40
0.0
  0
LTYPE
  5
26
330
5
100
AcDbSymbolTableRecord
100
AcDbLinetypeTableRecord
  2
DASHED1
 70
     0
  3
--  --  --  --  --  --  --  --  
 72
    65
 73
     2
 40
2.5
 49
1.25
 74
     0
 49
-1.25
 74
     0
  0
LTYPE
  5
27
330
5
100
AcDbSymbolTableRecord
100
AcDbLinetypeTableRecord
  2
DASHED2
 70
     0
  3
----    ----    ----    ----    
 72
    65
 73
     2
 40
5.0
 49
2.5
 74
     0
 49
-2.5
 74
     0
  0
LTYPE
  5
28
330
5
100
AcDbSymbolTableRecord
100
AcDbLinetypeTableRecord
  2
DASHED3
 70
     0
  3
------  ------  ------  ------  
 72
    65
 73
     2
 40
5.0
 49
3.75
 74
     0
 49
-1.25
 74
     0
  0
LTYPE
  5
29
330
5
100
AcDbSymbolTableRecord
100
AcDbLinetypeTableRecord
  2
CENTER1
 70
     0
  3
----- - ----- - ----- - ----- - 
 72
    65
 73
     4
 40
10.0
 49
6.25
 74
     0
 49
-1.25
 74
     0
 49
1.25
 74
     0
 49
-1.25
 74
     0
  0
LTYPE
  5
2A
330
5
100
AcDbSymbolTableRecord
100
AcDbLinetypeTableRecord
  2
CENTER2
 70
     0
  3
----------  --  ----------  --  
 72
    65
 73
     4
 40
20.0
 49
12.5
 74
     0
 49
-2.5
 74
     0
 49
2.5
 74
     0
 49
-2.5
 74
     0
  0
LTYPE
  5
2B
330
5
100
AcDbSymbolTableRecord
100
AcDbLinetypeTableRecord
  2
PHANTOM1
 70
     0
  3
--- - - --- - - --- - - --- - - 
 72
    65
 73
     6
 40
10.0
 49
3.25
 74
     0
 49
-1.25
 74
     0
 49
1.25
 74
     0
 49
-1.25
 74
     0
 49
1.25
 74
     0
 49
-1.25
 74
     0
  0
LTYPE
  5
2C
330
5
100
AcDbSymbolTableRecord
100
AcDbLinetypeTableRecord
  2
PHANTOM2
 70
     0
  3
--------  -  -  --------  -  -  
 72
    65
 73
     6
 40
20.0
 49
10.0
 74
     0
 49
-2.5
 74
     0
 49
1.25
 74
     0
 49
-2.5
 74
     0
 49
1.25
 74
     0
 49
-2.5
 74
     0
  0
LTYPE
  5
2D
330
5
100
AcDbSymbolTableRecord
100
AcDbLinetypeTableRecord
  2
DOT
 70
     0
  3
-   -   -   -   -   -   -   -   
 72
    65
 73
     2
 40
2.5
 49
0.625
 74
     0
 49
-1.875
 74
     0
  0
LTYPE
  5
2E
330
5
100
AcDbSymbolTableRecord
100
AcDbLinetypeTableRecord
  2
DUMMY
 70
     0
  3
ダミー
 72
    65
 73
     0
 40
0.0
  0
LTYPE
  5
2F
330
5
100
AcDbSymbolTableRecord
100
AcDbLinetypeTableRecord
  2
RAND1
 70
     0
  3
ランダム線1
 72
    65
 73
     4
 40
10.0
 49
1.0
 74
     0
 49
-2.0
 74
     0
 49
3.0
 74
     0
 49
-4.0
 74
     0
  0
LTYPE
  5
30
330
5
100
AcDbSymbolTableRecord
100
AcDbLinetypeTableRecord
  2
RAND2
 70
     0
  3
ランダム線2
 72
    65
 73
     4
 40
14.0
 49
2.0
 74
     0
 49
-3.0
 74
     0
 49
4.0
 74
     0
 49
-5.0
 74
     0
  0
LTYPE
  5
31
330
5
100
AcDbSymbolTableRecord
100
AcDbLinetypeTableRecord
  2
RAND3
 70
     0
  3
ランダム線3
 72
    65
 73
     4
 40
18.0
 49
3.0
 74
     0
 49
-4.0
 74
     0
 49
5.0
 74
     0
 49
-6.0
 74
     0
  0
LTYPE
  5
32
330
5
100
AcDbSymbolTableRecord
100
AcDbLinetypeTableRecord
  2
RAND4
 70
     0
  3
ランダム線4
 72
    65
 73
     4
 40
22.0
 49
4.0
 74
     0
 49
-5.0
 74
     0
 49
6.0
 74
     0
 49
-7.0
 74
     0
  0
LTYPE
  5
33
330
5
100
AcDbSymbolTableRecord
100
AcDbLinetypeTableRecord
  2
RAND5
 70
     0
  3
ランダム線5
 72
    65
 73
     4
 40
26.0
 49
5.0
 74
     0
 49
-6.0
 74
     0
 49
7.0
 74
     0
 49
-8.0
 74
     0
  0
LTYPE
  5
34
330
5
100
AcDbSymbolTableRecord
100
AcDbLinetypeTableRecord
  2
LONG1
 70
     0
  3
----------  --  ----------  --  
 72
    65
 73
     4
 40
40.0
 49
32.5
 74
     0
 49
-2.5
 74
     0
 49
2.5
 74
     0
 49
-2.5
 74
     0
  0
LTYPE
  5
35
330
5
100
AcDbSymbolTableRecord
100
AcDbLinetypeTableRecord
  2
LONG2
 70
     0
  3
--------  -  -  --------  -  -  
 72
    65
 73
     6
 40
40.0
 49
30.0
 74
     0
 49
-2.5
 74
     0
 49
1.25
 74
     0
 49
-2.5
 74
     0
 49
1.25
 74
     0
 49
-2.5
 74
     0
  0
LTYPE
  5
36
330
5
100
AcDbSymbolTableRecord
100
AcDbLinetypeTableRecord
  2
LONG3
 70
     0
  3
+++++++++++++++..+++++++++++++++
 72
    65
 73
     2
 40
40.0
 49
37.5
 74
     0
 49
-2.5
 74
     0
  0
LTYPE
  5
37
330
5
100
AcDbSymbolTableRecord
100
AcDbLinetypeTableRecord
  2
LONG4
 70
     0
  3
+++++++++++++++..+++++++++++++++
 72
    65
 73
     2
 40
80.0
 49
75.0
 74
     0
 49
-5.0
 74
     0
  0
LTYPE
  5
38
330
5
100
AcDbSymbolTableRecord
100
AcDbLinetypeTableRecord
  2
LONG5
 70
     0
  3
----------  --  ----------  --  
 72
    65
 73
     4
 40
60.0
 49
37.5
 74
     0
 49
-7.5
 74
     0
 49
7.5
 74
     0
 49
-7.5
 74
     0
  0
LTYPE
  5
39
330
5
100
AcDbSymbolTableRecord
100
AcDbLinetypeTableRecord
  2
DASHED
 70
     0
  3
-------   -------------   ------
 72
    65
 73
     2
 40
7.5
 49
6.0
 74
     0
 49
-1.5
 74
     0
  0
LTYPE
  5
3A
330
5
100
AcDbSymbolTableRecord
100
AcDbLinetypeTableRecord
  2
DASHED_SPACED
 70
     0
  3
----        --------        ----
 72
    65
 73
     2
 40
12.0
 49
6.0
 74
     0
 49
-6.0
 74
     0
  0
LTYPE
  5
3B
330
5
100
AcDbSymbolTableRecord
100
AcDbLinetypeTableRecord
  2
LONG_DASHED_DOTTED
 70
     0
  3
------------- --- --------------
 72
    65
 73
     4
 40
15.25
 49
12.0
 74
     0
 49
-1.5
 74
     0
 49
0.25
 74
     0
 49
-1.5
 74
     0
  0
LTYPE
  5
3C
330
5
100
AcDbSymbolTableRecord
100
AcDbLinetypeTableRecord
  2
LONG_DASHED_DOUBLE-DOTTED
 70
     0
  3
----------- --- --- ------------
 72
    65
 73
     6
 40
17.0
 49
12.0
 74
     0
 49
-1.5
 74
     0
 49
0.25
 74
     0
 49
-1.5
 74
     0
 49
0.25
 74
     0
 49
-1.5
 74
     0
  0
LTYPE
  5
3D
330
5
100
AcDbSymbolTableRecord
100
AcDbLinetypeTableRecord
  2
LONG_DASHED_TRIPLICATE-DOTTED
 70
     0
  3
--------- --- --- --- ----------
 72
    65
 73
     8
 40
18.75
 49
12.0
 74
     0
 49
-1.5
 74
     0
 49
0.25
 74
     0
 49
-1.5
 74
     0
 49
0.25
 74
     0
 49
-1.5
 74
     0
 49
0.25
 74
     0
 49
-1.5
 74
     0
  0
LTYPE
  5
3E
330
5
100
AcDbSymbolTableRecord
100
AcDbLinetypeTableRecord
  2
DOTTED
 70
     0
  3
   -       -       -       -    
 72
    65
 73
     2
 40
1.75
 49
0.25
 74
     0
 49
-1.5
 74
     0
  0
LTYPE
  5
3F
330
5
100
AcDbSymbolTableRecord
100
AcDbLinetypeTableRecord
  2
CHAIN
 70
     0
  3
-------------- -- --------------
 72
    65
 73
     4
 40
18.5
 49
12.0
 74
     0
 49
-1.5
 74
     0
 49
3.5
 74
     0
 49
-1.5
 74
     0
  0
LTYPE
  5
40
330
5
100
AcDbSymbolTableRecord
100
AcDbLinetypeTableRecord
  2
CHAIN_DOUBLE_DASH
 70
     0
  3
------------ -- -- -------------
 72
    65
 73
     6
 40
23.5
 49
12.0
 74
     0
 49
-1.5
 74
     0
 49
3.5
 74
     0
 49
-1.5
 74
     0
 49
3.5
 74
     0
 49
-1.5
 74
     0
  0
LTYPE
  5
41
330
5
100
AcDbSymbolTableRecord
100
AcDbLinetypeTableRecord
  2
DASHED_DOTTED
 70
     0
  3
-----------     -     ----------
 72
    65
 73
     4
 40
9.25
 49
6.0
 74
     0
 49
-1.5
 74
     0
 49
0.25
 74
     0
 49
-1.5
 74
     0
  0
LTYPE
  5
42
330
5
100
AcDbSymbolTableRecord
100
AcDbLinetypeTableRecord
  2
DOUBLE-DASHED_DOTTED
 70
     0
  3
------   -----------   -   -----
 72
    65
 73
     6
 40
16.75
 49
6.0
 74
     0
 49
-1.5
 74
     0
 49
6.0
 74
     0
 49
-1.5
 74
     0
 49
0.25
 74
     0
 49
-1.5
 74
     0
  0
LTYPE
  5
43
330
5
100
AcDbSymbolTableRecord
100
AcDbLinetypeTableRecord
  2
DASHED_DOUBLE-DOTTED
 70
     0
  3
---------    -    -    ---------
 72
    65
 73
     6
 40
11.0
 49
6.0
 74
     0
 49
-1.5
 74
     0
 49
0.25
 74
     0
 49
-1.5
 74
     0
 49
0.25
 74
     0
 49
-1.5
 74
     0
  0
LTYPE
  5
44
330
5
100
AcDbSymbolTableRecord
100
AcDbLinetypeTableRecord
  2
DOUBLE-DASHED_DOUBLE-DOTTED
 70
     0
  3
-----   ---------   -   -   ----
 72
    65
 73
     8
 40
18.5
 49
6.0
 74
     0
 49
-1.5
 74
     0
 49
6.0
 74
     0
 49
-1.5
 74
     0
 49
0.25
 74
     0
 49
-1.5
 74
     0
 49
0.25
 74
     0
 49
-1.5
 74
     0
  0
LTYPE
  5
45
330
5
100
AcDbSymbolTableRecord
100
AcDbLinetypeTableRecord
  2
DASHED_TRIPLICATE-DOTTED
 70
     0
  3
-------    -    -    -    ------
 72
    65
 73
     8
 40
12.75
 49
6.0
 74
     0
 49
-1.5
 74
     0
 49
0.25
 74
     0
 49
-1.5
 74
     0
 49
0.25
 74
     0
 49
-1.5
 74
     0
 49
0.25
 74
     0
 49
-1.5
 74
     0
  0
LTYPE
  5
46
330
5
100
AcDbSymbolTableRecord
100
AcDbLinetypeTableRecord
  2
DOUBLE-DASHED_TRIPLICATE-DOTTED
 70
     0
  3
-----  ---------  -  -  -  -----
 72
    65
 73
    10
 40
20.25
 49
6.0
 74
     0
 49
-1.5
 74
     0
 49
6.0
 74
     0
 49
-1.5
 74
     0
 49
0.25
 74
     0
 49
-1.5
 74
     0
 49
0.25
 74
     0
 49
-1.5
 74
     0
 49
0.25
 74
     0
 49
-1.5
 74
     0
  0
LTYPE
  5
47
330
5
100
AcDbSymbolTableRecord
100
AcDbLinetypeTableRecord
  2
UNDEFINED
 70
     0
  3
--------------------------------
 72
    65
 73
     0
 40
0.0
  0
ENDTAB
  0
TABLE
  2
LAYER
  5
2
330
0
100
AcDbSymbolTable
 70
     8
  0
LAYER
  5
10
330
2
100
AcDbSymbolTableRecord
100
AcDbLayerTableRecord
  2
0
 70
     0
 62
     7
  6
CONTINUOUS
370
    -3
390
F
  0
LAYER
  5
49
330
2
100
AcDbSymbolTableRecord
100
AcDbLayerTableRecord
  2
_0-0_
 70
     0
 62
     7
  6
CONTINUOUS
370
    -3
390
F
  0
LAYER
  5
4A
330
2
100
AcDbSymbolTableRecord
100
AcDbLayerTableRecord
  2
_0-2_
 70
     0
 62
     7
  6
CONTINUOUS
370
    -3
390
F
  0
LAYER
  5
4B
330
2
100
AcDbSymbolTableRecord
100
AcDbLayerTableRecord
  2
_0-3_
 70
     0
 62
     7
  6
CONTINUOUS
370
    -3
390
F
  0
LAYER
  5
4C
330
2
100
AcDbSymbolTableRecord
100
AcDbLayerTableRecord
  2
_0-6_
 70
     0
 62
     7
  6
CONTINUOUS
370
    -3
390
F
  0
LAYER
  5
4D
330
2
100
AcDbSymbolTableRecord
100
AcDbLayerTableRecord
  2
_0-9_
 70
     0
 62
     7
  6
CONTINUOUS
370
    -3
390
F
  0
LAYER
  5
4E
330
2
100
AcDbSymbolTableRecord
100
AcDbLayerTableRecord
  2
_0-F_
 70
     0
 62
     7
  6
CONTINUOUS
370
    -3
390
F
  0
LAYER
  5
4F
330
2
100
AcDbSymbolTableRecord
100
AcDbLayerTableRecord
  2
ADD_LINE
 70
     0
 62
     7
  6
CONTINUOUS
370
    -3
390
F
  0
ENDTAB
  0
TABLE
  2
STYLE
  5
3
330
0
100
AcDbSymbolTable
 70
     2
  0
STYLE
  5
11
330
3
100
AcDbSymbolTableRecord
100
AcDbTextStyleTableRecord
  2
STANDARD
 70
     0
 40
0.0
 41
1.0
 50
0.0
 71
     0
 42
0.2
  3
MS Gothic.ttf
  4

1001
ACAD
1000
MS Gothic
1071
    32817
  0
STYLE
  5
48
330
3
100
AcDbSymbolTableRecord
100
AcDbTextStyleTableRecord
  2
TATEGAKI
 70
     4
 40
0.0
 41
1.0
 50
0.0
 71
     0
 42
1.0
  3
txt
  4
bigfont.shx
  0
ENDTAB
  0
TABLE
  2
VIEW
  5
6
330
0
100
AcDbSymbolTable
 70
     0
  0
ENDTAB
  0
TABLE
  2
UCS
  5
7
330
0
100
AcDbSymbolTable
 70
     0
  0
ENDTAB
  0
TABLE
  2
APPID
  5
9
330
0
100
AcDbSymbolTable
 70
     3
  0
APPID
  5
12
330
9
100
AcDbSymbolTableRecord
100
AcDbRegAppTableRecord
  2
ACAD
 70
     0
  0
APPID
  5
723
330
9
100
AcDbSymbolTableRecord
100
AcDbRegAppTableRecord
  2
DCO15
 70
     0
  0
APPID
  5
725
330
9
100
AcDbSymbolTableRecord
100
AcDbRegAppTableRecord
  2
ADE
 70
     0
  0
ENDTAB
  0
TABLE
  2
DIMSTYLE
  5
A
330
0
100
AcDbSymbolTable
 70
     1
100
AcDbDimStyleTable
 71
     0
  0
DIMSTYLE
105
43D
330
A
100
AcDbSymbolTableRecord
100
AcDbDimStyleTableRecord
  2
Standard
 70
     0
340
11
  0
ENDTAB
  0
TABLE
  2
BLOCK_RECORD
  5
1
330
0
100
AcDbSymbolTable
 70
     0
  0
BLOCK_RECORD
  5
22
330
1
100
AcDbSymbolTableRecord
100
AcDbBlockTableRecord
  2
*Model_Space
340
25
  0
BLOCK_RECORD
  5
1E
330
1
100
AcDbSymbolTableRecord
100
AcDbBlockTableRecord
  2
*Paper_Space
340
21
  0
ENDTAB
  0
ENDSEC
  0
SECTION
  2
BLOCKS
  0
BLOCK
  5
23
330
22
100
AcDbEntity
  8
0
100
AcDbBlockBegin
  2
*Model_Space
 70
     0
 10
0.0
 20
0.0
 30
0.0
  3
*Model_Space
  1

  0
ENDBLK
  5
24
330
22
100
AcDbEntity
  8
0
100
AcDbBlockEnd
  0
BLOCK
  5
1F
330
1E
100
AcDbEntity
 67
     1
  8
0
100
AcDbBlockBegin
  2
*Paper_Space
 70
     0
 10
0.0
 20
0.0
 30
0.0
  3
*Paper_Space
  1

  0
ENDBLK
  5
20
330
1E
100
AcDbEntity
 67
     1
  8
0
100
AcDbBlockEnd
  0
ENDSEC
  0
SECTION
  2
ENTITIES
  0
LINE
  5
53
330
22
100
AcDbEntity
  8
_0-F_
  6
Continuous
 62
     2
100
AcDbLine
 10
3499.999175200591
 20
2918.837263777449
 30
0.0
 11
3499.999175200591
 21
27918.83808857686
 31
0.0
  0
LINE
  5
54
330
22
100
AcDbEntity
  8
_0-F_
  6
Continuous
 62
     2
100
AcDbLine
 10
37999.9991752006
 20
26918.83726377744
 30
0.0
 11
37999.9991752006
 21
27918.83808857686
 31
0.0
  0
LINE
  5
55
330
22
100
AcDbEntity
  8
_0-F_
  6
Continuous
 62
     2
100
AcDbLine
 10
37999.9991752006
 20
26918.83726377744
 30
0.0
 11
40500.0
 21
26918.83726377744
 31
0.0
  0
LINE
  5
56
330
22
100
AcDbEntity
  8
_0-F_
  6
Continuous
 62
     2
100
AcDbLine
 10
3499.999175200591
 20
27918.83808857686
 30
0.0
 11
40500.0
 21
27918.83808857686
 31
0.0
  0
LINE
  5
57
330
22
100
AcDbEntity
  8
_0-F_
  6
Continuous
 62
     2
100
AcDbLine
 10
40500.0
 20
2918.837263777449
 30
0.0
 11
3499.999175200591
 21
2918.837263777449
 31
0.0
  0
LINE
  5
58
330
22
100
AcDbEntity
  8
_0-F_
  6
Continuous
 62
     2
100
AcDbLine
 10
40500.0
 20
27918.83808857686
 30
0.0
 11
40500.0
 21
2918.837263777449
 31
0.0
  0
TEXT
  5
59
330
22
100
AcDbEntity
  8
_0-F_
 62
     7
100
AcDbText
 10
38545.0766073691
 20
27185.69863809122
 30
0.0
 40
400.0
  1
１３Ｍ
100
AcDbText
  0
LINE
  5
5A
330
22
100
AcDbEntity
  8
_0-9_
  6
Continuous
 62
     4
100
AcDbLine
 10
23850.3776452331
 20
6149.714395988897
 30
0.0
 11
30850.38094443074
 21
6149.714395988897
 31
0.0
  0
LINE
  5
5B
330
22
100
AcDbEntity
  8
_0-0_
  6
Continuous
 62
     7
100
AcDbLine
 10
9740.376622481836
 20
24731.35757786707
 30
0.0
 11
9960.375368786733
 21
24731.35757786707
 31
0.0
  0
LINE
  5
5C
330
22
100
AcDbEntity
  8
_0-0_
  6
Continuous
 62
     3
100
AcDbLine
 10
9653.438640798979
 20
11731.35799026677
 30
0.0
 11
6626.875975839102
 21
11731.35799026677
 31
0.0
  0
LINE
  5
5D
330
22
100
AcDbEntity
  8
_0-0_
  6
Continuous
 62
     4
100
AcDbLine
 10
5850.377645233105
 20
8731.359227465883
 30
0.0
 11
5850.377645233105
 21
24731.35757786707
 31
0.0
  0
LINE
  5
5E
330
22
100
AcDbEntity
  8
_0-0_
  6
Continuous
 62
     7
100
AcDbLine
 10
9825.377150353455
 20
24515.01599214072
 30
0.0
 11
9825.377150353455
 21
24615.01632206048
 31
0.0
  0
LINE
  5
5F
330
22
100
AcDbEntity
  8
_0-0_
  6
Continuous
 62
     7
100
AcDbLine
 10
9825.377150353455
 20
24615.01632206048
 30
0.0
 11
9875.374840915114
 21
24615.01632206048
 31
0.0
  0
LINE
  5
60
330
22
100
AcDbEntity
  8
_0-0_
  6
Continuous
 62
     7
100
AcDbLine
 10
9875.374840915114
 20
24615.01632206048
 30
0.0
 11
9875.374840915114
 21
24515.01599214072
 31
0.0
  0
LINE
  5
61
330
22
100
AcDbEntity
  8
_0-0_
  6
Continuous
 62
     7
100
AcDbLine
 10
9875.374840915114
 20
24515.01599214072
 30
0.0
 11
9825.377150353455
 21
24515.01599214072
 31
0.0
  0
LINE
  5
62
330
22
100
AcDbEntity
  8
_0-0_
  6
Continuous
 62
     7
100
AcDbLine
 10
10063.83243302871
 20
24595.03308198446
 30
0.0
 11
10063.83243302871
 21
24705.02998073869
 31
0.0
  0
LINE
  5
63
330
22
100
AcDbEntity
  8
_0-0_
  6
Continuous
 62
     7
100
AcDbLine
 10
10063.83243302871
 20
24705.02998073869
 30
0.0
 11
10263.83309286823
 21
24705.02998073869
 31
0.0
  0
LINE
  5
64
330
22
100
AcDbEntity
  8
_0-0_
  6
Continuous
 62
     7
100
AcDbLine
 10
9144.234704196362
 20
11231.35634066795
 30
0.0
 11
9144.234704196362
 21
11431.35576330837
 31
0.0
  0
LINE
  5
65
330
22
100
AcDbEntity
  8
_0-0_
  6
Continuous
 62
     7
100
AcDbLine
 10
10556.5172870722
 20
11431.35576330837
 30
0.0
 11
10556.5172870722
 21
11231.35634066795
 31
0.0
  0
LINE
  5
66
330
22
100
AcDbEntity
  8
_0-0_
  6
Continuous
 62
     7
100
AcDbLine
 10
9625.376490513929
 20
11306.35782530688
 30
0.0
 11
9625.376490513929
 21
11356.35799026677
 31
0.0
  0
LINE
  5
67
330
22
100
AcDbEntity
  8
_0-0_
  6
Continuous
 62
     7
100
AcDbLine
 10
9625.376490513929
 20
11356.35799026677
 30
0.0
 11
10075.37550075464
 21
11356.35799026677
 31
0.0
  0
LINE
  5
68
330
22
100
AcDbEntity
  8
_0-0_
  6
Continuous
 62
     7
100
AcDbLine
 10
10075.37550075464
 20
11356.35799026677
 30
0.0
 11
10075.37550075464
 21
11306.35782530688
 31
0.0
  0
LINE
  5
69
330
22
100
AcDbEntity
  8
_0-0_
  6
Continuous
 62
     7
100
AcDbLine
 10
10075.37550075464
 20
11306.35782530688
 30
0.0
 11
9625.376490513929
 21
11306.35782530688
 31
0.0
  0
LINE
  5
6A
330
22
100
AcDbEntity
  8
_0-0_
  6
Continuous
 62
     7
100
AcDbLine
 10
9688.377143755062
 20
24575.01520033329
 30
0.0
 11
9688.377143755062
 21
24675.01553025305
 31
0.0
  0
LINE
  5
6B
330
22
100
AcDbEntity
  8
_0-0_
  6
Continuous
 62
     7
100
AcDbLine
 10
9688.377143755062
 20
24675.01553025305
 30
0.0
 11
10012.37484751351
 21
24675.01553025305
 31
0.0
  0
LINE
  5
6C
330
22
100
AcDbEntity
  8
_0-0_
  6
Continuous
 62
     7
100
AcDbLine
 10
10012.37484751351
 20
24575.01520033329
 30
0.0
 11
10012.37484751351
 21
24675.01553025305
 31
0.0
  0
LINE
  5
6D
330
22
100
AcDbEntity
  8
_0-0_
  6
Continuous
 62
     7
100
AcDbLine
 10
9825.377150353455
 20
24575.01520033329
 30
0.0
 11
9688.377143755062
 21
24575.01520033329
 31
0.0
  0
LINE
  5
6E
330
22
100
AcDbEntity
  8
_0-0_
  6
Continuous
 62
     7
100
AcDbLine
 10
10012.37484751351
 20
24575.01520033329
 30
0.0
 11
9875.374840915114
 21
24575.01520033329
 31
0.0
  0
LINE
  5
6F
330
22
100
AcDbEntity
  8
_0-0_
  6
Continuous
 62
     7
100
AcDbLine
 10
10263.83309286823
 20
24705.02998073869
 30
0.0
 11
10263.83309286823
 21
24595.03308198446
 31
0.0
  0
LINE
  5
70
330
22
100
AcDbEntity
  8
_0-0_
  6
Continuous
 62
     7
100
AcDbLine
 10
9688.377143755062
 20
24625.01783969139
 30
0.0
 11
10012.37484751351
 21
24625.01783969139
 31
0.0
  0
LINE
  5
71
330
22
100
AcDbEntity
  8
_0-0_
  6
Continuous
 62
     6
100
AcDbLine
 10
10297.63832143665
 20
11880.99227420891
 30
0.0
 11
10501.38522019087
 21
11880.99227420891
 31
0.0
  0
LINE
  5
72
330
22
100
AcDbEntity
  8
_0-0_
  6
Continuous
 62
     6
100
AcDbLine
 10
10292.15505496705
 20
11780.99194428915
 30
0.0
 11
10496.66406837499
 21
11780.99194428915
 31
0.0
  0
LINE
  5
73
330
22
100
AcDbEntity
  8
_0-0_
  6
Continuous
 62
     7
100
AcDbLine
 10
10263.83309286823
 20
24695.03341190423
 30
0.0
 11
11157.39767796114
 21
24695.03341190423
 31
0.0
  0
LINE
  5
74
330
22
100
AcDbEntity
  8
_0-2_
  6
Continuous
 62
     7
100
AcDbLine
 10
11157.39767796114
 20
24695.03341190423
 30
0.0
 11
12198.72342753884
 21
24695.03341190423
 31
0.0
  0
LINE
  5
75
330
22
100
AcDbEntity
  8
ADD_LINE
  6
DOT
 62
     7
100
AcDbLine
 10
9850.373521236056
 20
6148.388118539575
 30
0.0
 11
22303.84906098479
 21
6148.388118539575
 31
0.0
  0
LINE
  5
76
330
22
100
AcDbEntity
  8
_0-9_
  6
Continuous
 62
     4
100
AcDbLine
 10
9850.375995634284
 20
6149.714395988897
 30
0.0
 11
23850.37269643665
 21
6149.714395988897
 31
0.0
  0
LINE
  5
77
330
22
100
AcDbEntity
  8
_0-9_
  6
Continuous
 62
     4
100
AcDbLine
 10
9850.375995634284
 20
7231.359227465884
 30
0.0
 11
9850.375995634284
 21
6149.714395988897
 31
0.0
  0
LINE
  5
78
330
22
100
AcDbEntity
  8
_0-9_
  6
Continuous
 62
     4
100
AcDbLine
 10
16850.37929483192
 20
7231.359227465884
 30
0.0
 11
16850.37929483192
 21
6149.714395988897
 31
0.0
  0
LINE
  5
79
330
22
100
AcDbEntity
  8
_0-9_
  6
Continuous
 62
     4
100
AcDbLine
 10
23850.37269643665
 20
7231.357990266771
 30
0.0
 11
23850.37269643665
 21
6149.714395988897
 31
0.0
  0
LINE
  5
7A
330
22
100
AcDbEntity
  8
_0-9_
  6
Continuous
 62
     4
100
AcDbLine
 10
16850.36692284079
 20
7231.357990266771
 30
0.0
 11
16850.36692284079
 21
6149.714395988897
 31
0.0
  0
LINE
  5
7B
330
22
100
AcDbEntity
  8
_0-9_
  6
Continuous
 62
     4
100
AcDbLine
 10
30850.36609804138
 20
7231.357990266771
 30
0.0
 11
30850.36609804138
 21
6149.714395988897
 31
0.0
  0
LINE
  5
7C
330
22
100
AcDbEntity
  8
_0-9_
  6
Continuous
 62
     4
100
AcDbLine
 10
23850.3776452331
 20
7231.357990266771
 30
0.0
 11
23850.3776452331
 21
6149.714395988897
 31
0.0
  0
LINE
  5
7D
330
22
100
AcDbEntity
  8
_0-9_
  6
Continuous
 62
     4
100
AcDbLine
 10
30850.38094443074
 20
7231.357990266771
 30
0.0
 11
30850.38094443074
 21
6149.714395988897
 31
0.0
  0
LINE
  5
7E
330
22
100
AcDbEntity
  8
_0-9_
  6
Continuous
 62
     4
100
AcDbLine
 10
30850.37599563428
 20
7231.357990266771
 30
0.0
 11
30850.37599563428
 21
6149.714395988897
 31
0.0
  0
LINE
  5
7F
330
22
100
AcDbEntity
  8
_0-2_
  6
Continuous
 62
     7
100
AcDbLine
 10
10012.37484751351
 20
24675.01553025305
 30
0.0
 11
10063.83243302871
 21
24695.02846310778
 31
0.0
  0
LINE
  5
80
330
22
100
AcDbEntity
  8
_0-2_
  6
Continuous
 62
     7
100
AcDbLine
 10
10063.83243302871
 20
24595.03308198446
 30
0.0
 11
10263.83309286823
 21
24595.03308198446
 31
0.0
  0
LINE
  5
81
330
22
100
AcDbEntity
  8
_0-3_
  6
Continuous
 62
     7
100
AcDbLine
 10
9812.878964912156
 20
20404.4949333622
 30
0.0
 11
9887.877975152864
 21
20404.4949333622
 31
0.0
  0
LINE
  5
82
330
22
100
AcDbEntity
  8
_0-3_
  6
Continuous
 62
     7
100
AcDbLine
 10
9812.878964912156
 20
20404.4949333622
 30
0.0
 11
9812.878964912156
 21
20254.49443848256
 31
0.0
  0
LINE
  5
83
330
22
100
AcDbEntity
  8
_0-3_
  6
Continuous
 62
     7
100
AcDbLine
 10
9812.878964912156
 20
20254.49443848256
 30
0.0
 11
9887.877975152864
 21
20254.49443848256
 31
0.0
  0
LINE
  5
84
330
22
100
AcDbEntity
  8
_0-3_
  6
Continuous
 62
     7
100
AcDbLine
 10
9887.877975152864
 20
20404.4949333622
 30
0.0
 11
9887.877975152864
 21
20254.49443848256
 31
0.0
  0
LINE
  5
85
330
22
100
AcDbEntity
  8
_0-3_
  6
Continuous
 62
     7
100
AcDbLine
 10
9659.8819737804
 20
20329.49468592238
 30
0.0
 11
9812.878964912156
 21
20329.49468592238
 31
0.0
  0
LINE
  5
86
330
22
100
AcDbEntity
  8
_0-3_
  6
Continuous
 62
     7
100
AcDbLine
 10
9659.8819737804
 20
20429.49377864304
 30
0.0
 11
10040.87991508107
 21
20429.49377864304
 31
0.0
  0
LINE
  5
87
330
22
100
AcDbEntity
  8
_0-3_
  6
Continuous
 62
     7
100
AcDbLine
 10
10040.87991508107
 20
20329.49468592238
 30
0.0
 11
9887.877975152864
 21
20329.49468592238
 31
0.0
  0
LINE
  5
88
330
22
100
AcDbEntity
  8
_0-3_
  6
Continuous
 62
     7
100
AcDbLine
 10
9659.8819737804
 20
20429.49377864304
 30
0.0
 11
9659.8819737804
 21
20329.49468592238
 31
0.0
  0
LINE
  5
89
330
22
100
AcDbEntity
  8
_0-3_
  6
Continuous
 62
     7
100
AcDbLine
 10
10040.87991508107
 20
20429.49377864304
 30
0.0
 11
10040.87991508107
 21
20329.49468592238
 31
0.0
  0
LINE
  5
8A
330
22
100
AcDbEntity
  8
_0-2_
  6
Continuous
 62
     7
100
AcDbLine
 10
10067.37577128884
 20
8731.359227465883
 30
0.0
 11
9633.376219979723
 21
8731.359227465883
 31
0.0
  0
LINE
  5
8B
330
22
100
AcDbEntity
  8
_0-3_
  6
Continuous
 62
     7
100
AcDbLine
 10
10263.5386394793
 20
24606.52913614409
 30
0.0
 11
16436.91724880151
 21
24606.52913614409
 31
0.0
  0
LINE
  5
8C
330
22
100
AcDbEntity
  8
_0-0_
  6
Continuous
 62
     7
100
AcDbLine
 10
10556.5172870722
 20
11231.35634066795
 30
0.0
 11
10050.65626247339
 21
11231.35634066795
 31
0.0
  0
LINE
  5
8D
330
22
100
AcDbEntity
  8
_0-0_
  6
Continuous
 62
     7
100
AcDbLine
 10
9650.095728795179
 20
11231.35634066795
 30
0.0
 11
9144.234704196362
 21
11231.35634066795
 31
0.0
  0
LINE
  5
8E
330
22
100
AcDbEntity
  8
_0-2_
  6
Continuous
 62
     7
100
AcDbLine
 10
9650.598031635128
 20
11306.35782530688
 30
0.0
 11
9633.376219979723
 21
8731.359227465883
 31
0.0
  0
LINE
  5
8F
330
22
100
AcDbEntity
  8
_0-3_
  6
Continuous
 62
     6
100
AcDbLine
 10
9796.58752698986
 20
12131.85171519286
 30
0.0
 11
9796.58752698986
 21
12335.60108834531
 31
0.0
  0
LINE
  5
90
330
22
100
AcDbEntity
  8
_0-3_
  6
Continuous
 62
     6
100
AcDbLine
 10
9896.587856909622
 20
12126.36844872327
 30
0.0
 11
9896.587856909622
 21
12330.87746213121
 31
0.0
  0
LINE
  5
91
330
22
100
AcDbEntity
  8
_0-3_
  6
Continuous
 62
     7
100
AcDbLine
 10
9813.054647186223
 20
11955.86261574185
 30
0.0
 11
9888.048708630485
 21
11955.86261574185
 31
0.0
  0
LINE
  5
92
330
22
100
AcDbEntity
  8
_0-3_
  6
Continuous
 62
     7
100
AcDbLine
 10
9813.054647186223
 20
11955.86261574185
 30
0.0
 11
9813.054647186223
 21
11805.8621208622
 31
0.0
  0
LINE
  5
93
330
22
100
AcDbEntity
  8
_0-3_
  6
Continuous
 62
     7
100
AcDbLine
 10
9813.054647186223
 20
11805.8621208622
 30
0.0
 11
9888.048708630485
 21
11805.8621208622
 31
0.0
  0
LINE
  5
94
330
22
100
AcDbEntity
  8
_0-3_
  6
Continuous
 62
     7
100
AcDbLine
 10
9888.048708630485
 20
11955.86261574185
 30
0.0
 11
9888.048708630485
 21
11805.8621208622
 31
0.0
  0
LINE
  5
95
330
22
100
AcDbEntity
  8
_0-3_
  6
Continuous
 62
     7
100
AcDbLine
 10
9601.270902992816
 20
11880.86113110291
 30
0.0
 11
9813.054647186223
 21
11880.86113110291
 31
0.0
  0
LINE
  5
96
330
22
100
AcDbEntity
  8
_0-3_
  6
Continuous
 62
     7
100
AcDbLine
 10
10099.09508215244
 20
11880.86113110291
 30
0.0
 11
9888.048708630485
 21
11880.86113110291
 31
0.0
  0
LINE
  5
97
330
22
100
AcDbEntity
  8
_0-3_
  6
Continuous
 62
     7
100
AcDbLine
 10
9601.270902992816
 20
11980.86146102268
 30
0.0
 11
9601.270902992816
 21
11880.86113110291
 31
0.0
  0
LINE
  5
98
330
22
100
AcDbEntity
  8
_0-3_
  6
Continuous
 62
     7
100
AcDbLine
 10
9601.270902992816
 20
11980.86146102268
 30
0.0
 11
10099.09508215244
 21
11980.86146102268
 31
0.0
  0
LINE
  5
99
330
22
100
AcDbEntity
  8
_0-3_
  6
Continuous
 62
     7
100
AcDbLine
 10
10099.09508215244
 20
11980.86146102268
 30
0.0
 11
10099.09508215244
 21
11880.86113110291
 31
0.0
  0
LINE
  5
9A
330
22
100
AcDbEntity
  8
_0-2_
  6
Continuous
 62
     7
100
AcDbLine
 10
9654.438297682428
 20
11880.86113110291
 30
0.0
 11
9650.93207539569
 21
11356.35799026677
 31
0.0
  0
LINE
  5
9B
330
22
100
AcDbEntity
  8
_0-2_
  6
Continuous
 62
     7
100
AcDbLine
 10
10046.31369358614
 20
11880.86113110291
 30
0.0
 11
10049.81991587288
 21
11356.35799026677
 31
0.0
  0
LINE
  5
9C
330
22
100
AcDbEntity
  8
_0-2_
  6
Continuous
 62
     7
100
AcDbLine
 10
10012.37484751351
 20
24625.01783969139
 30
0.0
 11
10063.83243302871
 21
24605.02965081893
 31
0.0
  0
LINE
  5
9D
330
22
100
AcDbEntity
  8
ADD_LINE
  6
DOT
 62
     4
100
AcDbLine
 10
30850.37599563428
 20
25457.71222841605
 30
0.0
 11
30850.37599563428
 21
23991.44322503768
 31
0.0
  0
LINE
  5
9E
330
22
100
AcDbEntity
  8
_0-0_
  6
Continuous
 62
     7
100
AcDbLine
 10
16144.23552899577
 20
11231.35634066795
 30
0.0
 11
16144.23552899577
 21
11431.35576330837
 31
0.0
  0
LINE
  5
9F
330
22
100
AcDbEntity
  8
_0-0_
  6
Continuous
 62
     7
100
AcDbLine
 10
17556.51811187162
 20
11431.35576330837
 30
0.0
 11
17556.51811187162
 21
11231.35634066795
 31
0.0
  0
LINE
  5
A0
330
22
100
AcDbEntity
  8
_0-0_
  6
Continuous
 62
     7
100
AcDbLine
 10
16625.37731531333
 20
11306.35782530688
 30
0.0
 11
16625.37731531333
 21
11356.35799026677
 31
0.0
  0
LINE
  5
A1
330
22
100
AcDbEntity
  8
_0-0_
  6
Continuous
 62
     7
100
AcDbLine
 10
16625.37731531333
 20
11356.35799026677
 30
0.0
 11
17075.37632555405
 21
11356.35799026677
 31
0.0
  0
LINE
  5
A2
330
22
100
AcDbEntity
  8
_0-0_
  6
Continuous
 62
     7
100
AcDbLine
 10
17075.37632555405
 20
11356.35799026677
 30
0.0
 11
17075.37632555405
 21
11306.35782530688
 31
0.0
  0
LINE
  5
A3
330
22
100
AcDbEntity
  8
_0-0_
  6
Continuous
 62
     7
100
AcDbLine
 10
17075.37632555405
 20
11306.35782530688
 30
0.0
 11
16625.37731531333
 21
11306.35782530688
 31
0.0
  0
LINE
  5
A4
330
22
100
AcDbEntity
  8
_0-2_
  6
Continuous
 62
     7
100
AcDbLine
 10
17067.37659608825
 20
8731.359227465883
 30
0.0
 11
16633.37704477913
 21
8731.359227465883
 31
0.0
  0
LINE
  5
A5
330
22
100
AcDbEntity
  8
_0-0_
  6
Continuous
 62
     7
100
AcDbLine
 10
17556.51811187162
 20
11231.35634066795
 30
0.0
 11
17050.6570872728
 21
11231.35634066795
 31
0.0
  0
LINE
  5
A6
330
22
100
AcDbEntity
  8
_0-0_
  6
Continuous
 62
     7
100
AcDbLine
 10
16650.09407919636
 20
11231.35634066795
 30
0.0
 11
16144.23552899577
 21
11231.35634066795
 31
0.0
  0
LINE
  5
A7
330
22
100
AcDbEntity
  8
_0-0_
  6
Continuous
 62
     7
100
AcDbLine
 10
16144.23552899577
 20
11431.35576330837
 30
0.0
 11
16651.43272863681
 21
11431.35576330837
 31
0.0
  0
LINE
  5
A8
330
22
100
AcDbEntity
  8
_0-2_
  6
Continuous
 62
     7
100
AcDbLine
 10
17050.15478443285
 20
11306.35782530688
 30
0.0
 11
17067.37659608825
 21
8731.359227465883
 31
0.0
  0
LINE
  5
A9
330
22
100
AcDbEntity
  8
_0-2_
  6
Continuous
 62
     7
100
AcDbLine
 10
16650.59638203631
 20
11306.35782530688
 30
0.0
 11
16633.37704477913
 21
8731.359227465883
 31
0.0
  0
LINE
  5
AA
330
22
100
AcDbEntity
  8
_0-3_
  6
Continuous
 62
     6
100
AcDbLine
 10
16796.58835178927
 20
12131.85171519286
 30
0.0
 11
16796.58835178927
 21
12335.60108834531
 31
0.0
  0
LINE
  5
AB
330
22
100
AcDbEntity
  8
_0-3_
  6
Continuous
 62
     6
100
AcDbLine
 10
16896.58868170903
 20
12126.36844872327
 30
0.0
 11
16896.58868170903
 21
12330.87746213121
 31
0.0
  0
LINE
  5
AC
330
22
100
AcDbEntity
  8
_0-3_
  6
Continuous
 62
     7
100
AcDbLine
 10
16813.05299758741
 20
11955.86261574185
 30
0.0
 11
16888.04705903166
 21
11955.86261574185
 31
0.0
  0
LINE
  5
AD
330
22
100
AcDbEntity
  8
_0-3_
  6
Continuous
 62
     7
100
AcDbLine
 10
16813.05299758741
 20
11955.86261574185
 30
0.0
 11
16813.05299758741
 21
11805.8621208622
 31
0.0
  0
LINE
  5
AE
330
22
100
AcDbEntity
  8
_0-3_
  6
Continuous
 62
     7
100
AcDbLine
 10
16813.05299758741
 20
11805.8621208622
 30
0.0
 11
16888.04705903166
 21
11805.8621208622
 31
0.0
  0
LINE
  5
AF
330
22
100
AcDbEntity
  8
_0-3_
  6
Continuous
 62
     7
100
AcDbLine
 10
16888.04705903166
 20
11955.86261574185
 30
0.0
 11
16888.04705903166
 21
11805.8621208622
 31
0.0
  0
LINE
  5
B0
330
22
100
AcDbEntity
  8
_0-3_
  6
Continuous
 62
     7
100
AcDbLine
 10
16601.26925339399
 20
11880.86113110291
 30
0.0
 11
16813.05299758741
 21
11880.86113110291
 31
0.0
  0
LINE
  5
B1
330
22
100
AcDbEntity
  8
_0-3_
  6
Continuous
 62
     7
100
AcDbLine
 10
17099.09343255363
 20
11880.86113110291
 30
0.0
 11
16888.04705903166
 21
11880.86113110291
 31
0.0
  0
LINE
  5
B2
330
22
100
AcDbEntity
  8
_0-3_
  6
Continuous
 62
     7
100
AcDbLine
 10
16601.26925339399
 20
11980.86146102268
 30
0.0
 11
16601.26925339399
 21
11880.86113110291
 31
0.0
  0
LINE
  5
B3
330
22
100
AcDbEntity
  8
_0-3_
  6
Continuous
 62
     7
100
AcDbLine
 10
16601.26925339399
 20
11980.86146102268
 30
0.0
 11
17099.09343255363
 21
11980.86146102268
 31
0.0
  0
LINE
  5
B4
330
22
100
AcDbEntity
  8
_0-3_
  6
Continuous
 62
     7
100
AcDbLine
 10
17099.09343255363
 20
11980.86146102268
 30
0.0
 11
17099.09343255363
 21
11880.86113110291
 31
0.0
  0
LINE
  5
B5
330
22
100
AcDbEntity
  8
_0-0_
  6
Continuous
 62
     7
100
AcDbLine
 10
16740.37744728124
 20
24731.35757786707
 30
0.0
 11
16960.37619358614
 21
24731.35757786707
 31
0.0
  0
LINE
  5
B6
330
22
100
AcDbEntity
  8
_0-0_
  6
Continuous
 62
     7
100
AcDbLine
 10
16688.37549415624
 20
24575.01520033329
 30
0.0
 11
16688.37549415624
 21
24675.01553025305
 31
0.0
  0
LINE
  5
B7
330
22
100
AcDbEntity
  8
_0-0_
  6
Continuous
 62
     7
100
AcDbLine
 10
16688.37549415624
 20
24675.01553025305
 30
0.0
 11
17012.37567231291
 21
24675.01553025305
 31
0.0
  0
LINE
  5
B8
330
22
100
AcDbEntity
  8
_0-0_
  6
Continuous
 62
     7
100
AcDbLine
 10
16825.37550075464
 20
24575.01520033329
 30
0.0
 11
16688.37549415624
 21
24575.01520033329
 31
0.0
  0
LINE
  5
B9
330
22
100
AcDbEntity
  8
_0-0_
  6
Continuous
 62
     7
100
AcDbLine
 10
17012.37567231291
 20
24575.01520033329
 30
0.0
 11
16875.37566571452
 21
24575.01520033329
 31
0.0
  0
LINE
  5
BA
330
22
100
AcDbEntity
  8
_0-0_
  6
Continuous
 62
     7
100
AcDbLine
 10
16688.37549415624
 20
24625.01783969139
 30
0.0
 11
17012.37567231291
 21
24625.01783969139
 31
0.0
  0
LINE
  5
BB
330
22
100
AcDbEntity
  8
_0-0_
  6
Continuous
 62
     7
100
AcDbLine
 10
16636.91790864104
 20
24595.03308198446
 30
0.0
 11
16636.91790864104
 21
24705.02998073869
 31
0.0
  0
LINE
  5
BC
330
22
100
AcDbEntity
  8
_0-0_
  6
Continuous
 62
     7
100
AcDbLine
 10
16636.91790864104
 20
24705.02998073869
 30
0.0
 11
16436.91724880151
 21
24705.02998073869
 31
0.0
  0
LINE
  5
BD
330
22
100
AcDbEntity
  8
_0-0_
  6
Continuous
 62
     7
100
AcDbLine
 10
16436.91724880151
 20
24705.02998073869
 30
0.0
 11
16436.91724880151
 21
24595.03308198446
 31
0.0
  0
LINE
  5
BE
330
22
100
AcDbEntity
  8
_0-2_
  6
Continuous
 62
     7
100
AcDbLine
 10
16688.37549415624
 20
24675.01553025305
 30
0.0
 11
16636.91790864104
 21
24695.02846310778
 31
0.0
  0
LINE
  5
BF
330
22
100
AcDbEntity
  8
_0-2_
  6
Continuous
 62
     7
100
AcDbLine
 10
16636.91790864104
 20
24595.03308198446
 30
0.0
 11
16436.91724880151
 21
24595.03308198446
 31
0.0
  0
LINE
  5
C0
330
22
100
AcDbEntity
  8
_0-2_
  6
Continuous
 62
     7
100
AcDbLine
 10
16688.37549415624
 20
24625.01783969139
 30
0.0
 11
16636.91790864104
 21
24605.02965081893
 31
0.0
  0
LINE
  5
C1
330
22
100
AcDbEntity
  8
_0-0_
  6
Continuous
 62
     7
100
AcDbLine
 10
12198.72342753884
 20
24695.03341190423
 30
0.0
 11
16436.91724880151
 21
24695.03341190423
 31
0.0
  0
LINE
  5
C2
330
22
100
AcDbEntity
  8
_0-0_
  6
Continuous
 62
     7
100
AcDbLine
 10
16875.37814011274
 20
24515.01599214072
 30
0.0
 11
16875.37814011274
 21
24615.01632206048
 31
0.0
  0
LINE
  5
C3
330
22
100
AcDbEntity
  8
_0-0_
  6
Continuous
 62
     7
100
AcDbLine
 10
16875.37814011274
 20
24615.01632206048
 30
0.0
 11
16825.37797515287
 21
24615.01632206048
 31
0.0
  0
LINE
  5
C4
330
22
100
AcDbEntity
  8
_0-0_
  6
Continuous
 62
     7
100
AcDbLine
 10
16825.37797515287
 20
24615.01632206048
 30
0.0
 11
16825.37797515287
 21
24515.01599214072
 31
0.0
  0
LINE
  5
C5
330
22
100
AcDbEntity
  8
_0-0_
  6
Continuous
 62
     7
100
AcDbLine
 10
16825.37797515287
 20
24515.01599214072
 30
0.0
 11
16875.37814011274
 21
24515.01599214072
 31
0.0
  0
LINE
  5
C6
330
22
100
AcDbEntity
  8
_0-0_
  6
Continuous
 62
     7
100
AcDbLine
 10
23740.38074647888
 20
24731.35757786707
 30
0.0
 11
23960.37949278377
 21
24731.35757786707
 31
0.0
  0
LINE
  5
C7
330
22
100
AcDbEntity
  8
_0-0_
  6
Continuous
 62
     7
100
AcDbLine
 10
30740.37909688006
 20
24731.35757786707
 30
0.0
 11
30960.37784318496
 21
24731.35757786707
 31
0.0
  0
LINE
  5
C8
330
22
100
AcDbEntity
  8
_0-0_
  6
Continuous
 62
     7
100
AcDbLine
 10
23144.23882819341
 20
11231.35634066795
 30
0.0
 11
23144.23882819341
 21
11431.35452610925
 31
0.0
  0
LINE
  5
C9
330
22
100
AcDbEntity
  8
_0-0_
  6
Continuous
 62
     7
100
AcDbLine
 10
24556.52141106925
 20
11431.35452610925
 30
0.0
 11
24556.52141106925
 21
11231.35634066795
 31
0.0
  0
LINE
  5
CA
330
22
100
AcDbEntity
  8
_0-0_
  6
Continuous
 62
     7
100
AcDbLine
 10
23625.37566571453
 20
11306.35658810777
 30
0.0
 11
23625.37566571453
 21
11356.35551586854
 31
0.0
  0
LINE
  5
CB
330
22
100
AcDbEntity
  8
_0-0_
  6
Continuous
 62
     7
100
AcDbLine
 10
23625.37566571453
 20
11356.35551586854
 30
0.0
 11
24075.37962475168
 21
11356.35551586854
 31
0.0
  0
LINE
  5
CC
330
22
100
AcDbEntity
  8
_0-0_
  6
Continuous
 62
     7
100
AcDbLine
 10
24075.37962475168
 20
11356.35551586854
 30
0.0
 11
24075.37962475168
 21
11306.35658810777
 31
0.0
  0
LINE
  5
CD
330
22
100
AcDbEntity
  8
_0-0_
  6
Continuous
 62
     7
100
AcDbLine
 10
24075.37962475168
 20
11306.35658810777
 30
0.0
 11
23625.37566571453
 21
11306.35658810777
 31
0.0
  0
LINE
  5
CE
330
22
100
AcDbEntity
  8
_0-2_
  6
Continuous
 62
     7
100
AcDbLine
 10
24067.37742088767
 20
8731.35799026677
 30
0.0
 11
23633.37786957854
 21
8731.35799026677
 31
0.0
  0
LINE
  5
CF
330
22
100
AcDbEntity
  8
_0-0_
  6
Continuous
 62
     7
100
AcDbLine
 10
24055.85167394932
 20
11431.35452610925
 30
0.0
 11
24556.52141106925
 21
11431.35452610925
 31
0.0
  0
LINE
  5
D0
330
22
100
AcDbEntity
  8
_0-0_
  6
Continuous
 62
     7
100
AcDbLine
 10
24556.52141106925
 20
11231.35634066795
 30
0.0
 11
24050.66038647043
 21
11231.35634066795
 31
0.0
  0
LINE
  5
D1
330
22
100
AcDbEntity
  8
_0-0_
  6
Continuous
 62
     7
100
AcDbLine
 10
23650.09490399577
 20
11231.35634066795
 30
0.0
 11
23144.23882819341
 21
11231.35634066795
 31
0.0
  0
LINE
  5
D2
330
22
100
AcDbEntity
  8
_0-0_
  6
Continuous
 62
     7
100
AcDbLine
 10
23144.23882819341
 20
11431.35452610925
 30
0.0
 11
23651.43602783446
 21
11431.35452610925
 31
0.0
  0
LINE
  5
D3
330
22
100
AcDbEntity
  8
_0-2_
  6
Continuous
 62
     7
100
AcDbLine
 10
24050.15560923226
 20
11306.35658810777
 30
0.0
 11
24067.37742088767
 21
8731.35799026677
 31
0.0
  0
LINE
  5
D4
330
22
100
AcDbEntity
  8
_0-2_
  6
Continuous
 62
     7
100
AcDbLine
 10
23650.59968123395
 20
11306.35658810777
 30
0.0
 11
23633.37786957854
 21
8731.35799026677
 31
0.0
  0
LINE
  5
D5
330
22
100
AcDbEntity
  8
_0-3_
  6
Continuous
 62
     7
100
AcDbLine
 10
23813.05382238682
 20
11955.86014134362
 30
0.0
 11
23888.04788383108
 21
11955.86014134362
 31
0.0
  0
LINE
  5
D6
330
22
100
AcDbEntity
  8
_0-3_
  6
Continuous
 62
     7
100
AcDbLine
 10
23813.05382238682
 20
11955.86014134362
 30
0.0
 11
23813.05382238682
 21
11805.85964646398
 31
0.0
  0
LINE
  5
D7
330
22
100
AcDbEntity
  8
_0-3_
  6
Continuous
 62
     7
100
AcDbLine
 10
23813.05382238682
 20
11805.85964646398
 30
0.0
 11
23888.04788383108
 21
11805.85964646398
 31
0.0
  0
LINE
  5
D8
330
22
100
AcDbEntity
  8
_0-3_
  6
Continuous
 62
     7
100
AcDbLine
 10
23888.04788383108
 20
11955.86014134362
 30
0.0
 11
23888.04788383108
 21
11805.85964646398
 31
0.0
  0
LINE
  5
D9
330
22
100
AcDbEntity
  8
_0-3_
  6
Continuous
 62
     7
100
AcDbLine
 10
23601.27007819341
 20
11880.86113110291
 30
0.0
 11
23813.05382238682
 21
11880.86113110291
 31
0.0
  0
LINE
  5
DA
330
22
100
AcDbEntity
  8
_0-3_
  6
Continuous
 62
     7
100
AcDbLine
 10
24099.09425735304
 20
11880.86113110291
 30
0.0
 11
23888.04788383108
 21
11880.86113110291
 31
0.0
  0
LINE
  5
DB
330
22
100
AcDbEntity
  8
_0-3_
  6
Continuous
 62
     7
100
AcDbLine
 10
23601.27007819341
 20
11980.86146102268
 30
0.0
 11
23601.27007819341
 21
11880.86113110291
 31
0.0
  0
LINE
  5
DC
330
22
100
AcDbEntity
  8
_0-3_
  6
Continuous
 62
     7
100
AcDbLine
 10
23601.27007819341
 20
11980.86146102268
 30
0.0
 11
24099.09425735304
 21
11980.86146102268
 31
0.0
  0
LINE
  5
DD
330
22
100
AcDbEntity
  8
_0-3_
  6
Continuous
 62
     7
100
AcDbLine
 10
24099.09425735304
 20
11980.86146102268
 30
0.0
 11
24099.09425735304
 21
11880.86113110291
 31
0.0
  0
LINE
  5
DE
330
22
100
AcDbEntity
  8
_0-2_
  6
Continuous
 62
     7
100
AcDbLine
 10
23654.43994728124
 20
11880.86113110291
 30
0.0
 11
23650.93125059628
 21
11356.35551586854
 31
0.0
  0
LINE
  5
DF
330
22
100
AcDbEntity
  8
_0-2_
  6
Continuous
 62
     7
100
AcDbLine
 10
24046.31534318496
 20
11880.86113110291
 30
0.0
 11
24049.82403986993
 21
11356.35551586854
 31
0.0
  0
LINE
  5
E0
330
22
100
AcDbEntity
  8
_0-0_
  6
Continuous
 62
     7
100
AcDbLine
 10
30144.23717859459
 20
11231.35634066795
 30
0.0
 11
30144.23717859459
 21
11431.35576330837
 31
0.0
  0
LINE
  5
E1
330
22
100
AcDbEntity
  8
_0-0_
  6
Continuous
 62
     7
100
AcDbLine
 10
31556.51976147044
 20
11431.35576330837
 30
0.0
 11
31556.51976147044
 21
11231.35634066795
 31
0.0
  0
LINE
  5
E2
330
22
100
AcDbEntity
  8
_0-0_
  6
Continuous
 62
     7
100
AcDbLine
 10
30625.3740161157
 20
11306.35782530688
 30
0.0
 11
30625.3740161157
 21
11356.35799026677
 31
0.0
  0
LINE
  5
E3
330
22
100
AcDbEntity
  8
_0-0_
  6
Continuous
 62
     7
100
AcDbLine
 10
30625.3740161157
 20
11356.35799026677
 30
0.0
 11
31075.37797515287
 21
11356.35799026677
 31
0.0
  0
LINE
  5
E4
330
22
100
AcDbEntity
  8
_0-0_
  6
Continuous
 62
     7
100
AcDbLine
 10
31075.37797515287
 20
11356.35799026677
 30
0.0
 11
31075.37797515287
 21
11306.35782530688
 31
0.0
  0
LINE
  5
E5
330
22
100
AcDbEntity
  8
_0-0_
  6
Continuous
 62
     7
100
AcDbLine
 10
31075.37797515287
 20
11306.35782530688
 30
0.0
 11
30625.3740161157
 21
11306.35782530688
 31
0.0
  0
LINE
  5
E6
330
22
100
AcDbEntity
  8
_0-2_
  6
Continuous
 62
     7
100
AcDbLine
 10
31067.37577128885
 20
8731.359227465883
 30
0.0
 11
30633.37621997972
 21
8731.359227465883
 31
0.0
  0
LINE
  5
E7
330
22
100
AcDbEntity
  8
_0-0_
  6
Continuous
 62
     7
100
AcDbLine
 10
31055.8500243505
 20
11431.35576330837
 30
0.0
 11
31556.51976147044
 21
11431.35576330837
 31
0.0
  0
LINE
  5
E8
330
22
100
AcDbEntity
  8
_0-0_
  6
Continuous
 62
     7
100
AcDbLine
 10
31556.51976147044
 20
11231.35634066795
 30
0.0
 11
31050.65873687162
 21
11231.35634066795
 31
0.0
  0
LINE
  5
E9
330
22
100
AcDbEntity
  8
_0-0_
  6
Continuous
 62
     7
100
AcDbLine
 10
30650.09325439695
 20
11231.35634066795
 30
0.0
 11
30144.23717859459
 21
11231.35634066795
 31
0.0
  0
LINE
  5
EA
330
22
100
AcDbEntity
  8
_0-0_
  6
Continuous
 62
     7
100
AcDbLine
 10
30144.23717859459
 20
11431.35576330837
 30
0.0
 11
30651.43437823564
 21
11431.35576330837
 31
0.0
  0
LINE
  5
EB
330
22
100
AcDbEntity
  8
_0-2_
  6
Continuous
 62
     7
100
AcDbLine
 10
31050.15395963345
 20
11306.35782530688
 30
0.0
 11
31067.37577128885
 21
8731.359227465883
 31
0.0
  0
LINE
  5
EC
330
22
100
AcDbEntity
  8
_0-2_
  6
Continuous
 62
     7
100
AcDbLine
 10
30650.59803163513
 20
11306.35782530688
 30
0.0
 11
30633.37621997972
 21
8731.359227465883
 31
0.0
  0
LINE
  5
ED
330
22
100
AcDbEntity
  8
_0-3_
  6
Continuous
 62
     7
100
AcDbLine
 10
30813.05217278801
 20
11955.86261574185
 30
0.0
 11
30888.04623423226
 21
11955.86261574185
 31
0.0
  0
LINE
  5
EE
330
22
100
AcDbEntity
  8
_0-3_
  6
Continuous
 62
     7
100
AcDbLine
 10
30813.05217278801
 20
11955.86261574185
 30
0.0
 11
30813.05217278801
 21
11805.8621208622
 31
0.0
  0
LINE
  5
EF
330
22
100
AcDbEntity
  8
_0-3_
  6
Continuous
 62
     7
100
AcDbLine
 10
30813.05217278801
 20
11805.8621208622
 30
0.0
 11
30888.04623423226
 21
11805.8621208622
 31
0.0
  0
LINE
  5
F0
330
22
100
AcDbEntity
  8
_0-3_
  6
Continuous
 62
     7
100
AcDbLine
 10
30888.04623423226
 20
11955.86261574185
 30
0.0
 11
30888.04623423226
 21
11805.8621208622
 31
0.0
  0
LINE
  5
F1
330
22
100
AcDbEntity
  8
_0-3_
  6
Continuous
 62
     7
100
AcDbLine
 10
30601.26842859459
 20
11880.86113110291
 30
0.0
 11
30813.05217278801
 21
11880.86113110291
 31
0.0
  0
LINE
  5
F2
330
22
100
AcDbEntity
  8
_0-3_
  6
Continuous
 62
     7
100
AcDbLine
 10
31099.09260775422
 20
11880.86113110291
 30
0.0
 11
30888.04623423226
 21
11880.86113110291
 31
0.0
  0
LINE
  5
F3
330
22
100
AcDbEntity
  8
_0-3_
  6
Continuous
 62
     7
100
AcDbLine
 10
30601.26842859459
 20
11980.86146102268
 30
0.0
 11
30601.26842859459
 21
11880.86113110291
 31
0.0
  0
LINE
  5
F4
330
22
100
AcDbEntity
  8
_0-3_
  6
Continuous
 62
     7
100
AcDbLine
 10
30601.26842859459
 20
11980.86146102268
 30
0.0
 11
31099.09260775422
 21
11980.86146102268
 31
0.0
  0
LINE
  5
F5
330
22
100
AcDbEntity
  8
_0-3_
  6
Continuous
 62
     7
100
AcDbLine
 10
31099.09260775422
 20
11980.86146102268
 30
0.0
 11
31099.09260775422
 21
11880.86113110291
 31
0.0
  0
LINE
  5
F6
330
22
100
AcDbEntity
  8
_0-2_
  6
Continuous
 62
     7
100
AcDbLine
 10
30654.43829768243
 20
11880.86113110291
 30
0.0
 11
30650.92960099746
 21
11356.35799026677
 31
0.0
  0
LINE
  5
F7
330
22
100
AcDbEntity
  8
_0-2_
  6
Continuous
 62
     7
100
AcDbLine
 10
31046.31369358615
 20
11880.86113110291
 30
0.0
 11
31049.82239027111
 21
11356.35799026677
 31
0.0
  0
LINE
  5
F8
330
22
100
AcDbEntity
  8
_0-2_
  6
Continuous
 62
     7
100
AcDbLine
 10
16654.43912248183
 20
11880.86113110291
 30
0.0
 11
16650.93042579687
 21
11356.35799026677
 31
0.0
  0
LINE
  5
F9
330
22
100
AcDbEntity
  8
_0-2_
  6
Continuous
 62
     7
100
AcDbLine
 10
17046.31204398732
 20
11880.86113110291
 30
0.0
 11
17049.82074067229
 21
11356.35799026677
 31
0.0
  0
LINE
  5
FA
330
22
100
AcDbEntity
  8
_0-3_
  6
Continuous
 62
     6
100
AcDbLine
 10
16579.15555644509
 20
12136.79556284911
 30
0.0
 11
16485.3783380646
 21
12313.44780102479
 31
0.0
  0
LINE
  5
FB
330
22
100
AcDbEntity
  8
_0-3_
  6
Continuous
 62
     6
100
AcDbLine
 10
16490.82943735725
 20
12089.90695365887
 30
0.0
 11
16397.05221897677
 21
12266.55919183455
 31
0.0
  0
LINE
  5
FC
330
22
100
AcDbEntity
  8
_0-0_
  6
Continuous
 62
     7
100
AcDbLine
 10
10049.32008743116
 20
11431.35576330837
 30
0.0
 11
10556.5172870722
 21
11431.35576330837
 31
0.0
  0
LINE
  5
FD
330
22
100
AcDbEntity
  8
_0-0_
  6
Continuous
 62
     7
100
AcDbLine
 10
9144.234704196362
 20
11431.35576330837
 30
0.0
 11
9651.434378235636
 21
11431.35576330837
 31
0.0
  0
LINE
  5
FE
330
22
100
AcDbEntity
  8
_0-0_
  6
Continuous
 62
     7
100
AcDbLine
 10
17049.31843783234
 20
11431.35576330837
 30
0.0
 11
17556.51811187162
 21
11431.35576330837
 31
0.0
  0
LINE
  5
FF
330
22
100
AcDbEntity
  8
_0-2_
  6
Continuous
 62
     7
100
AcDbLine
 10
30688.3796181533
 20
24579.69676177754
 30
0.0
 11
30688.3796181533
 21
24679.69709169731
 31
0.0
  0
LINE
  5
100
330
22
100
AcDbEntity
  8
_0-2_
  6
Continuous
 62
     7
100
AcDbLine
 10
23812.87814011275
 20
20404.4949333622
 30
0.0
 11
23887.87715035346
 21
20404.4949333622
 31
0.0
  0
LINE
  5
101
330
22
100
AcDbEntity
  8
_0-2_
  6
Continuous
 62
     7
100
AcDbLine
 10
23812.87814011275
 20
20254.49443848256
 30
0.0
 11
23887.87715035346
 21
20254.49443848256
 31
0.0
  0
LINE
  5
102
330
22
100
AcDbEntity
  8
_0-2_
  6
Continuous
 62
     7
100
AcDbLine
 10
23887.87715035346
 20
20404.4949333622
 30
0.0
 11
23887.87715035346
 21
20254.49443848256
 31
0.0
  0
LINE
  5
103
330
22
100
AcDbEntity
  8
ADD_LINE
  6
DOT
 62
     7
100
AcDbLine
 10
23850.3776452331
 20
20484.9759728734
 30
0.0
 11
23850.3776452331
 21
20222.48562302648
 31
0.0
  0
LINE
  5
104
330
22
100
AcDbEntity
  8
_0-2_
  6
Continuous
 62
     7
100
AcDbLine
 10
23659.88114898099
 20
20329.49344872327
 30
0.0
 11
23812.87814011275
 21
20329.49344872327
 31
0.0
  0
LINE
  5
105
330
22
100
AcDbEntity
  8
_0-2_
  6
Continuous
 62
     7
100
AcDbLine
 10
23659.88114898099
 20
20429.49501584215
 30
0.0
 11
24040.87909028167
 21
20429.49501584215
 31
0.0
  0
LINE
  5
106
330
22
100
AcDbEntity
  8
_0-2_
  6
Continuous
 62
     7
100
AcDbLine
 10
24040.87909028167
 20
20329.49344872327
 30
0.0
 11
23887.87715035346
 21
20329.49344872327
 31
0.0
  0
LINE
  5
107
330
22
100
AcDbEntity
  8
_0-2_
  6
Continuous
 62
     7
100
AcDbLine
 10
23659.88114898099
 20
20429.49501584215
 30
0.0
 11
23659.88114898099
 21
20329.49344872327
 31
0.0
  0
LINE
  5
108
330
22
100
AcDbEntity
  8
_0-2_
  6
Continuous
 62
     7
100
AcDbLine
 10
24040.87909028167
 20
20429.49501584215
 30
0.0
 11
24040.87909028167
 21
20329.49344872327
 31
0.0
  0
LINE
  5
109
330
22
100
AcDbEntity
  8
_0-2_
  6
Continuous
 62
     7
100
AcDbLine
 10
16812.75112100379
 20
20404.4949333622
 30
0.0
 11
16887.7501312445
 21
20404.4949333622
 31
0.0
  0
LINE
  5
10A
330
22
100
AcDbEntity
  8
_0-2_
  6
Continuous
 62
     7
100
AcDbLine
 10
16812.75112100379
 20
20404.4949333622
 30
0.0
 11
16812.75112100379
 21
20254.49443848256
 31
0.0
  0
LINE
  5
10B
330
22
100
AcDbEntity
  8
_0-2_
  6
Continuous
 62
     7
100
AcDbLine
 10
16812.75112100379
 20
20254.49443848256
 30
0.0
 11
16887.7501312445
 21
20254.49443848256
 31
0.0
  0
LINE
  5
10C
330
22
100
AcDbEntity
  8
_0-2_
  6
Continuous
 62
     7
100
AcDbLine
 10
16887.7501312445
 20
20404.4949333622
 30
0.0
 11
16887.7501312445
 21
20254.49443848256
 31
0.0
  0
LINE
  5
10D
330
22
100
AcDbEntity
  8
_0-2_
  6
Continuous
 62
     7
100
AcDbLine
 10
16659.75412987204
 20
20329.49344872327
 30
0.0
 11
16812.75112100379
 21
20329.49344872327
 31
0.0
  0
LINE
  5
10E
330
22
100
AcDbEntity
  8
_0-2_
  6
Continuous
 62
     7
100
AcDbLine
 10
16659.75412987204
 20
20429.49501584215
 30
0.0
 11
17040.75207117271
 21
20429.49501584215
 31
0.0
  0
LINE
  5
10F
330
22
100
AcDbEntity
  8
_0-2_
  6
Continuous
 62
     7
100
AcDbLine
 10
17040.75207117271
 20
20329.49344872327
 30
0.0
 11
16887.7501312445
 21
20329.49344872327
 31
0.0
  0
LINE
  5
110
330
22
100
AcDbEntity
  8
_0-2_
  6
Continuous
 62
     7
100
AcDbLine
 10
16659.75412987204
 20
20429.49501584215
 30
0.0
 11
16659.75412987204
 21
20329.49344872327
 31
0.0
  0
LINE
  5
111
330
22
100
AcDbEntity
  8
_0-2_
  6
Continuous
 62
     7
100
AcDbLine
 10
17040.75207117271
 20
20429.49501584215
 30
0.0
 11
17040.75207117271
 21
20329.49344872327
 31
0.0
  0
LINE
  5
112
330
22
100
AcDbEntity
  8
_0-2_
  6
Continuous
 62
     7
100
AcDbLine
 10
30812.84184893876
 20
16154.34481986981
 30
0.0
 11
30887.84085917947
 21
16154.34481986981
 31
0.0
  0
LINE
  5
113
330
22
100
AcDbEntity
  8
_0-2_
  6
Continuous
 62
     7
100
AcDbLine
 10
30812.84184893876
 20
16154.34481986981
 30
0.0
 11
30812.84184893876
 21
16004.34432499016
 31
0.0
  0
LINE
  5
114
330
22
100
AcDbEntity
  8
_0-2_
  6
Continuous
 62
     7
100
AcDbLine
 10
30812.84184893876
 20
16004.34432499016
 30
0.0
 11
30887.84085917947
 21
16004.34432499016
 31
0.0
  0
LINE
  5
115
330
22
100
AcDbEntity
  8
_0-2_
  6
Continuous
 62
     7
100
AcDbLine
 10
30887.84085917947
 20
16154.34481986981
 30
0.0
 11
30887.84085917947
 21
16004.34432499016
 31
0.0
  0
LINE
  5
116
330
22
100
AcDbEntity
  8
ADD_LINE
  6
DOT
 62
     7
100
AcDbLine
 10
30850.33887966089
 20
16234.825859381
 30
0.0
 11
30850.33887966089
 21
15972.33674673319
 31
0.0
  0
LINE
  5
117
330
22
100
AcDbEntity
  8
_0-2_
  6
Continuous
 62
     7
100
AcDbLine
 10
30632.44832064485
 20
16179.34490234975
 30
0.0
 11
31068.22943867693
 21
16179.34490234975
 31
0.0
  0
LINE
  5
118
330
22
100
AcDbEntity
  8
_0-2_
  6
Continuous
 62
     7
100
AcDbLine
 10
30632.44832064485
 20
16179.34490234975
 30
0.0
 11
30632.44832064485
 21
16079.34457242998
 31
0.0
  0
LINE
  5
119
330
22
100
AcDbEntity
  8
_0-2_
  6
Continuous
 62
     7
100
AcDbLine
 10
30632.44832064485
 20
16079.34457242998
 30
0.0
 11
30812.84184893876
 21
16079.34457242998
 31
0.0
  0
LINE
  5
11A
330
22
100
AcDbEntity
  8
_0-2_
  6
Continuous
 62
     7
100
AcDbLine
 10
31068.22943867693
 20
16179.34490234975
 30
0.0
 11
31068.22943867693
 21
16079.34457242998
 31
0.0
  0
LINE
  5
11B
330
22
100
AcDbEntity
  8
_0-2_
  6
Continuous
 62
     7
100
AcDbLine
 10
31068.22943867693
 20
16079.34457242998
 30
0.0
 11
30887.84085917947
 21
16079.34457242998
 31
0.0
  0
LINE
  5
11C
330
22
100
AcDbEntity
  8
_0-2_
  6
Continuous
 62
     7
100
AcDbLine
 10
31068.22448988048
 20
16179.34490234975
 30
0.0
 11
31068.22448988048
 21
16079.34457242998
 31
0.0
  0
LINE
  5
11D
330
22
100
AcDbEntity
  8
_0-2_
  6
Continuous
 62
     7
100
AcDbLine
 10
23688.37879335388
 20
24578.88021036284
 30
0.0
 11
23688.37879335388
 21
24678.88054028261
 31
0.0
  0
LINE
  5
11E
330
22
100
AcDbEntity
  8
_0-2_
  6
Continuous
 62
     7
100
AcDbLine
 10
23688.37879335388
 20
24678.88054028261
 30
0.0
 11
24012.37649711232
 21
24678.88054028261
 31
0.0
  0
LINE
  5
11F
330
22
100
AcDbEntity
  8
_0-2_
  6
Continuous
 62
     7
100
AcDbLine
 10
24012.37649711232
 20
24678.88054028261
 30
0.0
 11
24012.37649711232
 21
24578.88021036284
 31
0.0
  0
LINE
  5
120
330
22
100
AcDbEntity
  8
ADD_LINE
  6
DOT
 62
     4
100
AcDbLine
 10
16850.37682043369
 20
25457.71222841605
 30
0.0
 11
16850.37682043369
 21
23991.44322503768
 31
0.0
  0
LINE
  5
121
330
22
100
AcDbEntity
  8
_0-2_
  6
Continuous
 62
     7
100
AcDbLine
 10
23812.84349853758
 20
16154.34481986981
 30
0.0
 11
23887.84250877828
 21
16154.34481986981
 31
0.0
  0
LINE
  5
122
330
22
100
AcDbEntity
  8
_0-2_
  6
Continuous
 62
     7
100
AcDbLine
 10
23812.84349853758
 20
16154.34481986981
 30
0.0
 11
23812.84349853758
 21
16004.34432499016
 31
0.0
  0
LINE
  5
123
330
22
100
AcDbEntity
  8
_0-2_
  6
Continuous
 62
     7
100
AcDbLine
 10
23812.84349853758
 20
16004.34432499016
 30
0.0
 11
23887.84250877828
 21
16004.34432499016
 31
0.0
  0
LINE
  5
124
330
22
100
AcDbEntity
  8
_0-2_
  6
Continuous
 62
     7
100
AcDbLine
 10
23887.84250877828
 20
16154.34481986981
 30
0.0
 11
23887.84250877828
 21
16004.34432499016
 31
0.0
  0
LINE
  5
125
330
22
100
AcDbEntity
  8
ADD_LINE
  6
DOT
 62
     7
100
AcDbLine
 10
23850.34052925971
 20
16234.825859381
 30
0.0
 11
23850.34052925971
 21
15972.33674673319
 31
0.0
  0
LINE
  5
126
330
22
100
AcDbEntity
  8
_0-2_
  6
Continuous
 62
     7
100
AcDbLine
 10
23632.44997024366
 20
16179.34490234975
 30
0.0
 11
24068.23108827576
 21
16179.34490234975
 31
0.0
  0
LINE
  5
127
330
22
100
AcDbEntity
  8
_0-2_
  6
Continuous
 62
     7
100
AcDbLine
 10
23632.44997024366
 20
16179.34490234975
 30
0.0
 11
23632.44997024366
 21
16079.34457242998
 31
0.0
  0
LINE
  5
128
330
22
100
AcDbEntity
  8
_0-2_
  6
Continuous
 62
     7
100
AcDbLine
 10
23632.44997024366
 20
16079.34457242998
 30
0.0
 11
23812.84349853758
 21
16079.34457242998
 31
0.0
  0
LINE
  5
129
330
22
100
AcDbEntity
  8
_0-2_
  6
Continuous
 62
     7
100
AcDbLine
 10
24068.23108827576
 20
16179.34490234975
 30
0.0
 11
24068.23108827576
 21
16079.34457242998
 31
0.0
  0
LINE
  5
12A
330
22
100
AcDbEntity
  8
_0-2_
  6
Continuous
 62
     7
100
AcDbLine
 10
24068.23108827576
 20
16079.34457242998
 30
0.0
 11
23887.84250877828
 21
16079.34457242998
 31
0.0
  0
LINE
  5
12B
330
22
100
AcDbEntity
  8
_0-2_
  6
Continuous
 62
     7
100
AcDbLine
 10
24068.2261394793
 20
16179.34490234975
 30
0.0
 11
24068.2261394793
 21
16079.34457242998
 31
0.0
  0
LINE
  5
12C
330
22
100
AcDbEntity
  8
_0-2_
  6
Continuous
 62
     7
100
AcDbLine
 10
16812.84267373817
 20
16154.34481986981
 30
0.0
 11
16887.84168397888
 21
16154.34481986981
 31
0.0
  0
LINE
  5
12D
330
22
100
AcDbEntity
  8
_0-2_
  6
Continuous
 62
     7
100
AcDbLine
 10
16812.84267373817
 20
16154.34481986981
 30
0.0
 11
16812.84267373817
 21
16004.34432499016
 31
0.0
  0
LINE
  5
12E
330
22
100
AcDbEntity
  8
_0-2_
  6
Continuous
 62
     7
100
AcDbLine
 10
16812.84267373817
 20
16004.34432499016
 30
0.0
 11
16887.84168397888
 21
16004.34432499016
 31
0.0
  0
LINE
  5
12F
330
22
100
AcDbEntity
  8
_0-2_
  6
Continuous
 62
     7
100
AcDbLine
 10
16887.84168397888
 20
16154.34481986981
 30
0.0
 11
16887.84168397888
 21
16004.34432499016
 31
0.0
  0
LINE
  5
130
330
22
100
AcDbEntity
  8
ADD_LINE
  6
DOT
 62
     7
100
AcDbLine
 10
16850.3397044603
 20
16234.825859381
 30
0.0
 11
16850.3397044603
 21
15972.33674673319
 31
0.0
  0
LINE
  5
131
330
22
100
AcDbEntity
  8
_0-2_
  6
Continuous
 62
     7
100
AcDbLine
 10
16632.44914544425
 20
16179.34490234975
 30
0.0
 11
17068.23026347634
 21
16179.34490234975
 31
0.0
  0
LINE
  5
132
330
22
100
AcDbEntity
  8
_0-2_
  6
Continuous
 62
     7
100
AcDbLine
 10
16632.44914544425
 20
16179.34490234975
 30
0.0
 11
16632.44914544425
 21
16079.34457242998
 31
0.0
  0
LINE
  5
133
330
22
100
AcDbEntity
  8
_0-2_
  6
Continuous
 62
     7
100
AcDbLine
 10
16632.44914544425
 20
16079.34457242998
 30
0.0
 11
16812.84267373817
 21
16079.34457242998
 31
0.0
  0
LINE
  5
134
330
22
100
AcDbEntity
  8
_0-2_
  6
Continuous
 62
     7
100
AcDbLine
 10
17068.23026347634
 20
16179.34490234975
 30
0.0
 11
17068.23026347634
 21
16079.34457242998
 31
0.0
  0
LINE
  5
135
330
22
100
AcDbEntity
  8
_0-2_
  6
Continuous
 62
     7
100
AcDbLine
 10
17068.23026347634
 20
16079.34457242998
 30
0.0
 11
16887.84168397888
 21
16079.34457242998
 31
0.0
  0
LINE
  5
136
330
22
100
AcDbEntity
  8
_0-2_
  6
Continuous
 62
     7
100
AcDbLine
 10
17068.22531467989
 20
16179.34490234975
 30
0.0
 11
17068.22531467989
 21
16079.34457242998
 31
0.0
  0
LINE
  5
137
330
22
100
AcDbEntity
  8
_0-2_
  6
Continuous
 62
     7
100
AcDbLine
 10
9812.844323336989
 20
16154.34481986981
 30
0.0
 11
9887.843333577698
 21
16154.34481986981
 31
0.0
  0
LINE
  5
138
330
22
100
AcDbEntity
  8
_0-2_
  6
Continuous
 62
     7
100
AcDbLine
 10
9812.844323336989
 20
16154.34481986981
 30
0.0
 11
9812.844323336989
 21
16004.34432499016
 31
0.0
  0
LINE
  5
139
330
22
100
AcDbEntity
  8
_0-2_
  6
Continuous
 62
     7
100
AcDbLine
 10
9812.844323336989
 20
16004.34432499016
 30
0.0
 11
9887.843333577698
 21
16004.34432499016
 31
0.0
  0
LINE
  5
13A
330
22
100
AcDbEntity
  8
_0-2_
  6
Continuous
 62
     7
100
AcDbLine
 10
9887.843333577698
 20
16154.34481986981
 30
0.0
 11
9887.843333577698
 21
16004.34432499016
 31
0.0
  0
LINE
  5
13B
330
22
100
AcDbEntity
  8
_0-2_
  6
Continuous
 62
     7
100
AcDbLine
 10
9632.450795043068
 20
16179.34490234975
 30
0.0
 11
10068.23191307516
 21
16179.34490234975
 31
0.0
  0
LINE
  5
13C
330
22
100
AcDbEntity
  8
_0-2_
  6
Continuous
 62
     7
100
AcDbLine
 10
9632.450795043068
 20
16179.34490234975
 30
0.0
 11
9632.450795043068
 21
16079.34457242998
 31
0.0
  0
LINE
  5
13D
330
22
100
AcDbEntity
  8
_0-2_
  6
Continuous
 62
     7
100
AcDbLine
 10
9632.450795043068
 20
16079.34457242998
 30
0.0
 11
9812.844323336989
 21
16079.34457242998
 31
0.0
  0
LINE
  5
13E
330
22
100
AcDbEntity
  8
_0-2_
  6
Continuous
 62
     7
100
AcDbLine
 10
10068.23191307516
 20
16179.34490234975
 30
0.0
 11
10068.23191307516
 21
16079.34457242998
 31
0.0
  0
LINE
  5
13F
330
22
100
AcDbEntity
  8
_0-2_
  6
Continuous
 62
     7
100
AcDbLine
 10
10068.23191307516
 20
16079.34457242998
 30
0.0
 11
9887.843333577698
 21
16079.34457242998
 31
0.0
  0
LINE
  5
140
330
22
100
AcDbEntity
  8
_0-2_
  6
Continuous
 62
     7
100
AcDbLine
 10
10068.22696427871
 20
16179.34490234975
 30
0.0
 11
10068.22696427871
 21
16079.34457242998
 31
0.0
  0
LINE
  5
141
330
22
100
AcDbEntity
  8
_0-0_
  6
Continuous
 62
     3
100
AcDbLine
 10
10047.31335046958
 20
11731.35799026677
 30
0.0
 11
16653.43946559839
 21
11731.35799026677
 31
0.0
  0
LINE
  5
142
330
22
100
AcDbEntity
  8
_0-0_
  6
Continuous
 62
     3
100
AcDbLine
 10
23653.4402903978
 20
11731.35799026677
 30
0.0
 11
17047.31170087077
 21
11731.35799026677
 31
0.0
  0
LINE
  5
143
330
22
100
AcDbEntity
  8
_0-0_
  6
Continuous
 62
     3
100
AcDbLine
 10
24047.31500006841
 20
11731.35799026677
 30
0.0
 11
30653.43864079898
 21
11731.35799026677
 31
0.0
  0
LINE
  5
144
330
22
100
AcDbEntity
  8
_0-0_
  6
Continuous
 62
     3
100
AcDbLine
 10
33850.37599563429
 20
11731.35799026677
 30
0.0
 11
31047.31335046959
 21
11731.35799026677
 31
0.0
  0
LINE
  5
145
330
22
100
AcDbEntity
  8
_0-2_
  6
Continuous
 62
     7
100
AcDbLine
 10
30812.87649051393
 20
20403.91468697813
 30
0.0
 11
30887.87550075464
 21
20403.91468697813
 31
0.0
  0
LINE
  5
146
330
22
100
AcDbEntity
  8
_0-2_
  6
Continuous
 62
     7
100
AcDbLine
 10
30812.87649051393
 20
20403.91468697813
 30
0.0
 11
30812.87649051393
 21
20253.91419209848
 31
0.0
  0
LINE
  5
147
330
22
100
AcDbEntity
  8
_0-2_
  6
Continuous
 62
     7
100
AcDbLine
 10
30812.87649051393
 20
20253.91419209848
 30
0.0
 11
30887.87550075464
 21
20253.91419209848
 31
0.0
  0
LINE
  5
148
330
22
100
AcDbEntity
  8
_0-2_
  6
Continuous
 62
     7
100
AcDbLine
 10
30887.87550075464
 20
20403.91468697813
 30
0.0
 11
30887.87550075464
 21
20253.91419209848
 31
0.0
  0
LINE
  5
149
330
22
100
AcDbEntity
  8
ADD_LINE
  6
DOT
 62
     7
100
AcDbLine
 10
30850.37847003251
 20
20484.39572648932
 30
0.0
 11
30850.37847003251
 21
20221.9053766424
 31
0.0
  0
LINE
  5
14A
330
22
100
AcDbEntity
  8
ADD_LINE
  6
DOT
 62
     7
100
AcDbLine
 10
30835.27969205532
 20
20279.99063780689
 30
0.0
 11
30867.59038409501
 21
20279.99063780689
 31
0.0
  0
LINE
  5
14B
330
22
100
AcDbEntity
  8
_0-2_
  6
Continuous
 62
     7
100
AcDbLine
 10
30659.87949938218
 20
20328.91320233919
 30
0.0
 11
30812.87649051393
 21
20328.91320233919
 31
0.0
  0
LINE
  5
14C
330
22
100
AcDbEntity
  8
_0-2_
  6
Continuous
 62
     7
100
AcDbLine
 10
30659.87949938218
 20
20428.91476945807
 30
0.0
 11
31040.87744068284
 21
20428.91476945807
 31
0.0
  0
LINE
  5
14D
330
22
100
AcDbEntity
  8
_0-2_
  6
Continuous
 62
     7
100
AcDbLine
 10
31040.87744068284
 20
20328.91320233919
 30
0.0
 11
30887.87550075464
 21
20328.91320233919
 31
0.0
  0
LINE
  5
14E
330
22
100
AcDbEntity
  8
_0-2_
  6
Continuous
 62
     7
100
AcDbLine
 10
30659.87949938218
 20
20428.91476945807
 30
0.0
 11
30659.87949938218
 21
20328.91320233919
 31
0.0
  0
LINE
  5
14F
330
22
100
AcDbEntity
  8
_0-2_
  6
Continuous
 62
     7
100
AcDbLine
 10
31040.87744068284
 20
20428.91476945807
 30
0.0
 11
31040.87744068284
 21
20328.91320233919
 31
0.0
  0
LINE
  5
150
330
22
100
AcDbEntity
  8
_0-2_
  6
Continuous
 62
     7
100
AcDbLine
 10
31012.38227070819
 20
24679.69709169731
 30
0.0
 11
31012.38227070819
 21
24579.69676177754
 31
0.0
  0
LINE
  5
151
330
22
100
AcDbEntity
  8
_0-2_
  6
Continuous
 62
     7
100
AcDbLine
 10
30688.3796181533
 20
24679.69709169731
 30
0.0
 11
31012.38227070819
 21
24679.69709169731
 31
0.0
  0
LINE
  5
152
330
22
100
AcDbEntity
  8
_0-2_
  6
Continuous
 62
     7
100
AcDbLine
 10
9740.376622481836
 20
24731.35757786707
 30
0.0
 11
9740.000513951429
 21
24675.01553025305
 31
0.0
  0
LINE
  5
153
330
22
100
AcDbEntity
  8
_0-2_
  6
Continuous
 62
     7
100
AcDbLine
 10
9960.375368786733
 20
24731.35757786707
 30
0.0
 11
9960.753951715364
 21
24675.01553025305
 31
0.0
  0
LINE
  5
154
330
22
100
AcDbEntity
  8
_0-2_
  6
Continuous
 62
     7
100
AcDbLine
 10
16740.37744728124
 20
24731.35757786707
 30
0.0
 11
16740.00133875083
 21
24675.01553025305
 31
0.0
  0
LINE
  5
155
330
22
100
AcDbEntity
  8
_0-2_
  6
Continuous
 62
     7
100
AcDbLine
 10
16960.37619358614
 20
24731.35757786707
 30
0.0
 11
16960.75230211655
 21
24675.01553025305
 31
0.0
  0
LINE
  5
156
330
22
100
AcDbEntity
  8
_0-2_
  6
Continuous
 62
     7
100
AcDbLine
 10
23740.38074647888
 20
24731.35757786707
 30
0.0
 11
23740.02938193074
 21
24678.88054028261
 31
0.0
  0
LINE
  5
157
330
22
100
AcDbEntity
  8
_0-2_
  6
Continuous
 62
     7
100
AcDbLine
 10
23960.37949278377
 20
24731.35757786707
 30
0.0
 11
23960.73085733192
 21
24678.88054028261
 31
0.0
  0
LINE
  5
158
330
22
100
AcDbEntity
  8
_0-2_
  6
Continuous
 62
     7
100
AcDbLine
 10
30740.37909688006
 20
24731.35757786707
 30
0.0
 11
30740.03268112837
 21
24679.69709169731
 31
0.0
  0
LINE
  5
159
330
22
100
AcDbEntity
  8
_0-2_
  6
Continuous
 62
     7
100
AcDbLine
 10
30960.37784318496
 20
24731.35757786707
 30
0.0
 11
30960.72178453843
 21
24679.69709169731
 31
0.0
  0
LINE
  5
15A
330
22
100
AcDbEntity
  8
_0-2_
  6
Continuous
 62
     7
100
AcDbLine
 10
9739.329952032091
 20
24575.01520033329
 30
0.0
 11
9711.609268702275
 21
20429.49377864304
 31
0.0
  0
LINE
  5
15B
330
22
100
AcDbEntity
  8
_0-2_
  6
Continuous
 62
     7
100
AcDbLine
 10
9961.422039236479
 20
24575.01520033329
 30
0.0
 11
9989.142722566292
 21
20429.49377864304
 31
0.0
  0
LINE
  5
15C
330
22
100
AcDbEntity
  8
_0-2_
  6
Continuous
 62
     7
100
AcDbLine
 10
16961.42038963766
 20
24575.01520033329
 30
0.0
 11
16989.1435473657
 21
20429.49501584215
 31
0.0
  0
LINE
  5
15D
330
22
100
AcDbEntity
  8
_0-2_
  6
Continuous
 62
     7
100
AcDbLine
 10
16711.61009350168
 20
20429.49501584215
 30
0.0
 11
16739.33077683149
 21
24575.01520033329
 31
0.0
  0
LINE
  5
15E
330
22
100
AcDbEntity
  8
_0-2_
  6
Continuous
 62
     7
100
AcDbLine
 10
23961.39894485304
 20
24578.88021036284
 30
0.0
 11
23989.14189776689
 21
20429.49501584215
 31
0.0
  0
LINE
  5
15F
330
22
100
AcDbEntity
  8
_0-2_
  6
Continuous
 62
     7
100
AcDbLine
 10
23711.60844390287
 20
20429.49501584215
 30
0.0
 11
23739.35634561317
 21
24578.88021036284
 31
0.0
  0
LINE
  5
160
330
22
100
AcDbEntity
  8
_0-2_
  6
Continuous
 62
     7
100
AcDbLine
 10
9682.515294356836
 20
16079.34457242998
 30
0.0
 11
9655.108859601767
 21
11980.86146102268
 31
0.0
  0
LINE
  5
161
330
22
100
AcDbEntity
  8
_0-2_
  6
Continuous
 62
     7
100
AcDbLine
 10
10018.23669691173
 20
16079.34457242998
 30
0.0
 11
10045.6431316668
 21
11980.86146102268
 31
0.0
  0
LINE
  5
162
330
22
100
AcDbEntity
  8
_0-2_
  6
Continuous
 62
     7
100
AcDbLine
 10
9710.938706782933
 20
20329.49468592238
 30
0.0
 11
9683.183381877951
 21
16179.34490234975
 31
0.0
  0
LINE
  5
163
330
22
100
AcDbEntity
  8
_0-2_
  6
Continuous
 62
     7
100
AcDbLine
 10
9989.813284485636
 20
20329.49468592238
 30
0.0
 11
10017.56860939062
 21
16179.34490234975
 31
0.0
  0
LINE
  5
164
330
22
100
AcDbEntity
  8
_0-2_
  6
Continuous
 62
     7
100
AcDbLine
 10
16655.11710759585
 20
11982.24836122854
 30
0.0
 11
16682.51611915624
 21
16079.34457242998
 31
0.0
  0
LINE
  5
165
330
22
100
AcDbEntity
  8
_0-2_
  6
Continuous
 62
     7
100
AcDbLine
 10
17018.23504731291
 20
16079.34457242998
 30
0.0
 11
17045.6340588733
 21
11982.24836122854
 31
0.0
  0
LINE
  5
166
330
22
100
AcDbEntity
  8
_0-2_
  6
Continuous
 62
     7
100
AcDbLine
 10
16989.81163488682
 20
20329.49344872327
 30
0.0
 11
17017.5669597918
 21
16179.34490234975
 31
0.0
  0
LINE
  5
167
330
22
100
AcDbEntity
  8
_0-2_
  6
Continuous
 62
     7
100
AcDbLine
 10
16683.18668107558
 20
16179.34490234975
 30
0.0
 11
16710.94200598057
 21
20329.49344872327
 31
0.0
  0
LINE
  5
168
330
22
100
AcDbEntity
  8
_0-2_
  6
Continuous
 62
     7
100
AcDbLine
 10
23655.11793239527
 20
11982.24836122854
 30
0.0
 11
23682.51694395565
 21
16079.34457242998
 31
0.0
  0
LINE
  5
169
330
22
100
AcDbEntity
  8
_0-2_
  6
Continuous
 62
     7
100
AcDbLine
 10
24018.23339771409
 20
16079.34457242998
 30
0.0
 11
24045.63735807094
 21
11982.24836122854
 31
0.0
  0
LINE
  5
16A
330
22
100
AcDbEntity
  8
_0-2_
  6
Continuous
 62
     7
100
AcDbLine
 10
23989.809985288
 20
20329.49344872327
 30
0.0
 11
24017.56531019298
 21
16179.34490234975
 31
0.0
  0
LINE
  5
16B
330
22
100
AcDbEntity
  8
_0-2_
  6
Continuous
 62
     7
100
AcDbLine
 10
23683.18503147677
 20
16179.34490234975
 30
0.0
 11
23710.94035638176
 21
20329.49344872327
 31
0.0
  0
LINE
  5
16C
330
22
100
AcDbEntity
  8
_0-2_
  6
Continuous
 62
     7
100
AcDbLine
 10
30655.11628279645
 20
11982.24836122854
 30
0.0
 11
30682.51529435684
 21
16079.34457242998
 31
0.0
  0
LINE
  5
16D
330
22
100
AcDbEntity
  8
_0-2_
  6
Continuous
 62
     7
100
AcDbLine
 10
31018.23174811528
 20
16079.34457242998
 30
0.0
 11
31045.63570847213
 21
11982.24836122854
 31
0.0
  0
LINE
  5
16E
330
22
100
AcDbEntity
  8
_0-3_
  6
Continuous
 62
     6
100
AcDbLine
 10
23850.3776452331
 20
24529.77825195913
 30
0.0
 11
23850.3776452331
 21
11932.74555031216
 31
0.0
  0
LINE
  5
16F
330
22
100
AcDbEntity
  8
_0-0_
  6
CENTER1
 62
     4
100
AcDbLine
 10
30850.37599563428
 20
7899.494999346163
 30
0.0
 11
30850.37599563428
 21
25457.71222841605
 31
0.0
  0
LINE
  5
170
330
22
100
AcDbEntity
  8
_0-3_
  6
Continuous
 62
     6
100
AcDbLine
 10
30850.37599563428
 20
24529.77825195913
 30
0.0
 11
30850.37599563428
 21
11930.4295135723
 31
0.0
  0
LINE
  5
171
330
22
100
AcDbEntity
  8
_0-3_
  6
Continuous
 62
     6
100
AcDbLine
 10
10209.58933495016
 20
12090.45132126866
 30
0.0
 11
10302.52278353546
 21
12267.54895112508
 31
0.0
  0
LINE
  5
172
330
22
100
AcDbEntity
  8
_0-3_
  6
Continuous
 62
     6
100
AcDbLine
 10
10121.04052002195
 20
12136.91804556132
 30
0.0
 11
10213.97396860725
 21
12314.01567541774
 31
0.0
  0
LINE
  5
173
330
22
100
AcDbEntity
  8
_0-9_
  6
Continuous
 62
     4
100
AcDbLine
 10
6335.124629766466
 20
24731.35757786707
 30
0.0
 11
6335.124629766466
 21
11731.35922746588
 31
0.0
  0
LINE
  5
174
330
22
100
AcDbEntity
  8
_0-9_
  6
Continuous
 62
     4
100
AcDbLine
 10
9338.650647239015
 20
24731.35757786707
 30
0.0
 11
6335.124629766466
 21
24731.35757786707
 31
0.0
  0
LINE
  5
175
330
22
100
AcDbEntity
  8
_0-9_
  6
Continuous
 62
     4
100
AcDbLine
 10
9338.650647239015
 20
24529.77825195913
 30
0.0
 11
6335.124629766466
 21
24529.77825195913
 31
0.0
  0
LINE
  5
176
330
22
100
AcDbEntity
  8
_0-9_
  6
Continuous
 62
     4
100
AcDbLine
 10
9338.650647239015
 20
20279.77783955942
 30
0.0
 11
6335.124629766466
 21
20279.77783955942
 31
0.0
  0
LINE
  5
177
330
22
100
AcDbEntity
  8
_0-9_
  6
Continuous
 62
     4
100
AcDbLine
 10
9338.650647239015
 20
16029.77742715971
 30
0.0
 11
6335.124629766466
 21
16029.77742715971
 31
0.0
  0
LINE
  5
178
330
22
100
AcDbEntity
  8
_0-9_
  6
Continuous
 62
     4
100
AcDbLine
 10
9355.921946858947
 20
11731.35922746588
 30
0.0
 11
6332.756630663847
 21
11731.35922746588
 31
0.0
  0
LINE
  5
179
330
22
100
AcDbEntity
  8
_0-9_
  6
Continuous
 62
     4
100
AcDbLine
 10
7135.124794726346
 20
11830.76570181132
 30
0.0
 11
6335.124629766466
 21
11830.76570181132
 31
0.0
  0
LINE
  5
17A
330
22
100
AcDbEntity
  8
_0-9_
  6
Continuous
 62
     4
100
AcDbLine
 10
6332.756630663847
 20
11731.35922746588
 30
0.0
 11
6332.756630663847
 21
8731.359227465883
 31
0.0
  0
LINE
  5
17B
330
22
100
AcDbEntity
  8
_0-9_
  6
Continuous
 62
     4
100
AcDbLine
 10
9355.921946858947
 20
8731.359227465883
 30
0.0
 11
6332.756630663847
 21
8731.359227465883
 31
0.0
  0
LINE
  5
17C
330
22
100
AcDbEntity
  8
_0-0_
  6
Continuous
 62
     4
100
AcDbLine
 10
8832.356602950586
 20
11731.36046466499
 30
0.0
 11
5850.377645233105
 21
11731.36046466499
 31
0.0
  0
LINE
  5
17D
330
22
100
AcDbEntity
  8
_0-0_
  6
Continuous
 62
     4
100
AcDbLine
 10
8832.356602950586
 20
8731.359227465883
 30
0.0
 11
5350.375995634289
 21
8731.359227465883
 31
0.0
  0
LINE
  5
17E
330
22
100
AcDbEntity
  8
_0-0_
  6
Continuous
 62
     4
100
AcDbLine
 10
9350.376820433693
 20
24731.35757786707
 30
0.0
 11
5350.375995634289
 21
24731.35757786707
 31
0.0
  0
LINE
  5
17F
330
22
100
AcDbEntity
  8
_0-0_
  6
Continuous
 62
     4
100
AcDbLine
 10
5350.375995634289
 20
24731.35757786707
 30
0.0
 11
5350.375995634289
 21
8731.359227465883
 31
0.0
  0
LINE
  5
180
330
22
100
AcDbEntity
  8
_0-9_
  6
Continuous
 62
     4
100
AcDbLine
 10
7135.124794726346
 20
11331.35295899037
 30
0.0
 11
6332.756630663847
 21
11331.35295899037
 31
0.0
  0
LINE
  5
181
330
22
100
AcDbEntity
  8
ADD_LINE
  6
DOT
 62
     3
100
AcDbLine
 10
7135.124794726346
 20
11331.35790778683
 30
0.0
 11
6626.875975839102
 21
11331.35790778683
 31
0.0
  0
LINE
  5
182
330
22
100
AcDbEntity
  8
_0-9_
  6
Continuous
 62
     4
100
AcDbLine
 10
7135.124794726346
 20
11331.35790778683
 30
0.0
 11
6332.756630663847
 21
11331.35790778683
 31
0.0
  0
LINE
  5
183
330
22
100
AcDbEntity
  8
_0-0_
  6
Continuous
 62
     7
100
AcDbLine
 10
37702.88041655912
 20
24731.35757786707
 30
0.0
 11
37922.87916286401
 21
24731.35757786707
 31
0.0
  0
LINE
  5
184
330
22
100
AcDbEntity
  8
_0-0_
  6
Continuous
 62
     7
100
AcDbLine
 10
37587.87533579476
 20
11306.35658810777
 30
0.0
 11
37587.87533579476
 21
11356.35551586854
 31
0.0
  0
LINE
  5
185
330
22
100
AcDbEntity
  8
_0-2_
  6
Continuous
 62
     7
100
AcDbLine
 10
38029.87709096791
 20
8731.35799026677
 30
0.0
 11
37595.87753965878
 21
8731.35799026677
 31
0.0
  0
LINE
  5
186
330
22
100
AcDbEntity
  8
_0-2_
  6
Continuous
 62
     7
100
AcDbLine
 10
38012.6552793125
 20
11306.35658810777
 30
0.0
 11
38029.87709096791
 21
8731.35799026677
 31
0.0
  0
LINE
  5
187
330
22
100
AcDbEntity
  8
_0-2_
  6
Continuous
 62
     7
100
AcDbLine
 10
37613.09935131419
 20
11306.35658810777
 30
0.0
 11
37595.87753965878
 21
8731.35799026677
 31
0.0
  0
LINE
  5
188
330
22
100
AcDbEntity
  8
_0-3_
  6
Continuous
 62
     7
100
AcDbLine
 10
37563.76974827365
 20
11880.86113110291
 30
0.0
 11
37775.55349246706
 21
11880.86113110291
 31
0.0
  0
LINE
  5
189
330
22
100
AcDbEntity
  8
_0-3_
  6
Continuous
 62
     7
100
AcDbLine
 10
38061.59392743326
 20
11880.86113110291
 30
0.0
 11
37850.54755391132
 21
11880.86113110291
 31
0.0
  0
LINE
  5
18A
330
22
100
AcDbEntity
  8
_0-3_
  6
Continuous
 62
     7
100
AcDbLine
 10
37563.76974827365
 20
11980.86146102268
 30
0.0
 11
37563.76974827365
 21
11880.86113110291
 31
0.0
  0
LINE
  5
18B
330
22
100
AcDbEntity
  8
_0-3_
  6
Continuous
 62
     7
100
AcDbLine
 10
37563.76974827365
 20
11980.86146102268
 30
0.0
 11
38061.59392743326
 21
11980.86146102268
 31
0.0
  0
LINE
  5
18C
330
22
100
AcDbEntity
  8
_0-3_
  6
Continuous
 62
     7
100
AcDbLine
 10
38061.59392743326
 20
11980.86146102268
 30
0.0
 11
38061.59392743326
 21
11880.86113110291
 31
0.0
  0
LINE
  5
18D
330
22
100
AcDbEntity
  8
_0-2_
  6
Continuous
 62
     7
100
AcDbLine
 10
37616.93961736149
 20
11880.86113110291
 30
0.0
 11
37613.43092067652
 21
11356.35551586854
 31
0.0
  0
LINE
  5
18E
330
22
100
AcDbEntity
  8
_0-2_
  6
Continuous
 62
     7
100
AcDbLine
 10
38008.8150132652
 20
11880.86113110291
 30
0.0
 11
38012.32370995017
 21
11356.35551586854
 31
0.0
  0
LINE
  5
18F
330
22
100
AcDbEntity
  8
ADD_LINE
  6
DOT
 62
     4
100
AcDbLine
 10
37812.87731531334
 20
16240.6765739872
 30
0.0
 11
37812.87731531334
 21
7731.357165467359
 31
0.0
  0
LINE
  5
190
330
22
100
AcDbEntity
  8
_0-2_
  6
Continuous
 62
     7
100
AcDbLine
 10
37622.38081906124
 20
20329.49344872327
 30
0.0
 11
38003.37876036191
 21
20329.49344872327
 31
0.0
  0
LINE
  5
191
330
22
100
AcDbEntity
  8
_0-2_
  6
Continuous
 62
     7
100
AcDbLine
 10
37622.38081906124
 20
20429.49501584215
 30
0.0
 11
38003.37876036191
 21
20429.49501584215
 31
0.0
  0
LINE
  5
192
330
22
100
AcDbEntity
  8
_0-2_
  6
Continuous
 62
     7
100
AcDbLine
 10
37622.38081906124
 20
20429.49501584215
 30
0.0
 11
37622.38081906124
 21
20329.49344872327
 31
0.0
  0
LINE
  5
193
330
22
100
AcDbEntity
  8
_0-2_
  6
Continuous
 62
     7
100
AcDbLine
 10
38003.37876036191
 20
20429.49501584215
 30
0.0
 11
38003.37876036191
 21
20329.49344872327
 31
0.0
  0
LINE
  5
194
330
22
100
AcDbEntity
  8
_0-2_
  6
Continuous
 62
     7
100
AcDbLine
 10
37650.87846343412
 20
24578.88021036284
 30
0.0
 11
37650.87846343412
 21
24678.88054028261
 31
0.0
  0
LINE
  5
195
330
22
100
AcDbEntity
  8
_0-2_
  6
Continuous
 62
     7
100
AcDbLine
 10
37650.87846343412
 20
24678.88054028261
 30
0.0
 11
37974.87616719257
 21
24678.88054028261
 31
0.0
  0
LINE
  5
196
330
22
100
AcDbEntity
  8
_0-2_
  6
Continuous
 62
     7
100
AcDbLine
 10
37974.87616719257
 20
24678.88054028261
 30
0.0
 11
37974.87616719257
 21
24578.88021036284
 31
0.0
  0
LINE
  5
197
330
22
100
AcDbEntity
  8
_0-2_
  6
Continuous
 62
     7
100
AcDbLine
 10
37650.87846343412
 20
24578.88021036284
 30
0.0
 11
37974.87616719257
 21
24578.88021036284
 31
0.0
  0
LINE
  5
198
330
22
100
AcDbEntity
  8
_0-2_
  6
Continuous
 62
     7
100
AcDbLine
 10
37594.9496403239
 20
16179.34490234975
 30
0.0
 11
38030.730758356
 21
16179.34490234975
 31
0.0
  0
LINE
  5
199
330
22
100
AcDbEntity
  8
_0-2_
  6
Continuous
 62
     7
100
AcDbLine
 10
37594.9496403239
 20
16179.34490234975
 30
0.0
 11
37594.9496403239
 21
16079.34457242998
 31
0.0
  0
LINE
  5
19A
330
22
100
AcDbEntity
  8
_0-2_
  6
Continuous
 62
     7
100
AcDbLine
 10
37594.9496403239
 20
16079.34457242998
 30
0.0
 11
38030.730758356
 21
16079.34457242998
 31
0.0
  0
LINE
  5
19B
330
22
100
AcDbEntity
  8
_0-2_
  6
Continuous
 62
     7
100
AcDbLine
 10
38030.730758356
 20
16179.34490234975
 30
0.0
 11
38030.730758356
 21
16079.34457242998
 31
0.0
  0
LINE
  5
19C
330
22
100
AcDbEntity
  8
_0-2_
  6
Continuous
 62
     7
100
AcDbLine
 10
38030.72580955955
 20
16179.34490234975
 30
0.0
 11
38030.72580955955
 21
16079.34457242998
 31
0.0
  0
LINE
  5
19D
330
22
100
AcDbEntity
  8
_0-0_
  6
CENTER1
 62
     4
100
AcDbLine
 10
37812.87731531334
 20
7731.357165467359
 30
0.0
 11
37812.87731531334
 21
25455.678273074
 31
0.0
  0
LINE
  5
19E
330
22
100
AcDbEntity
  8
_0-2_
  6
Continuous
 62
     7
100
AcDbLine
 10
37702.88041655912
 20
24731.35757786707
 30
0.0
 11
37702.52905201098
 21
24678.88054028261
 31
0.0
  0
LINE
  5
19F
330
22
100
AcDbEntity
  8
_0-2_
  6
Continuous
 62
     7
100
AcDbLine
 10
37922.87916286401
 20
24731.35757786707
 30
0.0
 11
37923.23052741216
 21
24678.88054028261
 31
0.0
  0
LINE
  5
1A0
330
22
100
AcDbEntity
  8
_0-2_
  6
Continuous
 62
     7
100
AcDbLine
 10
37923.89861493326
 20
24578.88021036284
 30
0.0
 11
37951.64156784712
 21
20429.49501584215
 31
0.0
  0
LINE
  5
1A1
330
22
100
AcDbEntity
  8
_0-2_
  6
Continuous
 62
     7
100
AcDbLine
 10
37674.10811398311
 20
20429.49501584215
 30
0.0
 11
37701.85601569341
 21
24578.88021036284
 31
0.0
  0
LINE
  5
1A2
330
22
100
AcDbEntity
  8
_0-2_
  6
Continuous
 62
     7
100
AcDbLine
 10
37617.61760247551
 20
11982.24836122854
 30
0.0
 11
37645.01661403589
 21
16079.34457242998
 31
0.0
  0
LINE
  5
1A3
330
22
100
AcDbEntity
  8
_0-2_
  6
Continuous
 62
     7
100
AcDbLine
 10
37980.73306779434
 20
16079.34457242998
 30
0.0
 11
38008.13702815118
 21
11982.24836122854
 31
0.0
  0
LINE
  5
1A4
330
22
100
AcDbEntity
  8
_0-2_
  6
Continuous
 62
     7
100
AcDbLine
 10
37952.30965536824
 20
20329.49344872327
 30
0.0
 11
37980.06498027323
 21
16179.34490234975
 31
0.0
  0
LINE
  5
1A5
330
22
100
AcDbEntity
  8
_0-2_
  6
Continuous
 62
     7
100
AcDbLine
 10
37645.68470155701
 20
16179.34490234975
 30
0.0
 11
37673.44002646199
 21
20329.49344872327
 31
0.0
  0
LINE
  5
1A6
330
22
100
AcDbEntity
  8
_0-2_
  6
Continuous
 62
     7
100
AcDbLine
 10
37775.55349246706
 20
11880.86113110291
 30
0.0
 11
37850.54755391132
 21
11880.86113110291
 31
0.0
  0
LINE
  5
1A7
330
22
100
AcDbEntity
  8
_0-2_
  6
Continuous
 62
     7
100
AcDbLine
 10
38212.96029013387
 20
11261.35718196334
 30
0.0
 11
38042.32331404645
 21
11261.35718196334
 31
0.0
  0
LINE
  5
1A8
330
22
100
AcDbEntity
  8
_0-0_
  6
Continuous
 62
     7
100
AcDbLine
 10
38213.1607163902
 20
11231.35634066795
 30
0.0
 11
38013.16005655067
 21
11231.35634066795
 31
0.0
  0
LINE
  5
1A9
330
22
100
AcDbEntity
  8
_0-0_
  6
Continuous
 62
     7
100
AcDbLine
 10
38011.82140711021
 20
11431.35452610925
 30
0.0
 11
38042.32331404645
 21
11431.35452610925
 31
0.0
  0
LINE
  5
1AA
330
22
100
AcDbEntity
  8
_0-0_
  6
Continuous
 62
     7
100
AcDbLine
 10
38012.6552793125
 20
11306.35658810777
 30
0.0
 11
37587.87533579476
 21
11306.35658810777
 31
0.0
  0
LINE
  5
1AB
330
22
100
AcDbEntity
  8
_0-2_
  6
Continuous
 62
     7
100
AcDbLine
 10
38012.32370995017
 20
11356.35551586854
 30
0.0
 11
38012.6552793125
 21
11306.35658810777
 31
0.0
  0
LINE
  5
1AC
330
22
100
AcDbEntity
  8
_0-2_
  6
Continuous
 62
     3
100
AcDbLine
 10
38017.40859830533
 20
11731.36046466499
 30
0.0
 11
39816.60788303928
 21
11731.36046466499
 31
0.0
  0
LINE
  5
1AD
330
22
100
AcDbEntity
  8
_0-2_
  6
Continuous
 62
     3
100
AcDbLine
 10
35816.60953263809
 20
11731.36046466499
 30
0.0
 11
37615.80881737205
 21
11731.36046466499
 31
0.0
  0
LINE
  5
1AE
330
22
100
AcDbEntity
  8
_0-0_
  6
Continuous
 62
     7
100
AcDbLine
 10
37587.87533579476
 20
11356.35551586854
 30
0.0
 11
38012.32370995017
 21
11356.35551586854
 31
0.0
  0
LINE
  5
1AF
330
22
100
AcDbEntity
  8
_0-2_
  6
Continuous
 62
     7
100
AcDbLine
 10
37591.61167711655
 20
11356.35551586854
 30
0.0
 11
38011.1335244033
 21
11356.35551586854
 31
0.0
  0
LINE
  5
1B0
330
22
100
AcDbEntity
  8
_0-2_
  6
Continuous
 62
     7
100
AcDbLine
 10
38022.08768535136
 20
11431.35328891014
 30
0.0
 11
38042.32331404645
 21
11431.35328891014
 31
0.0
  0
LINE
  5
1B1
330
22
100
AcDbEntity
  8
_0-2_
  6
Continuous
 62
     7
100
AcDbLine
 10
38042.32331404645
 20
11261.35718196334
 30
0.0
 11
38042.32331404645
 21
11431.35328891014
 31
0.0
  0
LINE
  5
1B2
330
22
100
AcDbEntity
  8
_0-2_
  6
Continuous
 62
     7
100
AcDbLine
 10
38212.96029013387
 20
11261.35718196334
 30
0.0
 11
38213.1607163902
 21
11231.35386626972
 31
0.0
  0
LINE
  5
1B3
330
22
100
AcDbEntity
  8
_0-2_
  6
Continuous
 62
     7
100
AcDbLine
 10
38213.1607163902
 20
11231.35386626972
 30
0.0
 11
38023.41891159712
 21
11231.35386626972
 31
0.0
  0
LINE
  5
1B4
330
22
100
AcDbEntity
  8
_0-F_
  6
Continuous
 62
     3
100
AcDbLine
 10
8213.403207416382
 20
11731.35675306765
 30
0.0
 11
8613.399578298979
 21
11331.3554333886
 31
0.0
  0
LINE
  5
1B5
330
22
100
AcDbEntity
  8
_0-F_
  6
Continuous
 62
     3
100
AcDbLine
 10
8213.403207416382
 20
11731.35675306765
 30
0.0
 11
7813.399413339102
 21
11331.3554333886
 31
0.0
  0
LINE
  5
1B6
330
22
100
AcDbEntity
  8
_0-F_
  6
Continuous
 62
     3
100
AcDbLine
 10
7813.399413339102
 20
11331.3554333886
 30
0.0
 11
7413.403042456498
 21
11731.35675306765
 31
0.0
  0
LINE
  5
1B7
330
22
100
AcDbEntity
  8
_0-F_
  6
Continuous
 62
     3
100
AcDbLine
 10
7498.012615408355
 20
11638.84890097728
 30
0.0
 11
7190.521622217902
 21
11331.3554333886
 31
0.0
  0
LINE
  5
1B8
330
22
100
AcDbEntity
  8
_0-F_
  6
Continuous
 62
     3
100
AcDbLine
 10
7601.623092340367
 20
11538.93888659278
 30
0.0
 11
7394.040876335299
 21
11331.3554333886
 31
0.0
  0
LINE
  5
1B9
330
22
100
AcDbEntity
  8
_0-F_
  6
Continuous
 62
     3
100
AcDbLine
 10
7705.231094874155
 20
11439.03134660651
 30
0.0
 11
7597.552707258017
 21
11331.3554333886
 31
0.0
  0
LINE
  5
1BA
330
22
100
AcDbEntity
  8
_0-F_
  6
Continuous
 62
     3
100
AcDbLine
 10
8313.403537336142
 20
11631.35518594877
 30
0.0
 11
8013.400073178626
 21
11331.3554333886
 31
0.0
  0
LINE
  5
1BB
330
22
100
AcDbEntity
  8
_0-F_
  6
Continuous
 62
     3
100
AcDbLine
 10
8413.403867255906
 20
11531.35485602901
 30
0.0
 11
8213.403207416382
 21
11331.3554333886
 31
0.0
  0
LINE
  5
1BC
330
22
100
AcDbEntity
  8
_0-F_
  6
Continuous
 62
     3
100
AcDbLine
 10
8513.399248379213
 20
11431.35700050748
 30
0.0
 11
8413.396444061225
 21
11331.3554333886
 31
0.0
  0
LINE
  5
1BD
330
22
100
AcDbEntity
  8
_0-F_
  6
Continuous
 62
     3
100
AcDbLine
 10
8113.402877496616
 20
11631.35518594877
 30
0.0
 11
8013.400073178626
 21
11731.35675306765
 31
0.0
  0
LINE
  5
1BE
330
22
100
AcDbEntity
  8
_0-F_
  6
Continuous
 62
     3
100
AcDbLine
 10
8013.400073178626
 20
11531.35485602901
 30
0.0
 11
7813.399413339102
 21
11731.35675306765
 31
0.0
  0
LINE
  5
1BF
330
22
100
AcDbEntity
  8
_0-F_
  6
Continuous
 62
     3
100
AcDbLine
 10
7913.399743258867
 20
11431.35700050748
 30
0.0
 11
7613.40370229603
 21
11731.35675306765
 31
0.0
  0
LINE
  5
1C0
330
22
100
AcDbEntity
  8
_0-F_
  6
Continuous
 62
     3
100
AcDbLine
 10
7413.403042456498
 20
11731.35675306765
 30
0.0
 11
7113.39957829898
 21
11431.35700050748
 31
0.0
  0
LINE
  5
1C1
330
22
100
AcDbEntity
  8
_0-F_
  6
Continuous
 62
     3
100
AcDbLine
 10
7213.399908218747
 20
11531.35485602901
 30
0.0
 11
7013.399248379221
 21
11731.35675306765
 31
0.0
  0
LINE
  5
1C2
330
22
100
AcDbEntity
  8
_0-F_
  6
Continuous
 62
     3
100
AcDbLine
 10
7313.402712536735
 20
11631.35518594877
 30
0.0
 11
7213.399908218747
 21
11731.35675306765
 31
0.0
  0
LINE
  5
1C3
330
22
100
AcDbEntity
  8
_0-F_
  6
Continuous
 62
     3
100
AcDbLine
 10
7724.632851366971
 20
11924.01711056871
 30
0.0
 11
7502.169604428626
 21
11924.01711056871
 31
0.0
  0
LINE
  5
1C4
330
22
100
AcDbEntity
  8
_0-F_
  6
Continuous
 62
     3
100
AcDbLine
 10
7613.40370229603
 20
11731.35675306765
 30
0.0
 11
7724.632851366971
 21
11924.01711056871
 31
0.0
  0
LINE
  5
1C5
330
22
100
AcDbEntity
  8
_0-F_
  6
Continuous
 62
     3
100
AcDbLine
 10
7613.40370229603
 20
11731.35675306765
 30
0.0
 11
7502.169604428626
 21
11924.01711056871
 31
0.0
  0
LINE
  5
1C6
330
22
100
AcDbEntity
  8
_0-F_
  6
Continuous
 62
     3
100
AcDbLine
 10
33041.72780887331
 20
11731.35799026677
 30
0.0
 11
33441.72912855236
 21
11331.35790778683
 31
0.0
  0
LINE
  5
1C7
330
22
100
AcDbEntity
  8
_0-F_
  6
Continuous
 62
     3
100
AcDbLine
 10
33041.72780887331
 20
11731.35799026677
 30
0.0
 11
32641.72896359249
 21
11331.35790778683
 31
0.0
  0
LINE
  5
1C8
330
22
100
AcDbEntity
  8
_0-F_
  6
Continuous
 62
     3
100
AcDbLine
 10
32641.72896359249
 20
11331.35790778683
 30
0.0
 11
32241.72764391343
 21
11731.35799026677
 31
0.0
  0
LINE
  5
1C9
330
22
100
AcDbEntity
  8
_0-F_
  6
Continuous
 62
     3
100
AcDbLine
 10
32326.33969126351
 20
11638.85013817639
 30
0.0
 11
32018.84622367483
 21
11331.35790778683
 31
0.0
  0
LINE
  5
1CA
330
22
100
AcDbEntity
  8
_0-F_
  6
Continuous
 62
     3
100
AcDbLine
 10
32429.95016819552
 20
11538.94012379189
 30
0.0
 11
32222.36547779222
 21
11331.35790778683
 31
0.0
  0
LINE
  5
1CB
330
22
100
AcDbEntity
  8
_0-F_
  6
Continuous
 62
     3
100
AcDbLine
 10
32533.5581707293
 20
11439.03010940739
 30
0.0
 11
32425.88473190963
 21
11331.35790778683
 31
0.0
  0
LINE
  5
1CC
330
22
100
AcDbEntity
  8
_0-F_
  6
Continuous
 62
     3
100
AcDbLine
 10
33141.72813879306
 20
11631.35642314789
 30
0.0
 11
32841.729623432
 21
11331.35790778683
 31
0.0
  0
LINE
  5
1CD
330
22
100
AcDbEntity
  8
_0-F_
  6
Continuous
 62
     3
100
AcDbLine
 10
33241.72846871284
 20
11531.35609322812
 30
0.0
 11
33041.72780887331
 21
11331.35790778683
 31
0.0
  0
LINE
  5
1CE
330
22
100
AcDbEntity
  8
_0-F_
  6
Continuous
 62
     3
100
AcDbLine
 10
33341.72632423437
 20
11431.35576330837
 30
0.0
 11
33241.72599431461
 21
11331.35790778683
 31
0.0
  0
LINE
  5
1CF
330
22
100
AcDbEntity
  8
_0-F_
  6
Continuous
 62
     3
100
AcDbLine
 10
32941.72747895355
 20
11631.35642314789
 30
0.0
 11
32841.729623432
 21
11731.35799026677
 31
0.0
  0
LINE
  5
1D0
330
22
100
AcDbEntity
  8
_0-F_
  6
Continuous
 62
     3
100
AcDbLine
 10
32841.729623432
 20
11531.35609322812
 30
0.0
 11
32641.72896359249
 21
11731.35799026677
 31
0.0
  0
LINE
  5
1D1
330
22
100
AcDbEntity
  8
_0-F_
  6
Continuous
 62
     3
100
AcDbLine
 10
32741.72929351224
 20
11431.35576330837
 30
0.0
 11
32441.72830375295
 21
11731.35799026677
 31
0.0
  0
LINE
  5
1D2
330
22
100
AcDbEntity
  8
_0-F_
  6
Continuous
 62
     3
100
AcDbLine
 10
32241.72764391343
 20
11731.35799026677
 30
0.0
 11
31941.72665415414
 21
11431.35576330837
 31
0.0
  0
LINE
  5
1D3
330
22
100
AcDbEntity
  8
_0-F_
  6
Continuous
 62
     3
100
AcDbLine
 10
32041.72698407389
 20
11531.35609322812
 30
0.0
 11
31841.72632423436
 21
11731.35799026677
 31
0.0
  0
LINE
  5
1D4
330
22
100
AcDbEntity
  8
_0-F_
  6
Continuous
 62
     3
100
AcDbLine
 10
32141.72731399366
 20
11631.35642314789
 30
0.0
 11
32041.72698407389
 21
11731.35799026677
 31
0.0
  0
LINE
  5
1D5
330
22
100
AcDbEntity
  8
_0-F_
  6
Continuous
 62
     3
100
AcDbLine
 10
37251.15675075464
 20
11727.39524150727
 30
0.0
 11
36851.15790547382
 21
11327.39515902732
 31
0.0
  0
LINE
  5
1D6
330
22
100
AcDbEntity
  8
_0-F_
  6
Continuous
 62
     3
100
AcDbLine
 10
36851.15790547382
 20
11327.39515902732
 30
0.0
 11
36451.15658579477
 21
11727.39524150727
 31
0.0
  0
LINE
  5
1D7
330
22
100
AcDbEntity
  8
_0-F_
  6
Continuous
 62
     3
100
AcDbLine
 10
36535.76863314485
 20
11634.88738941689
 30
0.0
 11
36228.27516555617
 21
11327.39515902732
 31
0.0
  0
LINE
  5
1D8
330
22
100
AcDbEntity
  8
_0-F_
  6
Continuous
 62
     3
100
AcDbLine
 10
36639.37911007686
 20
11534.97984943061
 30
0.0
 11
36431.79441967356
 21
11327.39515902732
 31
0.0
  0
LINE
  5
1D9
330
22
100
AcDbEntity
  8
_0-F_
  6
Continuous
 62
     3
100
AcDbLine
 10
36742.98711261064
 20
11435.068597847
 30
0.0
 11
36635.31367379096
 21
11327.39515902732
 31
0.0
  0
LINE
  5
1DA
330
22
100
AcDbEntity
  8
_0-F_
  6
Continuous
 62
     3
100
AcDbLine
 10
37351.15708067441
 20
11627.39367438839
 30
0.0
 11
37051.15856531334
 21
11327.39515902732
 31
0.0
  0
LINE
  5
1DB
330
22
100
AcDbEntity
  8
_0-F_
  6
Continuous
 62
     3
100
AcDbLine
 10
37451.15741059417
 20
11527.39334446862
 30
0.0
 11
37251.15675075464
 21
11327.39515902732
 31
0.0
  0
LINE
  5
1DC
330
22
100
AcDbEntity
  8
_0-F_
  6
Continuous
 62
     3
100
AcDbLine
 10
37551.1552661157
 20
11427.39548894709
 30
0.0
 11
37451.15493619594
 21
11327.39515902732
 31
0.0
  0
LINE
  5
1DD
330
22
100
AcDbEntity
  8
_0-F_
  6
Continuous
 62
     3
100
AcDbLine
 10
37151.15642083489
 20
11627.39367438839
 30
0.0
 11
37051.15856531334
 21
11727.39524150727
 31
0.0
  0
LINE
  5
1DE
330
22
100
AcDbEntity
  8
_0-F_
  6
Continuous
 62
     3
100
AcDbLine
 10
37051.15856531334
 20
11527.39334446862
 30
0.0
 11
36851.15790547382
 21
11727.39524150727
 31
0.0
  0
LINE
  5
1DF
330
22
100
AcDbEntity
  8
_0-F_
  6
Continuous
 62
     3
100
AcDbLine
 10
36951.15823539358
 20
11427.39548894709
 30
0.0
 11
36651.15724563428
 21
11727.39524150727
 31
0.0
  0
LINE
  5
1E0
330
22
100
AcDbEntity
  8
_0-F_
  6
Continuous
 62
     3
100
AcDbLine
 10
36451.15658579477
 20
11727.39524150727
 30
0.0
 11
36151.15559603548
 21
11427.39548894709
 31
0.0
  0
LINE
  5
1E1
330
22
100
AcDbEntity
  8
_0-F_
  6
Continuous
 62
     3
100
AcDbLine
 10
36251.15592595524
 20
11527.39334446862
 30
0.0
 11
36051.1552661157
 21
11727.39524150727
 31
0.0
  0
LINE
  5
1E2
330
22
100
AcDbEntity
  8
_0-F_
  6
Continuous
 62
     3
100
AcDbLine
 10
36351.15625587499
 20
11627.39367438839
 30
0.0
 11
36251.15592595524
 21
11727.39524150727
 31
0.0
  0
LINE
  5
1E3
330
22
100
AcDbEntity
  8
_0-F_
  6
Continuous
 62
     4
100
AcDbLine
 10
10463.01225249661
 20
24667.43397408751
 30
0.0
 11
10863.01852097212
 21
25360.25063107653
 31
0.0
  0
LINE
  5
1E4
330
22
100
AcDbEntity
  8
_0-F_
  6
Continuous
 62
     4
100
AcDbLine
 10
11207.92488974323
 20
22265.34879870216
 30
0.0
 11
11607.92373502406
 21
22958.16421849207
 31
0.0
  0
LINE
  5
1E5
330
22
100
AcDbEntity
  8
_0-F_
  6
Continuous
 62
     4
100
AcDbLine
 10
10463.01225249661
 20
24667.43397408751
 30
0.0
 11
10463.01225249661
 21
24767.43430400727
 31
0.0
  0
LINE
  5
1E6
330
22
100
AcDbEntity
  8
_0-F_
  6
Continuous
 62
     4
100
AcDbLine
 10
11207.92488974323
 20
22265.34879870216
 30
0.0
 11
11207.92488974323
 21
22365.34912862193
 31
0.0
  0
LINE
  5
1E7
330
22
100
AcDbEntity
  8
_0-F_
  6
Continuous
 62
     4
100
AcDbLine
 10
11607.92373502406
 20
22958.16421849207
 30
0.0
 11
14615.87892532178
 21
22958.16421849207
 31
0.0
  0
LINE
  5
1E8
330
22
100
AcDbEntity
  8
_0-F_
  6
Continuous
 62
     4
100
AcDbLine
 10
16889.48221000295
 20
21832.56788851952
 30
0.0
 11
17289.483529682
 21
22525.38207111031
 31
0.0
  0
LINE
  5
1E9
330
22
100
AcDbEntity
  8
_0-F_
  6
Continuous
 62
     4
100
AcDbLine
 10
16889.48221000295
 20
21832.56788851952
 30
0.0
 11
16889.48221000295
 21
21932.56821843928
 31
0.0
  0
LINE
  5
1EA
330
22
100
AcDbEntity
  8
_0-F_
  6
Continuous
 62
     4
100
AcDbLine
 10
17289.483529682
 20
22525.38207111031
 30
0.0
 11
17489.48418952153
 21
22525.38207111031
 31
0.0
  0
LINE
  5
1EB
330
22
100
AcDbEntity
  8
_0-F_
  6
Continuous
 62
     4
100
AcDbLine
 10
10863.01852097212
 20
25360.25063107653
 30
0.0
 11
12802.0757422559
 21
25360.25063107653
 31
0.0
  0
LINE
  5
1EC
330
22
100
AcDbEntity
  8
_0-F_
  6
Continuous
 62
     4
100
AcDbLine
 10
16889.48221000295
 20
23460.8431669718
 30
0.0
 11
17289.483529682
 21
24153.65982396081
 31
0.0
  0
LINE
  5
1ED
330
22
100
AcDbEntity
  8
_0-F_
  6
Continuous
 62
     4
100
AcDbLine
 10
16889.48221000295
 20
23460.8431669718
 30
0.0
 11
16889.48221000295
 21
23560.84349689156
 31
0.0
  0
LINE
  5
1EE
330
22
100
AcDbEntity
  8
_0-F_
  6
Continuous
 62
     4
100
AcDbLine
 10
17289.483529682
 20
24153.65982396081
 30
0.0
 11
17489.48418952153
 21
24153.65982396081
 31
0.0
  0
LINE
  5
1EF
330
22
100
AcDbEntity
  8
_0-F_
  6
Continuous
 62
     4
100
AcDbLine
 10
20346.21653221579
 20
24529.77825195913
 30
0.0
 11
20746.21785189484
 21
25222.59490894815
 31
0.0
  0
LINE
  5
1F0
330
22
100
AcDbEntity
  8
_0-F_
  6
Continuous
 62
     4
100
AcDbLine
 10
20346.21653221579
 20
24529.77825195913
 30
0.0
 11
20346.21653221579
 21
24629.77858187889
 31
0.0
  0
LINE
  5
1F1
330
22
100
AcDbEntity
  8
_0-F_
  6
Continuous
 62
     4
100
AcDbLine
 10
20746.21785189484
 20
25222.59490894815
 30
0.0
 11
20946.21356293791
 21
25222.59490894815
 31
0.0
  0
LINE
  5
1F2
330
22
100
AcDbEntity
  8
_0-F_
  6
Continuous
 62
     4
100
AcDbLine
 10
20346.21653221579
 20
11830.76693901043
 30
0.0
 11
20746.21785189484
 21
12523.58112160123
 31
0.0
  0
LINE
  5
1F3
330
22
100
AcDbEntity
  8
_0-F_
  6
Continuous
 62
     4
100
AcDbLine
 10
20346.21653221579
 20
11830.76693901043
 30
0.0
 11
20346.21653221579
 21
11930.76479453197
 31
0.0
  0
LINE
  5
1F4
330
22
100
AcDbEntity
  8
_0-F_
  6
Continuous
 62
     4
100
AcDbLine
 10
20746.21785189484
 20
12523.58112160123
 30
0.0
 11
20946.21356293791
 21
12523.58112160123
 31
0.0
  0
LINE
  5
1F5
330
22
100
AcDbEntity
  8
_0-F_
  6
Continuous
 62
     4
100
AcDbLine
 10
20346.21653221579
 20
16029.77742715971
 30
0.0
 11
20746.21785189484
 21
16722.59408414873
 31
0.0
  0
LINE
  5
1F6
330
22
100
AcDbEntity
  8
_0-F_
  6
Continuous
 62
     4
100
AcDbLine
 10
20346.21653221579
 20
16029.77742715971
 30
0.0
 11
20346.21653221579
 21
16129.77775707948
 31
0.0
  0
LINE
  5
1F7
330
22
100
AcDbEntity
  8
_0-F_
  6
Continuous
 62
     4
100
AcDbLine
 10
20746.21785189484
 20
16722.59408414873
 30
0.0
 11
20946.21356293791
 21
16722.59408414873
 31
0.0
  0
LINE
  5
1F8
330
22
100
AcDbEntity
  8
_0-F_
  6
Continuous
 62
     4
100
AcDbLine
 10
20346.21653221579
 20
20279.77783955942
 30
0.0
 11
20746.21785189484
 21
20972.59449654844
 31
0.0
  0
LINE
  5
1F9
330
22
100
AcDbEntity
  8
_0-F_
  6
Continuous
 62
     4
100
AcDbLine
 10
20346.21653221579
 20
20279.77783955942
 30
0.0
 11
20346.21653221579
 21
20379.77816947918
 31
0.0
  0
LINE
  5
1FA
330
22
100
AcDbEntity
  8
_0-F_
  6
Continuous
 62
     4
100
AcDbLine
 10
20746.21785189484
 20
20972.59449654844
 30
0.0
 11
20946.21356293791
 21
20972.59449654844
 31
0.0
  0
LINE
  5
1FB
330
22
100
AcDbEntity
  8
_0-F_
  6
Continuous
 62
     4
100
AcDbLine
 10
10556.5172870722
 20
11231.35634066795
 30
0.0
 11
10556.5172870722
 21
11131.3572479473
 31
0.0
  0
LINE
  5
1FC
330
22
100
AcDbEntity
  8
_0-F_
  6
Continuous
 62
     4
100
AcDbLine
 10
10956.52108114949
 20
10538.53597208159
 30
0.0
 11
11756.52124610937
 21
10538.53597208159
 31
0.0
  0
LINE
  5
1FD
330
22
100
AcDbEntity
  8
_0-F_
  6
Continuous
 62
     4
100
AcDbLine
 10
10556.5172870722
 20
11231.35634066795
 30
0.0
 11
10956.52108114949
 21
10538.53597208159
 31
0.0
  0
LINE
  5
1FE
330
22
100
AcDbEntity
  8
_0-F_
  6
Continuous
 62
     4
100
AcDbLine
 10
38061.59392743326
 20
11980.86146102268
 30
0.0
 11
38061.59392743326
 21
12080.86179094244
 31
0.0
  0
LINE
  5
1FF
330
22
100
AcDbEntity
  8
_0-F_
  6
Continuous
 62
     4
100
AcDbLine
 10
38461.59524711233
 20
12673.68059240993
 30
0.0
 11
39461.59607191173
 21
12673.68059240993
 31
0.0
  0
LINE
  5
200
330
22
100
AcDbEntity
  8
_0-F_
  6
Continuous
 62
     4
100
AcDbLine
 10
38061.59392743326
 20
11980.86146102268
 30
0.0
 11
38461.59524711233
 21
12673.68059240993
 31
0.0
  0
LINE
  5
201
330
22
100
AcDbEntity
  8
_0-F_
  6
Continuous
 62
     3
100
AcDbLine
 10
37251.15675075464
 20
11727.39524150727
 30
0.0
 11
37613.49030623395
 21
11365.06416042619
 31
0.0
  0
LINE
  5
202
330
22
100
AcDbEntity
  8
_0-F_
  6
Continuous
 62
     3
100
AcDbLine
 10
35843.84523391554
 20
11731.35799026677
 30
0.0
 11
37615.93996047804
 21
11731.35799026677
 31
0.0
  0
LINE
  5
203
330
22
100
AcDbEntity
  8
_0-2_
  6
Continuous
 62
     7
100
AcDbLine
 10
30683.18338187795
 20
16179.34490234975
 30
0.0
 11
30710.93375798648
 21
20328.91320233919
 31
0.0
  0
LINE
  5
204
330
22
100
AcDbEntity
  8
_0-2_
  6
Continuous
 62
     7
100
AcDbLine
 10
30989.81328448564
 20
20328.91320233919
 30
0.0
 11
31017.56366059417
 21
16179.34490234975
 31
0.0
  0
LINE
  5
205
330
22
100
AcDbEntity
  8
_0-2_
  6
Continuous
 62
     7
100
AcDbLine
 10
30711.6018455076
 20
20428.91476945807
 30
0.0
 11
30739.36211920903
 21
24579.69676177754
 31
0.0
  0
LINE
  5
206
330
22
100
AcDbEntity
  8
_0-2_
  6
Continuous
 62
     7
100
AcDbLine
 10
30961.38987205955
 20
24579.69676177754
 30
0.0
 11
30989.14519696453
 21
20428.91476945807
 31
0.0
  0
LINE
  5
207
330
22
100
AcDbEntity
  8
_0-6_
  6
Continuous
 62
     5
100
AcDbLine
 10
9850.375995634284
 20
11930.76726893019
 30
0.0
 11
12692.64300629729
 21
11930.76726893019
 31
0.0
  0
LINE
  5
208
330
22
100
AcDbEntity
  8
_0-6_
  6
Continuous
 62
     5
100
AcDbLine
 10
9850.375995634284
 20
12130.76669157061
 30
0.0
 11
12577.17273866638
 21
12130.76669157061
 31
0.0
  0
LINE
  5
209
330
22
100
AcDbEntity
  8
_0-6_
  6
Continuous
 62
     5
100
AcDbLine
 10
9850.375995634284
 20
12030.76636165085
 30
0.0
 11
12634.90787248183
 21
12030.76636165085
 31
0.0
  0
LINE
  5
20A
330
22
100
AcDbEntity
  8
_0-6_
  6
Continuous
 62
     5
100
AcDbLine
 10
9850.375995634284
 20
12330.76735141014
 30
0.0
 11
12461.70247103546
 21
12330.76735141014
 31
0.0
  0
LINE
  5
20B
330
22
100
AcDbEntity
  8
_0-6_
  6
Continuous
 62
     5
100
AcDbLine
 10
9850.375995634284
 20
12430.76644413078
 30
0.0
 11
12403.96733722001
 21
12430.76644413078
 31
0.0
  0
LINE
  5
20C
330
22
100
AcDbEntity
  8
_0-6_
  6
Continuous
 62
     5
100
AcDbLine
 10
9850.375995634284
 20
12530.76677405055
 30
0.0
 11
12346.23220340455
 21
12530.76677405055
 31
0.0
  0
LINE
  5
20D
330
22
100
AcDbEntity
  8
_0-6_
  6
Continuous
 62
     5
100
AcDbLine
 10
9850.375995634284
 20
12630.76710397031
 30
0.0
 11
12288.4970695891
 21
12630.76710397031
 31
0.0
  0
LINE
  5
20E
330
22
100
AcDbEntity
  8
_0-6_
  6
Continuous
 62
     5
100
AcDbLine
 10
9850.375995634284
 20
12830.76652661073
 30
0.0
 11
12173.02680195819
 21
12830.76652661073
 31
0.0
  0
LINE
  5
20F
330
22
100
AcDbEntity
  8
_0-6_
  6
Continuous
 62
     5
100
AcDbLine
 10
9850.375995634284
 20
12930.76685653049
 30
0.0
 11
12115.29166814273
 21
12930.76685653049
 31
0.0
  0
LINE
  5
210
330
22
100
AcDbEntity
  8
_0-6_
  6
Continuous
 62
     5
100
AcDbLine
 10
9850.375995634284
 20
12730.76743389008
 30
0.0
 11
12230.76193577364
 21
12730.76743389008
 31
0.0
  0
LINE
  5
211
330
22
100
AcDbEntity
  8
_0-6_
  6
Continuous
 62
     5
100
AcDbLine
 10
9850.375995634284
 20
12230.76702149037
 30
0.0
 11
12519.43760485092
 21
12230.76702149037
 31
0.0
  0
LINE
  5
212
330
22
100
AcDbEntity
  8
_0-6_
  6
Continuous
 62
     5
100
AcDbLine
 10
9850.375995634284
 20
15430.76644413079
 30
0.0
 11
10671.91579715455
 21
15430.76644413079
 31
0.0
  0
LINE
  5
213
330
22
100
AcDbEntity
  8
_0-6_
  6
Continuous
 62
     5
100
AcDbLine
 10
9850.375995634284
 20
15130.76669157061
 30
0.0
 11
10845.12119860092
 21
15130.76669157061
 31
0.0
  0
LINE
  5
214
330
22
100
AcDbEntity
  8
_0-6_
  6
Continuous
 62
     5
100
AcDbLine
 10
9850.375995634284
 20
15030.76636165084
 30
0.0
 11
10902.85633241638
 21
15030.76636165084
 31
0.0
  0
LINE
  5
215
330
22
100
AcDbEntity
  8
_0-6_
  6
Continuous
 62
     5
100
AcDbLine
 10
9850.375995634284
 20
14930.76726893019
 30
0.0
 11
10960.59146623183
 21
14930.76726893019
 31
0.0
  0
LINE
  5
216
330
22
100
AcDbEntity
  8
_0-6_
  6
Continuous
 62
     5
100
AcDbLine
 10
9850.375995634284
 20
14630.76751637002
 30
0.0
 11
11133.7968676782
 21
14630.76751637002
 31
0.0
  0
LINE
  5
217
330
22
100
AcDbEntity
  8
_0-6_
  6
Continuous
 62
     5
100
AcDbLine
 10
9850.375995634284
 20
14530.76718645025
 30
0.0
 11
11191.53200149366
 21
14530.76718645025
 31
0.0
  0
LINE
  5
218
330
22
100
AcDbEntity
  8
_0-6_
  6
Continuous
 62
     5
100
AcDbLine
 10
9850.375995634284
 20
14430.76685653049
 30
0.0
 11
11249.26713530911
 21
14430.76685653049
 31
0.0
  0
LINE
  5
219
330
22
100
AcDbEntity
  8
_0-6_
  6
Continuous
 62
     5
100
AcDbLine
 10
9850.375995634284
 20
14330.76652661073
 30
0.0
 11
11307.00226912457
 21
14330.76652661073
 31
0.0
  0
LINE
  5
21A
330
22
100
AcDbEntity
  8
_0-6_
  6
Continuous
 62
     5
100
AcDbLine
 10
9850.375995634284
 20
14230.76619669096
 30
0.0
 11
11364.73740294003
 21
14230.76619669096
 31
0.0
  0
LINE
  5
21B
330
22
100
AcDbEntity
  8
_0-6_
  6
Continuous
 62
     5
100
AcDbLine
 10
9850.375995634284
 20
14130.76710397031
 30
0.0
 11
11422.47006235725
 21
14130.76710397031
 31
0.0
  0
LINE
  5
21C
330
22
100
AcDbEntity
  8
_0-6_
  6
Continuous
 62
     5
100
AcDbLine
 10
9850.375995634284
 20
13830.76735141014
 30
0.0
 11
11595.67546380362
 21
13830.76735141014
 31
0.0
  0
LINE
  5
21D
330
22
100
AcDbEntity
  8
_0-6_
  6
Continuous
 62
     5
100
AcDbLine
 10
9850.375995634284
 20
14030.76677405055
 30
0.0
 11
11480.20767057094
 21
14030.76677405055
 31
0.0
  0
LINE
  5
21E
330
22
100
AcDbEntity
  8
_0-6_
  6
Continuous
 62
     5
100
AcDbLine
 10
9850.375995634284
 20
13730.76702149037
 30
0.0
 11
11653.41059761908
 21
13730.76702149037
 31
0.0
  0
LINE
  5
21F
330
22
100
AcDbEntity
  8
_0-6_
  6
Continuous
 62
     5
100
AcDbLine
 10
9850.375995634284
 20
13430.76726893019
 30
0.0
 11
11826.61599906545
 21
13430.76726893019
 31
0.0
  0
LINE
  5
220
330
22
100
AcDbEntity
  8
_0-6_
  6
Continuous
 62
     5
100
AcDbLine
 10
9850.375995634284
 20
13530.76636165085
 30
0.0
 11
11768.88086524999
 21
13530.76636165085
 31
0.0
  0
LINE
  5
221
330
22
100
AcDbEntity
  8
_0-6_
  6
Continuous
 62
     5
100
AcDbLine
 10
9850.375995634284
 20
13630.76669157061
 30
0.0
 11
11711.14573143454
 21
13630.76669157061
 31
0.0
  0
LINE
  5
222
330
22
100
AcDbEntity
  8
_0-6_
  6
Continuous
 62
     5
100
AcDbLine
 10
9850.375995634284
 20
13330.76693901043
 30
0.0
 11
11884.3511328809
 21
13330.76693901043
 31
0.0
  0
LINE
  5
223
330
22
100
AcDbEntity
  8
_0-6_
  6
Continuous
 62
     5
100
AcDbLine
 10
9850.375995634284
 20
13230.76660909067
 30
0.0
 11
11942.08626669636
 21
13230.76660909067
 31
0.0
  0
LINE
  5
224
330
22
100
AcDbEntity
  8
_0-6_
  6
Continuous
 62
     5
100
AcDbLine
 10
9850.375995634284
 20
13130.76627917091
 30
0.0
 11
11999.82140051182
 21
13130.76627917091
 31
0.0
  0
LINE
  5
225
330
22
100
AcDbEntity
  8
_0-6_
  6
Continuous
 62
     5
100
AcDbLine
 10
9850.375995634284
 20
13030.76718645026
 30
0.0
 11
12057.55653432727
 21
13030.76718645026
 31
0.0
  0
LINE
  5
226
330
22
100
AcDbEntity
  8
_0-6_
  6
Continuous
 62
     5
100
AcDbLine
 10
9850.375995634284
 20
16830.76611421102
 30
0.0
 11
9863.626398136398
 21
16830.76611421102
 31
0.0
  0
LINE
  5
227
330
22
100
AcDbEntity
  8
_0-6_
  6
Continuous
 62
     5
100
AcDbLine
 10
9850.375995634284
 20
16730.76702149037
 30
0.0
 11
9921.361531951852
 21
16730.76702149037
 31
0.0
  0
LINE
  5
228
330
22
100
AcDbEntity
  8
_0-6_
  6
Continuous
 62
     5
100
AcDbLine
 10
9850.375995634284
 20
16630.76669157061
 30
0.0
 11
9979.096665767309
 21
16630.76669157061
 31
0.0
  0
LINE
  5
229
330
22
100
AcDbEntity
  8
_0-6_
  6
Continuous
 62
     5
100
AcDbLine
 10
9850.375995634284
 20
16530.76636165085
 30
0.0
 11
10036.83179958276
 21
16530.76636165085
 31
0.0
  0
LINE
  5
22A
330
22
100
AcDbEntity
  8
_0-6_
  6
Continuous
 62
     5
100
AcDbLine
 10
9850.375995634284
 20
16430.76603173108
 30
0.0
 11
10094.56693339822
 21
16430.76603173108
 31
0.0
  0
LINE
  5
22B
330
22
100
AcDbEntity
  8
_0-6_
  6
Continuous
 62
     5
100
AcDbLine
 10
9850.375995634284
 20
16330.76693901043
 30
0.0
 11
10152.30206721367
 21
16330.76693901043
 31
0.0
  0
LINE
  5
22C
330
22
100
AcDbEntity
  8
_0-6_
  6
Continuous
 62
     5
100
AcDbLine
 10
9850.375995634284
 20
16230.76660909067
 30
0.0
 11
10210.0347266309
 21
16230.76660909067
 31
0.0
  0
LINE
  5
22D
330
22
100
AcDbEntity
  8
_0-6_
  6
Continuous
 62
     5
100
AcDbLine
 10
9850.375995634284
 20
16130.76627917091
 30
0.0
 11
10267.77233484458
 21
16130.76627917091
 31
0.0
  0
LINE
  5
22E
330
22
100
AcDbEntity
  8
_0-6_
  6
Continuous
 62
     5
100
AcDbLine
 10
9850.375995634284
 20
16030.76594925114
 30
0.0
 11
10325.50499426182
 21
16030.76594925114
 31
0.0
  0
LINE
  5
22F
330
22
100
AcDbEntity
  8
_0-6_
  6
Continuous
 62
     5
100
AcDbLine
 10
9850.375995634284
 20
15930.76685653049
 30
0.0
 11
10383.24012807727
 21
15930.76685653049
 31
0.0
  0
LINE
  5
230
330
22
100
AcDbEntity
  8
_0-6_
  6
Continuous
 62
     5
100
AcDbLine
 10
9850.375995634284
 20
15830.76652661072
 30
0.0
 11
10440.97526189273
 21
15830.76652661072
 31
0.0
  0
LINE
  5
231
330
22
100
AcDbEntity
  8
_0-6_
  6
Continuous
 62
     5
100
AcDbLine
 10
9850.375995634284
 20
15730.76619669096
 30
0.0
 11
10498.71287010641
 21
15730.76619669096
 31
0.0
  0
LINE
  5
232
330
22
100
AcDbEntity
  8
_0-6_
  6
Continuous
 62
     5
100
AcDbLine
 10
9850.375995634284
 20
15630.7658667712
 30
0.0
 11
10556.44552952364
 21
15630.7658667712
 31
0.0
  0
LINE
  5
233
330
22
100
AcDbEntity
  8
_0-6_
  6
Continuous
 62
     5
100
AcDbLine
 10
9850.375995634284
 20
15530.76677405055
 30
0.0
 11
10614.1806633391
 21
15530.76677405055
 31
0.0
  0
LINE
  5
234
330
22
100
AcDbEntity
  8
_0-6_
  6
Continuous
 62
     5
100
AcDbLine
 10
12750.37566571452
 20
11830.76693901043
 30
0.0
 11
9850.375995634284
 21
16853.71492056131
 31
0.0
  0
LINE
  5
235
330
22
100
AcDbEntity
  8
_0-6_
  6
Continuous
 62
     5
100
AcDbLine
 10
9950.376325554048
 20
11830.76693901043
 30
0.0
 11
9950.376325554048
 21
16680.51075631406
 31
0.0
  0
LINE
  5
236
330
22
100
AcDbEntity
  8
_0-6_
  6
Continuous
 62
     5
100
AcDbLine
 10
10050.37665547381
 20
11830.76693901043
 30
0.0
 11
10050.37665547381
 21
16507.3053548677
 31
0.0
  0
LINE
  5
237
330
22
100
AcDbEntity
  8
_0-6_
  6
Continuous
 62
     5
100
AcDbLine
 10
10150.37698539357
 20
11830.76693901043
 30
0.0
 11
10150.37698539357
 21
16334.09995342133
 31
0.0
  0
LINE
  5
238
330
22
100
AcDbEntity
  8
_0-6_
  6
Continuous
 62
     5
100
AcDbLine
 10
10250.37731531334
 20
11830.76693901043
 30
0.0
 11
10250.37731531334
 21
16160.89578917407
 31
0.0
  0
LINE
  5
239
330
22
100
AcDbEntity
  8
_0-6_
  6
Continuous
 62
     5
100
AcDbLine
 10
10350.3776452331
 20
11830.76693901043
 30
0.0
 11
10350.3776452331
 21
15987.6903877277
 31
0.0
  0
LINE
  5
23A
330
22
100
AcDbEntity
  8
_0-6_
  6
Continuous
 62
     5
100
AcDbLine
 10
10450.37550075464
 20
11830.76693901043
 30
0.0
 11
10450.37550075464
 21
15814.48498628133
 31
0.0
  0
LINE
  5
23B
330
22
100
AcDbEntity
  8
_0-6_
  6
Continuous
 62
     5
100
AcDbLine
 10
9850.375995634284
 20
15330.76735141013
 30
0.0
 11
10729.65093097001
 21
15330.76735141013
 31
0.0
  0
LINE
  5
23C
330
22
100
AcDbEntity
  8
_0-6_
  6
Continuous
 62
     5
100
AcDbLine
 10
10550.3758306744
 20
11830.76693901043
 30
0.0
 11
10550.3758306744
 21
15641.27958483497
 31
0.0
  0
LINE
  5
23D
330
22
100
AcDbEntity
  8
_0-6_
  6
Continuous
 62
     5
100
AcDbLine
 10
9850.375995634284
 20
15230.76702149037
 30
0.0
 11
10787.38606478546
 21
15230.76702149037
 31
0.0
  0
LINE
  5
23E
330
22
100
AcDbEntity
  8
_0-6_
  6
Continuous
 62
     5
100
AcDbLine
 10
10750.37649051393
 20
11830.76693901043
 30
0.0
 11
10750.37649051393
 21
15294.86878194223
 31
0.0
  0
LINE
  5
23F
330
22
100
AcDbEntity
  8
_0-6_
  6
Continuous
 62
     5
100
AcDbLine
 10
10650.37616059416
 20
11830.76693901043
 30
0.0
 11
10650.37616059416
 21
15468.0741833886
 31
0.0
  0
LINE
  5
240
330
22
100
AcDbEntity
  8
_0-6_
  6
Continuous
 62
     5
100
AcDbLine
 10
10850.37682043369
 20
11830.76693901043
 30
0.0
 11
10850.37682043369
 21
15121.66461769498
 31
0.0
  0
LINE
  5
241
330
22
100
AcDbEntity
  8
_0-6_
  6
Continuous
 62
     5
100
AcDbLine
 10
9850.375995634284
 20
14830.76693901043
 30
0.0
 11
11018.32660004729
 21
14830.76693901043
 31
0.0
  0
LINE
  5
242
330
22
100
AcDbEntity
  8
_0-6_
  6
Continuous
 62
     5
100
AcDbLine
 10
9850.375995634284
 20
14730.76660909067
 30
0.0
 11
11076.06173386275
 21
14730.76660909067
 31
0.0
  0
LINE
  5
243
330
22
100
AcDbEntity
  8
_0-6_
  6
Continuous
 62
     5
100
AcDbLine
 10
11050.37500587499
 20
11830.76693901043
 30
0.0
 11
11050.37500587499
 21
14775.25505200135
 31
0.0
  0
LINE
  5
244
330
22
100
AcDbEntity
  8
_0-6_
  6
Continuous
 62
     5
100
AcDbLine
 10
10950.37715035345
 20
11830.76693901043
 30
0.0
 11
10950.37715035345
 21
14948.45921624861
 31
0.0
  0
LINE
  5
245
330
22
100
AcDbEntity
  8
_0-6_
  6
Continuous
 62
     5
100
AcDbLine
 10
11150.37533579475
 20
11830.76693901043
 30
0.0
 11
11150.37533579475
 21
14602.04841335587
 31
0.0
  0
LINE
  5
246
330
22
100
AcDbEntity
  8
_0-6_
  6
Continuous
 62
     5
100
AcDbLine
 10
11250.37566571452
 20
11830.76693901043
 30
0.0
 11
11250.37566571452
 21
14428.84424910862
 31
0.0
  0
LINE
  5
247
330
22
100
AcDbEntity
  8
_0-6_
  6
Continuous
 62
     5
100
AcDbLine
 10
11350.37599563428
 20
11830.76693901043
 30
0.0
 11
11350.37599563428
 21
14255.64008486136
 31
0.0
  0
LINE
  5
248
330
22
100
AcDbEntity
  8
_0-6_
  6
Continuous
 62
     5
100
AcDbLine
 10
9850.375995634284
 20
13930.76644413079
 30
0.0
 11
11537.94032998817
 21
13930.76644413079
 31
0.0
  0
LINE
  5
249
330
22
100
AcDbEntity
  8
_0-6_
  6
Continuous
 62
     5
100
AcDbLine
 10
11550.37665547381
 20
11830.76693901043
 30
0.0
 11
11550.37665547381
 21
13909.22804476951
 31
0.0
  0
LINE
  5
24A
330
22
100
AcDbEntity
  8
_0-6_
  6
Continuous
 62
     5
100
AcDbLine
 10
11450.37632555405
 20
11830.76693901043
 30
0.0
 11
11450.37632555405
 21
14082.43344621588
 31
0.0
  0
LINE
  5
24B
330
22
100
AcDbEntity
  8
_0-6_
  6
Continuous
 62
     5
100
AcDbLine
 10
12650.37533579475
 20
11830.76693901043
 30
0.0
 11
12650.37533579475
 21
12003.9723404568
 31
0.0
  0
LINE
  5
24C
330
22
100
AcDbEntity
  8
_0-6_
  6
Continuous
 62
     5
100
AcDbLine
 10
12550.37500587499
 20
11830.76693901043
 30
0.0
 11
12550.37500587499
 21
12177.17774190317
 31
0.0
  0
LINE
  5
24D
330
22
100
AcDbEntity
  8
_0-6_
  6
Continuous
 62
     5
100
AcDbLine
 10
12450.37715035345
 20
11830.76693901043
 30
0.0
 11
12450.37715035345
 21
12350.38190615042
 31
0.0
  0
LINE
  5
24E
330
22
100
AcDbEntity
  8
_0-6_
  6
Continuous
 62
     5
100
AcDbLine
 10
12350.37682043369
 20
11830.76693901043
 30
0.0
 11
12350.37682043369
 21
12523.58730759679
 31
0.0
  0
LINE
  5
24F
330
22
100
AcDbEntity
  8
_0-6_
  6
Continuous
 62
     5
100
AcDbLine
 10
12250.37649051393
 20
11830.76693901043
 30
0.0
 11
12250.37649051393
 21
12696.79270904316
 31
0.0
  0
LINE
  5
250
330
22
100
AcDbEntity
  8
_0-6_
  6
Continuous
 62
     5
100
AcDbLine
 10
12150.37616059416
 20
11830.76693901043
 30
0.0
 11
12150.37616059416
 21
12869.99811048953
 31
0.0
  0
LINE
  5
251
330
22
100
AcDbEntity
  8
_0-6_
  6
Continuous
 62
     5
100
AcDbLine
 10
12050.37830507263
 20
11830.76693901043
 30
0.0
 11
12050.37830507263
 21
13043.20227473678
 31
0.0
  0
LINE
  5
252
330
22
100
AcDbEntity
  8
_0-6_
  6
Continuous
 62
     5
100
AcDbLine
 10
11950.37797515286
 20
11830.76693901043
 30
0.0
 11
11950.37797515286
 21
13216.40767618315
 31
0.0
  0
LINE
  5
253
330
22
100
AcDbEntity
  8
_0-6_
  6
Continuous
 62
     5
100
AcDbLine
 10
11850.3776452331
 20
11830.76693901043
 30
0.0
 11
11850.3776452331
 21
13389.61431482863
 31
0.0
  0
LINE
  5
254
330
22
100
AcDbEntity
  8
_0-6_
  6
Continuous
 62
     5
100
AcDbLine
 10
11750.37731531334
 20
11830.76693901043
 30
0.0
 11
11750.37731531334
 21
13562.81847907589
 31
0.0
  0
LINE
  5
255
330
22
100
AcDbEntity
  8
_0-6_
  6
Continuous
 62
     5
100
AcDbLine
 10
11650.37698539358
 20
11830.76693901043
 30
0.0
 11
11650.37698539358
 21
13736.02388052226
 31
0.0
  0
LINE
  5
256
330
22
100
AcDbEntity
  8
_0-2_
  6
Continuous
 62
     7
100
AcDbLine
 10
23825.37879995228
 20
24653.88416940001
 30
0.0
 11
23875.37649051393
 21
24653.88416940001
 31
0.0
  0
LINE
  5
257
330
22
100
AcDbEntity
  8
_0-2_
  6
Continuous
 62
     7
100
AcDbLine
 10
23875.37649051393
 20
24653.88416940001
 30
0.0
 11
23875.37649051393
 21
24503.88120012214
 31
0.0
  0
LINE
  5
258
330
22
100
AcDbEntity
  8
_0-2_
  6
Continuous
 62
     7
100
AcDbLine
 10
23825.37879995228
 20
24503.88120012214
 30
0.0
 11
23875.37649051393
 21
24503.88120012214
 31
0.0
  0
LINE
  5
259
330
22
100
AcDbEntity
  8
_0-2_
  6
Continuous
 62
     7
100
AcDbLine
 10
23825.37879995228
 20
24653.88416940001
 30
0.0
 11
23825.37879995228
 21
24503.88120012214
 31
0.0
  0
LINE
  5
25A
330
22
100
AcDbEntity
  8
_0-2_
  6
Continuous
 62
     7
100
AcDbLine
 10
23688.37879335388
 20
24578.88021036284
 30
0.0
 11
23825.37879995228
 21
24578.88021036284
 31
0.0
  0
LINE
  5
25B
330
22
100
AcDbEntity
  8
_0-2_
  6
Continuous
 62
     7
100
AcDbLine
 10
24012.37649711232
 20
24578.88021036284
 30
0.0
 11
23875.37649051393
 21
24578.88021036284
 31
0.0
  0
LINE
  5
25C
330
22
100
AcDbEntity
  8
_0-2_
  6
Continuous
 62
     7
100
AcDbLine
 10
30825.37715035346
 20
24654.69577201825
 30
0.0
 11
30875.37484091512
 21
24654.69577201825
 31
0.0
  0
LINE
  5
25D
330
22
100
AcDbEntity
  8
_0-2_
  6
Continuous
 62
     7
100
AcDbLine
 10
30875.37484091512
 20
24654.69577201825
 30
0.0
 11
30875.37484091512
 21
24504.69775153683
 31
0.0
  0
LINE
  5
25E
330
22
100
AcDbEntity
  8
_0-2_
  6
Continuous
 62
     7
100
AcDbLine
 10
30825.37715035346
 20
24504.69775153683
 30
0.0
 11
30875.37484091512
 21
24504.69775153683
 31
0.0
  0
LINE
  5
25F
330
22
100
AcDbEntity
  8
_0-2_
  6
Continuous
 62
     7
100
AcDbLine
 10
30825.37715035346
 20
24654.69577201825
 30
0.0
 11
30825.37715035346
 21
24504.69775153683
 31
0.0
  0
LINE
  5
260
330
22
100
AcDbEntity
  8
_0-2_
  6
Continuous
 62
     7
100
AcDbLine
 10
30688.3796181533
 20
24579.69676177754
 30
0.0
 11
30825.37715035346
 21
24579.69676177754
 31
0.0
  0
LINE
  5
261
330
22
100
AcDbEntity
  8
_0-2_
  6
Continuous
 62
     7
100
AcDbLine
 10
31012.38227070819
 20
24579.69676177754
 30
0.0
 11
30875.37484091512
 21
24579.69676177754
 31
0.0
  0
LINE
  5
262
330
22
100
AcDbEntity
  8
_0-3_
  6
Continuous
 62
     7
100
AcDbLine
 10
9875.377315313336
 20
24515.01599214072
 30
0.0
 11
9825.377150353455
 21
24515.01599214072
 31
0.0
  0
LINE
  5
263
330
22
100
AcDbEntity
  8
_0-0_
  6
CENTER1
 62
     4
100
AcDbLine
 10
9850.375995634284
 20
25457.71222841605
 30
0.0
 11
9850.375995634284
 21
24387.69830580204
 31
0.0
  0
LINE
  5
264
330
22
100
AcDbEntity
  8
_0-3_
  6
CENTER1
 62
     4
100
AcDbLine
 10
9850.375995634284
 20
24515.01599214072
 30
0.0
 11
9850.375995634284
 21
24465.01335278261
 31
0.0
  0
LINE
  5
265
330
22
100
AcDbEntity
  8
_0-3_
  6
Continuous
 62
     7
100
AcDbLine
 10
16875.2519458032
 20
24515.01599214072
 30
0.0
 11
16825.25425524155
 21
24515.01599214072
 31
0.0
  0
LINE
  5
266
330
22
100
AcDbEntity
  8
_0-3_
  6
Continuous
 62
     7
100
AcDbLine
 10
23875.37649051393
 20
24503.88120012214
 30
0.0
 11
23825.37879995228
 21
24503.88120012214
 31
0.0
  0
LINE
  5
267
330
22
100
AcDbEntity
  8
_0-3_
  6
CENTER1
 62
     4
100
AcDbLine
 10
23850.3776452331
 20
24503.88120012214
 30
0.0
 11
23850.3776452331
 21
24453.87856076403
 31
0.0
  0
LINE
  5
268
330
22
100
AcDbEntity
  8
_0-3_
  6
Continuous
 62
     7
100
AcDbLine
 10
30875.37978971157
 20
24504.69775153683
 30
0.0
 11
30825.37715035346
 21
24504.69775153683
 31
0.0
  0
LINE
  5
269
330
22
100
AcDbEntity
  8
_0-3_
  6
CENTER1
 62
     4
100
AcDbLine
 10
30850.37847003251
 20
24504.69775153683
 30
0.0
 11
30850.37847003251
 21
24454.69511217873
 31
0.0
  0
LINE
  5
26A
330
22
100
AcDbEntity
  8
_0-0_
  6
CENTER1
 62
     4
100
AcDbLine
 10
23850.3776452331
 20
7899.494999346163
 30
0.0
 11
23850.3776452331
 21
24529.77825195913
 31
0.0
  0
LINE
  5
26B
330
22
100
AcDbEntity
  8
_0-0_
  6
CENTER1
 62
     4
100
AcDbLine
 10
23850.3776452331
 20
24529.89702307399
 30
0.0
 11
23850.3776452331
 21
25455.678273074
 31
0.0
  0
LINE
  5
26C
330
22
100
AcDbEntity
  8
_0-3_
  6
Continuous
 62
     6
100
AcDbLine
 10
9850.375995634284
 20
24465.01335278261
 30
0.0
 11
9850.375995634284
 21
24387.69830580204
 31
0.0
  0
LINE
  5
26D
330
22
100
AcDbEntity
  8
_0-6_
  6
Continuous
 62
     5
100
AcDbLine
 10
32850.37269643665
 20
11830.76693901043
 30
0.0
 11
25518.59465985514
 21
24529.77825195913
 31
0.0
  0
LINE
  5
26E
330
22
100
AcDbEntity
  8
_0-6_
  6
Continuous
 62
     5
100
AcDbLine
 10
25550.37830507263
 20
24529.77825195913
 30
0.0
 11
25550.37830507263
 21
24474.72784021926
 31
0.0
  0
LINE
  5
26F
330
22
100
AcDbEntity
  8
_0-6_
  6
Continuous
 62
     5
100
AcDbLine
 10
25576.32979367061
 20
24429.77792203937
 30
0.0
 11
32850.37269643665
 21
24429.77792203937
 31
0.0
  0
LINE
  5
270
330
22
100
AcDbEntity
  8
_0-6_
  6
Continuous
 62
     5
100
AcDbLine
 10
25650.3786349924
 20
24529.77825195913
 30
0.0
 11
25650.3786349924
 21
24301.51996437467
 31
0.0
  0
LINE
  5
271
330
22
100
AcDbEntity
  8
_0-6_
  6
Continuous
 62
     5
100
AcDbLine
 10
25634.06492748605
 20
24329.7775921196
 30
0.0
 11
32850.37269643665
 21
24329.7775921196
 31
0.0
  0
LINE
  5
272
330
22
100
AcDbEntity
  8
_0-6_
  6
Continuous
 62
     5
100
AcDbLine
 10
25691.80006130151
 20
24229.77726219984
 30
0.0
 11
32850.37269643665
 21
24229.77726219984
 31
0.0
  0
LINE
  5
273
330
22
100
AcDbEntity
  8
_0-6_
  6
Continuous
 62
     5
100
AcDbLine
 10
25750.37896491216
 20
24529.77825195913
 30
0.0
 11
25750.37896491216
 21
24128.31703732653
 31
0.0
  0
LINE
  5
274
330
22
100
AcDbEntity
  8
_0-6_
  6
Continuous
 62
     5
100
AcDbLine
 10
25749.53519511697
 20
24129.77693228008
 30
0.0
 11
32850.37269643665
 21
24129.77693228008
 31
0.0
  0
LINE
  5
275
330
22
100
AcDbEntity
  8
_0-6_
  6
Continuous
 62
     5
100
AcDbLine
 10
25850.37929483192
 20
24529.77825195913
 30
0.0
 11
25850.37929483192
 21
23955.10916148193
 31
0.0
  0
LINE
  5
276
330
22
100
AcDbEntity
  8
_0-6_
  6
Continuous
 62
     5
100
AcDbLine
 10
25807.27032893242
 20
24029.77660236031
 30
0.0
 11
32850.37269643665
 21
24029.77660236031
 31
0.0
  0
LINE
  5
277
330
22
100
AcDbEntity
  8
_0-6_
  6
Continuous
 62
     5
100
AcDbLine
 10
25865.00546274788
 20
23929.77627244055
 30
0.0
 11
32850.37269643665
 21
23929.77627244055
 31
0.0
  0
LINE
  5
278
330
22
100
AcDbEntity
  8
_0-6_
  6
Continuous
 62
     5
100
AcDbLine
 10
25950.37715035346
 20
24529.77825195913
 30
0.0
 11
25950.37715035346
 21
23781.9062344338
 31
0.0
  0
LINE
  5
279
330
22
100
AcDbEntity
  8
_0-6_
  6
Continuous
 62
     5
100
AcDbLine
 10
25922.74059656333
 20
23829.77594252079
 30
0.0
 11
32850.37269643665
 21
23829.77594252079
 31
0.0
  0
LINE
  5
27A
330
22
100
AcDbEntity
  8
_0-6_
  6
Continuous
 62
     5
100
AcDbLine
 10
25980.4757303788
 20
23729.77561260102
 30
0.0
 11
32850.37269643665
 21
23729.77561260102
 31
0.0
  0
LINE
  5
27B
330
22
100
AcDbEntity
  8
_0-6_
  6
Continuous
 62
     5
100
AcDbLine
 10
26050.37748027323
 20
24529.77825195913
 30
0.0
 11
26050.37748027323
 21
23608.70330738565
 31
0.0
  0
LINE
  5
27C
330
22
100
AcDbEntity
  8
_0-6_
  6
Continuous
 62
     5
100
AcDbLine
 10
26038.21086419425
 20
23629.77528268126
 30
0.0
 11
32850.37269643665
 21
23629.77528268126
 31
0.0
  0
LINE
  5
27D
330
22
100
AcDbEntity
  8
_0-6_
  6
Continuous
 62
     5
100
AcDbLine
 10
26095.94599800971
 20
23529.77495276149
 30
0.0
 11
32850.37269643665
 21
23529.77495276149
 31
0.0
  0
LINE
  5
27E
330
22
100
AcDbEntity
  8
_0-6_
  6
Continuous
 62
     5
100
AcDbLine
 10
26150.37781019298
 20
24529.77825195913
 30
0.0
 11
26150.37781019298
 21
23435.49543154105
 31
0.0
  0
LINE
  5
27F
330
22
100
AcDbEntity
  8
_0-6_
  6
Continuous
 62
     5
100
AcDbLine
 10
26153.68113182517
 20
23429.77462284173
 30
0.0
 11
32850.37269643665
 21
23429.77462284173
 31
0.0
  0
LINE
  5
280
330
22
100
AcDbEntity
  8
_0-6_
  6
Continuous
 62
     5
100
AcDbLine
 10
26211.41626564061
 20
23329.77429292196
 30
0.0
 11
32850.37269643665
 21
23329.77429292196
 31
0.0
  0
LINE
  5
281
330
22
100
AcDbEntity
  8
_0-6_
  6
Continuous
 62
     5
100
AcDbLine
 10
26250.37814011276
 20
24529.77825195913
 30
0.0
 11
26250.37814011276
 21
23262.29250449291
 31
0.0
  0
LINE
  5
282
330
22
100
AcDbEntity
  8
_0-6_
  6
Continuous
 62
     5
100
AcDbLine
 10
26269.14892505784
 20
23229.77891179865
 30
0.0
 11
32850.37269643665
 21
23229.77891179865
 31
0.0
  0
LINE
  5
283
330
22
100
AcDbEntity
  8
_0-6_
  6
Continuous
 62
     5
100
AcDbLine
 10
26350.37847003251
 20
24529.77825195913
 30
0.0
 11
26350.37847003251
 21
23089.08462864832
 31
0.0
  0
LINE
  5
284
330
22
100
AcDbEntity
  8
_0-6_
  6
Continuous
 62
     5
100
AcDbLine
 10
26326.88405887331
 20
23129.77858187889
 30
0.0
 11
32850.37269643665
 21
23129.77858187889
 31
0.0
  0
LINE
  5
285
330
22
100
AcDbEntity
  8
_0-6_
  6
Continuous
 62
     5
100
AcDbLine
 10
26384.61919268876
 20
23029.77825195913
 30
0.0
 11
32850.37269643665
 21
23029.77825195913
 31
0.0
  0
LINE
  5
286
330
22
100
AcDbEntity
  8
_0-6_
  6
Continuous
 62
     5
100
AcDbLine
 10
26450.37879995227
 20
24529.77825195913
 30
0.0
 11
26450.37879995227
 21
22915.88170160018
 31
0.0
  0
LINE
  5
287
330
22
100
AcDbEntity
  8
_0-6_
  6
Continuous
 62
     5
100
AcDbLine
 10
26442.35680090244
 20
22929.77792203937
 30
0.0
 11
32850.37269643665
 21
22929.77792203937
 31
0.0
  0
LINE
  5
288
330
22
100
AcDbEntity
  8
_0-6_
  6
Continuous
 62
     5
100
AcDbLine
 10
26557.82706853336
 20
22729.77726219984
 30
0.0
 11
32850.37269643665
 21
22729.77726219984
 31
0.0
  0
LINE
  5
289
330
22
100
AcDbEntity
  8
_0-6_
  6
Continuous
 62
     5
100
AcDbLine
 10
26550.37912987205
 20
24529.77825195913
 30
0.0
 11
26550.37912987205
 21
22742.67382575558
 31
0.0
  0
LINE
  5
28A
330
22
100
AcDbEntity
  8
_0-6_
  6
Continuous
 62
     5
100
AcDbLine
 10
26500.08946031968
 20
22829.7775921196
 30
0.0
 11
32850.37269643665
 21
22829.7775921196
 31
0.0
  0
LINE
  5
28B
330
22
100
AcDbEntity
  8
_0-6_
  6
Continuous
 62
     5
100
AcDbLine
 10
26615.56220234881
 20
22629.77693228008
 30
0.0
 11
32850.37269643665
 21
22629.77693228008
 31
0.0
  0
LINE
  5
28C
330
22
100
AcDbEntity
  8
_0-6_
  6
Continuous
 62
     5
100
AcDbLine
 10
26650.37945979181
 20
24529.77825195913
 30
0.0
 11
26650.37945979181
 21
22569.46594991099
 31
0.0
  0
LINE
  5
28D
330
22
100
AcDbEntity
  8
_0-6_
  6
Continuous
 62
     5
100
AcDbLine
 10
26673.29733616428
 20
22529.77660236031
 30
0.0
 11
32850.37269643665
 21
22529.77660236031
 31
0.0
  0
LINE
  5
28E
330
22
100
AcDbEntity
  8
_0-6_
  6
Continuous
 62
     5
100
AcDbLine
 10
26750.37731531333
 20
24529.77825195913
 30
0.0
 11
26750.37731531333
 21
22396.26920885841
 31
0.0
  0
LINE
  5
28F
330
22
100
AcDbEntity
  8
_0-6_
  6
Continuous
 62
     5
100
AcDbLine
 10
26731.02999558151
 20
22429.77750963966
 30
0.0
 11
32850.37269643665
 21
22429.77750963966
 31
0.0
  0
LINE
  5
290
330
22
100
AcDbEntity
  8
_0-6_
  6
Continuous
 62
     5
100
AcDbLine
 10
26788.76512939695
 20
22329.7771797199
 30
0.0
 11
32850.37269643665
 21
22329.7771797199
 31
0.0
  0
LINE
  5
291
330
22
100
AcDbEntity
  8
_0-6_
  6
Continuous
 62
     5
100
AcDbLine
 10
26850.37764523311
 20
24529.77825195913
 30
0.0
 11
26850.37764523311
 21
22223.06133301382
 31
0.0
  0
LINE
  5
292
330
22
100
AcDbEntity
  8
_0-6_
  6
Continuous
 62
     5
100
AcDbLine
 10
26846.50026321241
 20
22229.77684980013
 30
0.0
 11
32850.37269643665
 21
22229.77684980013
 31
0.0
  0
LINE
  5
293
330
22
100
AcDbEntity
  8
_0-6_
  6
Continuous
 62
     5
100
AcDbLine
 10
26904.23539702787
 20
22129.77775707948
 30
0.0
 11
32850.37269643665
 21
22129.77775707948
 31
0.0
  0
LINE
  5
294
330
22
100
AcDbEntity
  8
_0-6_
  6
Continuous
 62
     5
100
AcDbLine
 10
26950.37797515287
 20
24529.77825195913
 30
0.0
 11
26950.37797515287
 21
22049.85716876656
 31
0.0
  0
LINE
  5
295
330
22
100
AcDbEntity
  8
_0-6_
  6
Continuous
 62
     5
100
AcDbLine
 10
26961.97053084333
 20
22029.77742715972
 30
0.0
 11
32850.37269643665
 21
22029.77742715972
 31
0.0
  0
LINE
  5
296
330
22
100
AcDbEntity
  8
_0-6_
  6
Continuous
 62
     5
100
AcDbLine
 10
27019.70566465878
 20
21929.77957163818
 30
0.0
 11
32850.37269643665
 21
21929.77957163818
 31
0.0
  0
LINE
  5
297
330
22
100
AcDbEntity
  8
_0-6_
  6
Continuous
 62
     5
100
AcDbLine
 10
27050.37830507263
 20
24529.77825195913
 30
0.0
 11
27050.37830507263
 21
21876.65176732019
 31
0.0
  0
LINE
  5
298
330
22
100
AcDbEntity
  8
_0-6_
  6
Continuous
 62
     5
100
AcDbLine
 10
27077.44079847423
 20
21829.77924171842
 30
0.0
 11
32850.37269643665
 21
21829.77924171842
 31
0.0
  0
LINE
  5
299
330
22
100
AcDbEntity
  8
_0-6_
  6
Continuous
 62
     5
100
AcDbLine
 10
27150.3786349924
 20
24529.77825195913
 30
0.0
 11
27150.3786349924
 21
21703.44636587382
 31
0.0
  0
LINE
  5
29A
330
22
100
AcDbEntity
  8
_0-6_
  6
Continuous
 62
     5
100
AcDbLine
 10
27135.17593228969
 20
21729.77891179865
 30
0.0
 11
32850.37269643665
 21
21729.77891179865
 31
0.0
  0
LINE
  5
29B
330
22
100
AcDbEntity
  8
_0-6_
  6
Continuous
 62
     5
100
AcDbLine
 10
27192.91106610515
 20
21629.77858187889
 30
0.0
 11
32850.37269643665
 21
21629.77858187889
 31
0.0
  0
LINE
  5
29C
330
22
100
AcDbEntity
  8
_0-6_
  6
Continuous
 62
     5
100
AcDbLine
 10
27250.64619992061
 20
21529.77825195912
 30
0.0
 11
32850.37269643665
 21
21529.77825195912
 31
0.0
  0
LINE
  5
29D
330
22
100
AcDbEntity
  8
_0-6_
  6
Continuous
 62
     5
100
AcDbLine
 10
27250.37896491216
 20
24529.77825195913
 30
0.0
 11
27250.37896491216
 21
21530.23972722834
 31
0.0
  0
LINE
  5
29E
330
22
100
AcDbEntity
  8
_0-6_
  6
Continuous
 62
     5
100
AcDbLine
 10
27308.38133373605
 20
21429.77792203936
 30
0.0
 11
32850.37269643665
 21
21429.77792203936
 31
0.0
  0
LINE
  5
29F
330
22
100
AcDbEntity
  8
_0-6_
  6
Continuous
 62
     5
100
AcDbLine
 10
27366.1139931533
 20
21329.77882931871
 30
0.0
 11
32850.37269643665
 21
21329.77882931871
 31
0.0
  0
LINE
  5
2A0
330
22
100
AcDbEntity
  8
_0-6_
  6
Continuous
 62
     5
100
AcDbLine
 10
27350.37929483192
 20
24529.77825195913
 30
0.0
 11
27350.37929483192
 21
21357.03432578197
 31
0.0
  0
LINE
  5
2A1
330
22
100
AcDbEntity
  8
_0-6_
  6
Continuous
 62
     5
100
AcDbLine
 10
27423.84912696874
 20
21229.77849939895
 30
0.0
 11
32850.37269643665
 21
21229.77849939895
 31
0.0
  0
LINE
  5
2A2
330
22
100
AcDbEntity
  8
_0-6_
  6
Continuous
 62
     5
100
AcDbLine
 10
27450.37715035345
 20
24529.77825195913
 30
0.0
 11
27450.37715035345
 21
21183.83263593294
 31
0.0
  0
LINE
  5
2A3
330
22
100
AcDbEntity
  8
_0-6_
  6
Continuous
 62
     5
100
AcDbLine
 10
27481.58673518243
 20
21129.77816947918
 30
0.0
 11
32850.37269643665
 21
21129.77816947918
 31
0.0
  0
LINE
  5
2A4
330
22
100
AcDbEntity
  8
_0-6_
  6
Continuous
 62
     5
100
AcDbLine
 10
27550.37748027322
 20
24529.77825195913
 30
0.0
 11
27550.37748027322
 21
21010.62723448658
 31
0.0
  0
LINE
  5
2A5
330
22
100
AcDbEntity
  8
_0-6_
  6
Continuous
 62
     5
100
AcDbLine
 10
27539.31939459966
 20
21029.77907675853
 30
0.0
 11
32850.37269643665
 21
21029.77907675853
 31
0.0
  0
LINE
  5
2A6
330
22
100
AcDbEntity
  8
_0-6_
  6
Continuous
 62
     5
100
AcDbLine
 10
27597.05452841513
 20
20929.77874683877
 30
0.0
 11
32850.37269643665
 21
20929.77874683877
 31
0.0
  0
LINE
  5
2A7
330
22
100
AcDbEntity
  8
_0-6_
  6
Continuous
 62
     5
100
AcDbLine
 10
27650.37781019298
 20
24529.77825195913
 30
0.0
 11
27650.37781019298
 21
20837.42183304021
 31
0.0
  0
LINE
  5
2A8
330
22
100
AcDbEntity
  8
_0-6_
  6
Continuous
 62
     5
100
AcDbLine
 10
27654.78966223057
 20
20829.77841691901
 30
0.0
 11
32850.37269643665
 21
20829.77841691901
 31
0.0
  0
LINE
  5
2A9
330
22
100
AcDbEntity
  8
_0-6_
  6
Continuous
 62
     5
100
AcDbLine
 10
27712.52479604603
 20
20729.77808699924
 30
0.0
 11
32850.37269643665
 21
20729.77808699924
 31
0.0
  0
LINE
  5
2AA
330
22
100
AcDbEntity
  8
_0-6_
  6
Continuous
 62
     5
100
AcDbLine
 10
27750.37814011275
 20
24529.77825195913
 30
0.0
 11
27750.37814011275
 21
20664.21519439472
 31
0.0
  0
LINE
  5
2AB
330
22
100
AcDbEntity
  8
_0-6_
  6
Continuous
 62
     5
100
AcDbLine
 10
27770.25992986148
 20
20629.77775707948
 30
0.0
 11
32850.37269643665
 21
20629.77775707948
 31
0.0
  0
LINE
  5
2AC
330
22
100
AcDbEntity
  8
_0-6_
  6
Continuous
 62
     5
100
AcDbLine
 10
27827.99506367694
 20
20529.77866435883
 30
0.0
 11
32850.37269643665
 21
20529.77866435883
 31
0.0
  0
LINE
  5
2AD
330
22
100
AcDbEntity
  8
_0-6_
  6
Continuous
 62
     5
100
AcDbLine
 10
27885.7301974924
 20
20429.77833443907
 30
0.0
 11
32850.37269643665
 21
20429.77833443907
 31
0.0
  0
LINE
  5
2AE
330
22
100
AcDbEntity
  8
_0-6_
  6
Continuous
 62
     5
100
AcDbLine
 10
27850.37847003251
 20
24529.77825195913
 30
0.0
 11
27850.37847003251
 21
20491.01103014748
 31
0.0
  0
LINE
  5
2AF
330
22
100
AcDbEntity
  8
_0-6_
  6
Continuous
 62
     5
100
AcDbLine
 10
27943.46533130784
 20
20329.7780045193
 30
0.0
 11
32850.37269643665
 21
20329.7780045193
 31
0.0
  0
LINE
  5
2B0
330
22
100
AcDbEntity
  8
_0-6_
  6
Continuous
 62
     5
100
AcDbLine
 10
27950.37879995227
 20
24529.77825195913
 30
0.0
 11
27950.37879995227
 21
20317.80562870109
 31
0.0
  0
LINE
  5
2B1
330
22
100
AcDbEntity
  8
_0-6_
  6
Continuous
 62
     5
100
AcDbLine
 10
28050.37912987205
 20
24529.77825195913
 30
0.0
 11
28050.37912987205
 21
20144.59899005561
 31
0.0
  0
LINE
  5
2B2
330
22
100
AcDbEntity
  8
_0-6_
  6
Continuous
 62
     5
100
AcDbLine
 10
28001.20046512331
 20
20229.77891179865
 30
0.0
 11
32850.37269643665
 21
20229.77891179865
 31
0.0
  0
LINE
  5
2B3
330
22
100
AcDbEntity
  8
_0-6_
  6
Continuous
 62
     5
100
AcDbLine
 10
28058.93559893876
 20
20129.77858187889
 30
0.0
 11
32850.37269643665
 21
20129.77858187889
 31
0.0
  0
LINE
  5
2B4
330
22
100
AcDbEntity
  8
_0-6_
  6
Continuous
 62
     5
100
AcDbLine
 10
28150.37945979181
 20
24529.77825195913
 30
0.0
 11
28150.37945979181
 21
19971.39358860925
 31
0.0
  0
LINE
  5
2B5
330
22
100
AcDbEntity
  8
_0-6_
  6
Continuous
 62
     5
100
AcDbLine
 10
28116.67073275422
 20
20029.77825195912
 30
0.0
 11
32850.37269643665
 21
20029.77825195912
 31
0.0
  0
LINE
  5
2B6
330
22
100
AcDbEntity
  8
_0-6_
  6
Continuous
 62
     5
100
AcDbLine
 10
28174.40586656968
 20
19929.77792203936
 30
0.0
 11
32850.37269643665
 21
19929.77792203936
 31
0.0
  0
LINE
  5
2B7
330
22
100
AcDbEntity
  8
_0-6_
  6
Continuous
 62
     5
100
AcDbLine
 10
28232.14100038513
 20
19829.77882931871
 30
0.0
 11
32850.37269643665
 21
19829.77882931871
 31
0.0
  0
LINE
  5
2B8
330
22
100
AcDbEntity
  8
_0-6_
  6
Continuous
 62
     5
100
AcDbLine
 10
28250.37731531333
 20
24529.77825195913
 30
0.0
 11
28250.37731531333
 21
19798.19189876022
 31
0.0
  0
LINE
  5
2B9
330
22
100
AcDbEntity
  8
_0-6_
  6
Continuous
 62
     5
100
AcDbLine
 10
28289.87613420059
 20
19729.77849939895
 30
0.0
 11
32850.37269643665
 21
19729.77849939895
 31
0.0
  0
LINE
  5
2BA
330
22
100
AcDbEntity
  8
_0-6_
  6
Continuous
 62
     5
100
AcDbLine
 10
28350.37764523311
 20
24529.77825195913
 30
0.0
 11
28350.37764523311
 21
19624.98649731385
 31
0.0
  0
LINE
  5
2BB
330
22
100
AcDbEntity
  8
_0-6_
  6
Continuous
 62
     5
100
AcDbLine
 10
28347.61126801605
 20
19629.77816947918
 30
0.0
 11
32850.37269643665
 21
19629.77816947918
 31
0.0
  0
LINE
  5
2BC
330
22
100
AcDbEntity
  8
_0-6_
  6
Continuous
 62
     5
100
AcDbLine
 10
28405.3464018315
 20
19529.77907675853
 30
0.0
 11
32850.37269643665
 21
19529.77907675853
 31
0.0
  0
LINE
  5
2BD
330
22
100
AcDbEntity
  8
_0-6_
  6
Continuous
 62
     5
100
AcDbLine
 10
28463.08153564695
 20
19429.77874683877
 30
0.0
 11
32850.37269643665
 21
19429.77874683877
 31
0.0
  0
LINE
  5
2BE
330
22
100
AcDbEntity
  8
_0-6_
  6
Continuous
 62
     5
100
AcDbLine
 10
28450.37797515287
 20
24529.77825195913
 30
0.0
 11
28450.37797515287
 21
19451.78109586748
 31
0.0
  0
LINE
  5
2BF
330
22
100
AcDbEntity
  8
_0-6_
  6
Continuous
 62
     5
100
AcDbLine
 10
28550.37830507263
 20
24529.77825195913
 30
0.0
 11
28550.37830507263
 21
19278.57569442112
 31
0.0
  0
LINE
  5
2C0
330
22
100
AcDbEntity
  8
_0-6_
  6
Continuous
 62
     5
100
AcDbLine
 10
28520.81666946241
 20
19329.778416919
 30
0.0
 11
32850.37269643665
 21
19329.778416919
 31
0.0
  0
LINE
  5
2C1
330
22
100
AcDbEntity
  8
_0-6_
  6
Continuous
 62
     5
100
AcDbLine
 10
28578.55180327787
 20
19229.77808699924
 30
0.0
 11
32850.37269643665
 21
19229.77808699924
 31
0.0
  0
LINE
  5
2C2
330
22
100
AcDbEntity
  8
_0-6_
  6
Continuous
 62
     5
100
AcDbLine
 10
28650.3786349924
 20
24529.77825195913
 30
0.0
 11
28650.3786349924
 21
19105.37029297475
 31
0.0
  0
LINE
  5
2C3
330
22
100
AcDbEntity
  8
_0-6_
  6
Continuous
 62
     5
100
AcDbLine
 10
28636.28693709333
 20
19129.77775707948
 30
0.0
 11
32850.37269643665
 21
19129.77775707948
 31
0.0
  0
LINE
  5
2C4
330
22
100
AcDbEntity
  8
_0-6_
  6
Continuous
 62
     5
100
AcDbLine
 10
28694.02207090879
 20
19029.77866435883
 30
0.0
 11
32850.37269643665
 21
19029.77866435883
 31
0.0
  0
LINE
  5
2C5
330
22
100
AcDbEntity
  8
_0-6_
  6
Continuous
 62
     5
100
AcDbLine
 10
28750.37896491216
 20
24529.77825195913
 30
0.0
 11
28750.37896491216
 21
18932.16489152838
 31
0.0
  0
LINE
  5
2C6
330
22
100
AcDbEntity
  8
_0-6_
  6
Continuous
 62
     5
100
AcDbLine
 10
28751.75720472423
 20
18929.77833443906
 30
0.0
 11
32850.37269643665
 21
18929.77833443906
 31
0.0
  0
LINE
  5
2C7
330
22
100
AcDbEntity
  8
_0-6_
  6
Continuous
 62
     5
100
AcDbLine
 10
28809.49233853969
 20
18829.77800451929
 30
0.0
 11
32850.37269643665
 21
18829.77800451929
 31
0.0
  0
LINE
  5
2C8
330
22
100
AcDbEntity
  8
_0-6_
  6
Continuous
 62
     5
100
AcDbLine
 10
28867.22499795692
 20
18729.77891179865
 30
0.0
 11
32850.37269643665
 21
18729.77891179865
 31
0.0
  0
LINE
  5
2C9
330
22
100
AcDbEntity
  8
_0-6_
  6
Continuous
 62
     5
100
AcDbLine
 10
28850.37929483192
 20
24529.77825195913
 30
0.0
 11
28850.37929483192
 21
18758.95949008201
 31
0.0
  0
LINE
  5
2CA
330
22
100
AcDbEntity
  8
_0-6_
  6
Continuous
 62
     5
100
AcDbLine
 10
28924.96013177238
 20
18629.77858187889
 30
0.0
 11
32850.37269643665
 21
18629.77858187889
 31
0.0
  0
LINE
  5
2CB
330
22
100
AcDbEntity
  8
_0-6_
  6
Continuous
 62
     5
100
AcDbLine
 10
28950.37715035345
 20
24529.77825195913
 30
0.0
 11
28950.37715035345
 21
18585.75656303387
 31
0.0
  0
LINE
  5
2CC
330
22
100
AcDbEntity
  8
_0-6_
  6
Continuous
 62
     5
100
AcDbLine
 10
29050.37748027322
 20
24529.77825195913
 30
0.0
 11
29050.37748027322
 21
18412.5511615875
 31
0.0
  0
LINE
  5
2CD
330
22
100
AcDbEntity
  8
_0-6_
  6
Continuous
 62
     5
100
AcDbLine
 10
28982.69526558784
 20
18529.77825195912
 30
0.0
 11
32850.37269643665
 21
18529.77825195912
 31
0.0
  0
LINE
  5
2CE
330
22
100
AcDbEntity
  8
_0-6_
  6
Continuous
 62
     5
100
AcDbLine
 10
29040.43287380151
 20
18429.77792203936
 30
0.0
 11
32850.37269643665
 21
18429.77792203936
 31
0.0
  0
LINE
  5
2CF
330
22
100
AcDbEntity
  8
_0-6_
  6
Continuous
 62
     5
100
AcDbLine
 10
29098.16553321874
 20
18329.77882931871
 30
0.0
 11
32850.37269643665
 21
18329.77882931871
 31
0.0
  0
LINE
  5
2D0
330
22
100
AcDbEntity
  8
_0-6_
  6
Continuous
 62
     5
100
AcDbLine
 10
29150.37781019298
 20
24529.77825195913
 30
0.0
 11
29150.37781019298
 21
18239.34576014113
 31
0.0
  0
LINE
  5
2D1
330
22
100
AcDbEntity
  8
_0-6_
  6
Continuous
 62
     5
100
AcDbLine
 10
29155.9006670342
 20
18229.77849939895
 30
0.0
 11
32850.37269643665
 21
18229.77849939895
 31
0.0
  0
LINE
  5
2D2
330
22
100
AcDbEntity
  8
_0-6_
  6
Continuous
 62
     5
100
AcDbLine
 10
29213.63580084966
 20
18129.77816947918
 30
0.0
 11
32850.37269643665
 21
18129.77816947918
 31
0.0
  0
LINE
  5
2D3
330
22
100
AcDbEntity
  8
_0-6_
  6
Continuous
 62
     5
100
AcDbLine
 10
29250.37814011275
 20
24529.77825195913
 30
0.0
 11
29250.37814011275
 21
18066.14035869477
 31
0.0
  0
LINE
  5
2D4
330
22
100
AcDbEntity
  8
_0-6_
  6
Continuous
 62
     5
100
AcDbLine
 10
29271.37093466512
 20
18029.77783955942
 30
0.0
 11
32850.37269643665
 21
18029.77783955942
 31
0.0
  0
LINE
  5
2D5
330
22
100
AcDbEntity
  8
_0-6_
  6
Continuous
 62
     5
100
AcDbLine
 10
29329.10606848057
 20
17929.77874683877
 30
0.0
 11
32850.37269643665
 21
17929.77874683877
 31
0.0
  0
LINE
  5
2D6
330
22
100
AcDbEntity
  8
_0-6_
  6
Continuous
 62
     5
100
AcDbLine
 10
29350.37847003251
 20
24529.77825195913
 30
0.0
 11
29350.37847003251
 21
17892.9349572484
 31
0.0
  0
LINE
  5
2D7
330
22
100
AcDbEntity
  8
_0-6_
  6
Continuous
 62
     5
100
AcDbLine
 10
29386.84120229602
 20
17829.778416919
 30
0.0
 11
32850.37269643665
 21
17829.778416919
 31
0.0
  0
LINE
  5
2D8
330
22
100
AcDbEntity
  8
_0-6_
  6
Continuous
 62
     5
100
AcDbLine
 10
29550.37912987205
 20
24529.77825195913
 30
0.0
 11
29550.37912987205
 21
17546.52291715655
 31
0.0
  0
LINE
  5
2D9
330
22
100
AcDbEntity
  8
_0-6_
  6
Continuous
 62
     5
100
AcDbLine
 10
29450.37879995227
 20
24529.77825195913
 30
0.0
 11
29450.37879995227
 21
17719.72831860292
 31
0.0
  0
LINE
  5
2DA
330
22
100
AcDbEntity
  8
_0-6_
  6
Continuous
 62
     5
100
AcDbLine
 10
29444.57633611148
 20
17729.77808699924
 30
0.0
 11
32850.37269643665
 21
17729.77808699924
 31
0.0
  0
LINE
  5
2DB
330
22
100
AcDbEntity
  8
_0-6_
  6
Continuous
 62
     5
100
AcDbLine
 10
29560.0466037424
 20
17529.77866435883
 30
0.0
 11
32850.37269643665
 21
17529.77866435883
 31
0.0
  0
LINE
  5
2DC
330
22
100
AcDbEntity
  8
_0-6_
  6
Continuous
 62
     5
100
AcDbLine
 10
29502.31146992694
 20
17629.77775707948
 30
0.0
 11
32850.37269643665
 21
17629.77775707948
 31
0.0
  0
LINE
  5
2DD
330
22
100
AcDbEntity
  8
_0-6_
  6
Continuous
 62
     5
100
AcDbLine
 10
29617.78173755784
 20
17429.77833443906
 30
0.0
 11
32850.37269643665
 21
17429.77833443906
 31
0.0
  0
LINE
  5
2DE
330
22
100
AcDbEntity
  8
_0-6_
  6
Continuous
 62
     5
100
AcDbLine
 10
29675.51687137331
 20
17329.7780045193
 30
0.0
 11
32850.37269643665
 21
17329.7780045193
 31
0.0
  0
LINE
  5
2DF
330
22
100
AcDbEntity
  8
_0-6_
  6
Continuous
 62
     5
100
AcDbLine
 10
29650.37945979181
 20
24529.77825195913
 30
0.0
 11
29650.37945979181
 21
17373.31751571018
 31
0.0
  0
LINE
  5
2E0
330
22
100
AcDbEntity
  8
_0-6_
  6
Continuous
 62
     5
100
AcDbLine
 10
29733.25200518876
 20
17229.77891179865
 30
0.0
 11
32850.37269643665
 21
17229.77891179865
 31
0.0
  0
LINE
  5
2E1
330
22
100
AcDbEntity
  8
_0-6_
  6
Continuous
 62
     5
100
AcDbLine
 10
29750.37731531334
 20
24529.77825195913
 30
0.0
 11
29750.37731531334
 21
17200.11582586115
 31
0.0
  0
LINE
  5
2E2
330
22
100
AcDbEntity
  8
_0-6_
  6
Continuous
 62
     5
100
AcDbLine
 10
29850.37764523312
 20
24529.77825195913
 30
0.0
 11
29850.37764523312
 21
17026.91042441478
 31
0.0
  0
LINE
  5
2E3
330
22
100
AcDbEntity
  8
_0-6_
  6
Continuous
 62
     5
100
AcDbLine
 10
29790.98713900422
 20
17129.77858187889
 30
0.0
 11
32850.37269643665
 21
17129.77858187889
 31
0.0
  0
LINE
  5
2E4
330
22
100
AcDbEntity
  8
_0-6_
  6
Continuous
 62
     5
100
AcDbLine
 10
29848.72227281968
 20
17029.77825195912
 30
0.0
 11
32850.37269643665
 21
17029.77825195912
 31
0.0
  0
LINE
  5
2E5
330
22
100
AcDbEntity
  8
_0-6_
  6
Continuous
 62
     5
100
AcDbLine
 10
29906.45740663513
 20
16929.77792203936
 30
0.0
 11
32850.37269643665
 21
16929.77792203936
 31
0.0
  0
LINE
  5
2E6
330
22
100
AcDbEntity
  8
_0-6_
  6
Continuous
 62
     5
100
AcDbLine
 10
29950.37797515287
 20
24529.77825195913
 30
0.0
 11
29950.37797515287
 21
16853.70502296841
 31
0.0
  0
LINE
  5
2E7
330
22
100
AcDbEntity
  8
_0-6_
  6
Continuous
 62
     5
100
AcDbLine
 10
29964.19254045059
 20
16829.77759211959
 30
0.0
 11
32850.37269643665
 21
16829.77759211959
 31
0.0
  0
LINE
  5
2E8
330
22
100
AcDbEntity
  8
_0-6_
  6
Continuous
 62
     5
100
AcDbLine
 10
30050.37830507263
 20
24529.77825195913
 30
0.0
 11
30050.37830507263
 21
16680.49962152204
 31
0.0
  0
LINE
  5
2E9
330
22
100
AcDbEntity
  8
_0-6_
  6
Continuous
 62
     5
100
AcDbLine
 10
30021.92767426604
 20
16729.77849939895
 30
0.0
 11
32850.37269643665
 21
16729.77849939895
 31
0.0
  0
LINE
  5
2EA
330
22
100
AcDbEntity
  8
_0-6_
  6
Continuous
 62
     5
100
AcDbLine
 10
30079.6628080815
 20
16629.77816947918
 30
0.0
 11
32850.37269643665
 21
16629.77816947918
 31
0.0
  0
LINE
  5
2EB
330
22
100
AcDbEntity
  8
_0-6_
  6
Continuous
 62
     5
100
AcDbLine
 10
30150.37616059417
 20
24529.77825195913
 30
0.0
 11
30150.37616059417
 21
16507.29916887213
 31
0.0
  0
LINE
  5
2EC
330
22
100
AcDbEntity
  8
_0-6_
  6
Continuous
 62
     5
100
AcDbLine
 10
30137.39794189695
 20
16529.77783955942
 30
0.0
 11
32850.37269643665
 21
16529.77783955942
 31
0.0
  0
LINE
  5
2ED
330
22
100
AcDbEntity
  8
_0-6_
  6
Continuous
 62
     5
100
AcDbLine
 10
30250.37649051393
 20
24529.77825195913
 30
0.0
 11
30250.37649051393
 21
16334.09253022665
 31
0.0
  0
LINE
  5
2EE
330
22
100
AcDbEntity
  8
_0-6_
  6
Continuous
 62
     5
100
AcDbLine
 10
30195.1306013142
 20
16429.77874683877
 30
0.0
 11
32850.37269643665
 21
16429.77874683877
 31
0.0
  0
LINE
  5
2EF
330
22
100
AcDbEntity
  8
_0-6_
  6
Continuous
 62
     5
100
AcDbLine
 10
30252.86820952787
 20
16329.77841691901
 30
0.0
 11
32850.37269643665
 21
16329.77841691901
 31
0.0
  0
LINE
  5
2F0
330
22
100
AcDbEntity
  8
_0-6_
  6
Continuous
 62
     5
100
AcDbLine
 10
30350.37682043368
 20
24529.77825195913
 30
0.0
 11
30350.37682043368
 21
16160.88712878028
 31
0.0
  0
LINE
  5
2F1
330
22
100
AcDbEntity
  8
_0-6_
  6
Continuous
 62
     5
100
AcDbLine
 10
30368.33847715878
 20
16129.77775707948
 30
0.0
 11
32850.37269643665
 21
16129.77775707948
 31
0.0
  0
LINE
  5
2F2
330
22
100
AcDbEntity
  8
_0-6_
  6
Continuous
 62
     5
100
AcDbLine
 10
30310.60334334333
 20
16229.77808699924
 30
0.0
 11
32850.37269643665
 21
16229.77808699924
 31
0.0
  0
LINE
  5
2F3
330
22
100
AcDbEntity
  8
_0-6_
  6
Continuous
 62
     5
100
AcDbLine
 10
30483.80627039147
 20
15929.77833443906
 30
0.0
 11
32850.37269643665
 21
15929.77833443906
 31
0.0
  0
LINE
  5
2F4
330
22
100
AcDbEntity
  8
_0-6_
  6
Continuous
 62
     5
100
AcDbLine
 10
30450.37715035346
 20
24529.77825195913
 30
0.0
 11
30450.37715035346
 21
15987.6804901348
 31
0.0
  0
LINE
  5
2F5
330
22
100
AcDbEntity
  8
_0-6_
  6
Continuous
 62
     5
100
AcDbLine
 10
30541.54140420692
 20
15829.7780045193
 30
0.0
 11
32850.37269643665
 21
15829.7780045193
 31
0.0
  0
LINE
  5
2F6
330
22
100
AcDbEntity
  8
_0-6_
  6
Continuous
 62
     5
100
AcDbLine
 10
30550.37748027322
 20
24529.77825195913
 30
0.0
 11
30550.37748027322
 21
15814.47508868843
 31
0.0
  0
LINE
  5
2F7
330
22
100
AcDbEntity
  8
_0-6_
  6
Continuous
 62
     5
100
AcDbLine
 10
30599.27653802238
 20
15729.77891179865
 30
0.0
 11
32850.37269643665
 21
15729.77891179865
 31
0.0
  0
LINE
  5
2F8
330
22
100
AcDbEntity
  8
_0-6_
  6
Continuous
 62
     5
100
AcDbLine
 10
30650.37781019298
 20
24529.77825195913
 30
0.0
 11
30650.37781019298
 21
15641.26968724206
 31
0.0
  0
LINE
  5
2F9
330
22
100
AcDbEntity
  8
_0-6_
  6
Continuous
 62
     5
100
AcDbLine
 10
30657.01167183784
 20
15629.77858187889
 30
0.0
 11
32850.37269643665
 21
15629.77858187889
 31
0.0
  0
LINE
  5
2FA
330
22
100
AcDbEntity
  8
_0-6_
  6
Continuous
 62
     5
100
AcDbLine
 10
30714.7468056533
 20
15529.77825195912
 30
0.0
 11
32850.37269643665
 21
15529.77825195912
 31
0.0
  0
LINE
  5
2FB
330
22
100
AcDbEntity
  8
_0-6_
  6
Continuous
 62
     5
100
AcDbLine
 10
30772.48193946874
 20
15429.77792203936
 30
0.0
 11
32850.37269643665
 21
15429.77792203936
 31
0.0
  0
LINE
  5
2FC
330
22
100
AcDbEntity
  8
_0-6_
  6
Continuous
 62
     5
100
AcDbLine
 10
30750.37814011275
 20
24529.77825195913
 30
0.0
 11
30750.37814011275
 21
15468.06428579569
 31
0.0
  0
LINE
  5
2FD
330
22
100
AcDbEntity
  8
_0-6_
  6
Continuous
 62
     5
100
AcDbLine
 10
30830.2170732842
 20
15329.77759211959
 30
0.0
 11
32850.37269643665
 21
15329.77759211959
 31
0.0
  0
LINE
  5
2FE
330
22
100
AcDbEntity
  8
_0-6_
  6
Continuous
 62
     5
100
AcDbLine
 10
30850.37847003251
 20
24529.77825195913
 30
0.0
 11
30850.37847003251
 21
15294.85888434933
 31
0.0
  0
LINE
  5
2FF
330
22
100
AcDbEntity
  8
_0-6_
  6
Continuous
 62
     5
100
AcDbLine
 10
30887.95220709966
 20
15229.77849939894
 30
0.0
 11
32850.37269643665
 21
15229.77849939894
 31
0.0
  0
LINE
  5
300
330
22
100
AcDbEntity
  8
_0-6_
  6
Continuous
 62
     5
100
AcDbLine
 10
30945.68734091513
 20
15129.77816947918
 30
0.0
 11
32850.37269643665
 21
15129.77816947918
 31
0.0
  0
LINE
  5
301
330
22
100
AcDbEntity
  8
_0-6_
  6
Continuous
 62
     5
100
AcDbLine
 10
30950.37632555405
 20
24529.77825195913
 30
0.0
 11
30950.37632555405
 21
15121.65719450029
 31
0.0
  0
LINE
  5
302
330
22
100
AcDbEntity
  8
_0-6_
  6
Continuous
 62
     5
100
AcDbLine
 10
31003.42247473057
 20
15029.77783955942
 30
0.0
 11
32850.37269643665
 21
15029.77783955942
 31
0.0
  0
LINE
  5
303
330
22
100
AcDbEntity
  8
_0-6_
  6
Continuous
 62
     5
100
AcDbLine
 10
31050.37665547381
 20
24529.77825195913
 30
0.0
 11
31050.37665547381
 21
14948.45055585481
 31
0.0
  0
LINE
  5
304
330
22
100
AcDbEntity
  8
_0-6_
  6
Continuous
 62
     5
100
AcDbLine
 10
31061.15760854603
 20
14929.77874683876
 30
0.0
 11
32850.37269643665
 21
14929.77874683876
 31
0.0
  0
LINE
  5
305
330
22
100
AcDbEntity
  8
_0-6_
  6
Continuous
 62
     5
100
AcDbLine
 10
31118.89274236148
 20
14829.77841691901
 30
0.0
 11
32850.37269643665
 21
14829.77841691901
 31
0.0
  0
LINE
  5
306
330
22
100
AcDbEntity
  8
_0-6_
  6
Continuous
 62
     5
100
AcDbLine
 10
31150.37698539357
 20
24529.77825195913
 30
0.0
 11
31150.37698539357
 21
14775.24515440844
 31
0.0
  0
LINE
  5
307
330
22
100
AcDbEntity
  8
_0-6_
  6
Continuous
 62
     5
100
AcDbLine
 10
31176.62787617694
 20
14729.77808699924
 30
0.0
 11
32850.37269643665
 21
14729.77808699924
 31
0.0
  0
LINE
  5
308
330
22
100
AcDbEntity
  8
_0-6_
  6
Continuous
 62
     5
100
AcDbLine
 10
31250.37731531334
 20
24529.77825195913
 30
0.0
 11
31250.37731531334
 21
14602.03975296208
 31
0.0
  0
LINE
  5
309
330
22
100
AcDbEntity
  8
_0-6_
  6
Continuous
 62
     5
100
AcDbLine
 10
31234.3630099924
 20
14629.77775707948
 30
0.0
 11
32850.37269643665
 21
14629.77775707948
 31
0.0
  0
LINE
  5
30A
330
22
100
AcDbEntity
  8
_0-6_
  6
Continuous
 62
     5
100
AcDbLine
 10
31292.09814380784
 20
14529.77742715972
 30
0.0
 11
32850.37269643665
 21
14529.77742715972
 31
0.0
  0
LINE
  5
30B
330
22
100
AcDbEntity
  8
_0-6_
  6
Continuous
 62
     5
100
AcDbLine
 10
31350.37764523311
 20
24529.77825195913
 30
0.0
 11
31350.37764523311
 21
14428.83435151571
 31
0.0
  0
LINE
  5
30C
330
22
100
AcDbEntity
  8
_0-6_
  6
Continuous
 62
     5
100
AcDbLine
 10
31349.83327762331
 20
14429.77833443906
 30
0.0
 11
32850.37269643665
 21
14429.77833443906
 31
0.0
  0
LINE
  5
30D
330
22
100
AcDbEntity
  8
_0-6_
  6
Continuous
 62
     5
100
AcDbLine
 10
31407.56841143876
 20
14329.7780045193
 30
0.0
 11
32850.37269643665
 21
14329.7780045193
 31
0.0
  0
LINE
  5
30E
330
22
100
AcDbEntity
  8
_0-6_
  6
Continuous
 62
     5
100
AcDbLine
 10
31450.37797515287
 20
24529.77825195913
 30
0.0
 11
31450.37797515287
 21
14255.62895006934
 31
0.0
  0
LINE
  5
30F
330
22
100
AcDbEntity
  8
_0-6_
  6
Continuous
 62
     5
100
AcDbLine
 10
31465.30354525422
 20
14229.77891179865
 30
0.0
 11
32850.37269643665
 21
14229.77891179865
 31
0.0
  0
LINE
  5
310
330
22
100
AcDbEntity
  8
_0-6_
  6
Continuous
 62
     5
100
AcDbLine
 10
31550.37830507263
 20
24529.77825195913
 30
0.0
 11
31550.37830507263
 21
14082.42354862297
 31
0.0
  0
LINE
  5
311
330
22
100
AcDbEntity
  8
_0-6_
  6
Continuous
 62
     5
100
AcDbLine
 10
31523.03867906968
 20
14129.77858187889
 30
0.0
 11
32850.37269643665
 21
14129.77858187889
 31
0.0
  0
LINE
  5
312
330
22
100
AcDbEntity
  8
_0-6_
  6
Continuous
 62
     5
100
AcDbLine
 10
31580.77381288513
 20
14029.77825195912
 30
0.0
 11
32850.37269643665
 21
14029.77825195912
 31
0.0
  0
LINE
  5
313
330
22
100
AcDbEntity
  8
_0-6_
  6
Continuous
 62
     5
100
AcDbLine
 10
31650.37616059417
 20
24529.77825195913
 30
0.0
 11
31650.37616059417
 21
13909.22185877394
 31
0.0
  0
LINE
  5
314
330
22
100
AcDbEntity
  8
_0-6_
  6
Continuous
 62
     5
100
AcDbLine
 10
31638.50894670058
 20
13929.77792203936
 30
0.0
 11
32850.37269643665
 21
13929.77792203936
 31
0.0
  0
LINE
  5
315
330
22
100
AcDbEntity
  8
_0-6_
  6
Continuous
 62
     5
100
AcDbLine
 10
31750.37649051393
 20
24529.77825195913
 30
0.0
 11
31750.37649051393
 21
13736.01645732758
 31
0.0
  0
LINE
  5
316
330
22
100
AcDbEntity
  8
_0-6_
  6
Continuous
 62
     5
100
AcDbLine
 10
31696.24408051605
 20
13829.7775921196
 30
0.0
 11
32850.37269643665
 21
13829.7775921196
 31
0.0
  0
LINE
  5
317
330
22
100
AcDbEntity
  8
_0-6_
  6
Continuous
 62
     5
100
AcDbLine
 10
31753.97673993328
 20
13729.77849939894
 30
0.0
 11
32850.37269643665
 21
13729.77849939894
 31
0.0
  0
LINE
  5
318
330
22
100
AcDbEntity
  8
_0-6_
  6
Continuous
 62
     5
100
AcDbLine
 10
31811.71187374873
 20
13629.77816947918
 30
0.0
 11
32850.37269643665
 21
13629.77816947918
 31
0.0
  0
LINE
  5
319
330
22
100
AcDbEntity
  8
_0-6_
  6
Continuous
 62
     5
100
AcDbLine
 10
31850.37682043369
 20
24529.77825195913
 30
0.0
 11
31850.37682043369
 21
13562.81105588121
 31
0.0
  0
LINE
  5
31A
330
22
100
AcDbEntity
  8
_0-6_
  6
Continuous
 62
     5
100
AcDbLine
 10
31869.4470075642
 20
13529.77783955942
 30
0.0
 11
32850.37269643665
 21
13529.77783955942
 31
0.0
  0
LINE
  5
31B
330
22
100
AcDbEntity
  8
_0-6_
  6
Continuous
 62
     5
100
AcDbLine
 10
31950.37715035346
 20
24529.77825195913
 30
0.0
 11
31950.37715035346
 21
13389.60441723573
 31
0.0
  0
LINE
  5
31C
330
22
100
AcDbEntity
  8
_0-6_
  6
Continuous
 62
     5
100
AcDbLine
 10
31927.18214137964
 20
13429.77874683876
 30
0.0
 11
32850.37269643665
 21
13429.77874683876
 31
0.0
  0
LINE
  5
31D
330
22
100
AcDbEntity
  8
_0-6_
  6
Continuous
 62
     5
100
AcDbLine
 10
31984.9172751951
 20
13329.77841691901
 30
0.0
 11
32850.37269643665
 21
13329.77841691901
 31
0.0
  0
LINE
  5
31E
330
22
100
AcDbEntity
  8
_0-6_
  6
Continuous
 62
     5
100
AcDbLine
 10
32042.65240901056
 20
13229.77808699924
 30
0.0
 11
32850.37269643665
 21
13229.77808699924
 31
0.0
  0
LINE
  5
31F
330
22
100
AcDbEntity
  8
_0-6_
  6
Continuous
 62
     5
100
AcDbLine
 10
32050.37748027322
 20
24529.77825195913
 30
0.0
 11
32050.37748027322
 21
13216.39901578936
 31
0.0
  0
LINE
  5
320
330
22
100
AcDbEntity
  8
_0-6_
  6
Continuous
 62
     5
100
AcDbLine
 10
32150.37781019298
 20
24529.77825195913
 30
0.0
 11
32150.37781019298
 21
13043.19361434299
 31
0.0
  0
LINE
  5
321
330
22
100
AcDbEntity
  8
_0-6_
  6
Continuous
 62
     5
100
AcDbLine
 10
32100.38754282601
 20
13129.77775707948
 30
0.0
 11
32850.37269643665
 21
13129.77775707948
 31
0.0
  0
LINE
  5
322
330
22
100
AcDbEntity
  8
_0-6_
  6
Continuous
 62
     5
100
AcDbLine
 10
32158.12267664146
 20
13029.77742715972
 30
0.0
 11
32850.37269643665
 21
13029.77742715972
 31
0.0
  0
LINE
  5
323
330
22
100
AcDbEntity
  8
_0-6_
  6
Continuous
 62
     5
100
AcDbLine
 10
32215.85781045692
 20
12929.77833443906
 30
0.0
 11
32850.37269643665
 21
12929.77833443906
 31
0.0
  0
LINE
  5
324
330
22
100
AcDbEntity
  8
_0-6_
  6
Continuous
 62
     5
100
AcDbLine
 10
32273.59294427238
 20
12829.7780045193
 30
0.0
 11
32850.37269643665
 21
12829.7780045193
 31
0.0
  0
LINE
  5
325
330
22
100
AcDbEntity
  8
_0-6_
  6
Continuous
 62
     5
100
AcDbLine
 10
32250.37814011275
 20
24529.77825195913
 30
0.0
 11
32250.37814011275
 21
12869.98821289662
 31
0.0
  0
LINE
  5
326
330
22
100
AcDbEntity
  8
_0-6_
  6
Continuous
 62
     5
100
AcDbLine
 10
32331.32807808784
 20
12729.77891179865
 30
0.0
 11
32850.37269643665
 21
12729.77891179865
 31
0.0
  0
LINE
  5
327
330
22
100
AcDbEntity
  8
_0-6_
  6
Continuous
 62
     5
100
AcDbLine
 10
32389.0632119033
 20
12629.77858187889
 30
0.0
 11
32850.37269643665
 21
12629.77858187889
 31
0.0
  0
LINE
  5
328
330
22
100
AcDbEntity
  8
_0-6_
  6
Continuous
 62
     5
100
AcDbLine
 10
32350.37847003251
 20
24529.77825195913
 30
0.0
 11
32350.37847003251
 21
12696.78157425114
 31
0.0
  0
LINE
  5
329
330
22
100
AcDbEntity
  8
_0-6_
  6
Continuous
 62
     5
100
AcDbLine
 10
32446.79834571874
 20
12529.77825195912
 30
0.0
 11
32850.37269643665
 21
12529.77825195912
 31
0.0
  0
LINE
  5
32A
330
22
100
AcDbEntity
  8
_0-6_
  6
Continuous
 62
     5
100
AcDbLine
 10
32450.37632555406
 20
24529.77825195913
 30
0.0
 11
32450.37632555406
 21
12523.58112160123
 31
0.0
  0
LINE
  5
32B
330
22
100
AcDbEntity
  8
_0-6_
  6
Continuous
 62
     5
100
AcDbLine
 10
32562.26861334966
 20
12329.77759211959
 30
0.0
 11
32850.37269643665
 21
12329.77759211959
 31
0.0
  0
LINE
  5
32C
330
22
100
AcDbEntity
  8
_0-6_
  6
Continuous
 62
     5
100
AcDbLine
 10
32504.5334795342
 20
12429.77792203936
 30
0.0
 11
32850.37269643665
 21
12429.77792203936
 31
0.0
  0
LINE
  5
32D
330
22
100
AcDbEntity
  8
_0-6_
  6
Continuous
 62
     5
100
AcDbLine
 10
32550.37665547381
 20
24529.77825195913
 30
0.0
 11
32550.37665547381
 21
12350.37572015486
 31
0.0
  0
LINE
  5
32E
330
22
100
AcDbEntity
  8
_0-6_
  6
Continuous
 62
     5
100
AcDbLine
 10
32620.00374716512
 20
12229.77726219983
 30
0.0
 11
32850.37269643665
 21
12229.77726219983
 31
0.0
  0
LINE
  5
32F
330
22
100
AcDbEntity
  8
_0-6_
  6
Continuous
 62
     5
100
AcDbLine
 10
32650.37698539357
 20
24529.77825195913
 30
0.0
 11
32650.37698539357
 21
12177.17031870849
 31
0.0
  0
LINE
  5
330
330
22
100
AcDbEntity
  8
_0-6_
  6
Continuous
 62
     5
100
AcDbLine
 10
32677.73888098057
 20
12129.77816947918
 30
0.0
 11
32850.37269643665
 21
12129.77816947918
 31
0.0
  0
LINE
  5
331
330
22
100
AcDbEntity
  8
_0-6_
  6
Continuous
 62
     5
100
AcDbLine
 10
32750.37731531333
 20
24529.77825195913
 30
0.0
 11
32750.37731531333
 21
12003.96491726212
 31
0.0
  0
LINE
  5
332
330
22
100
AcDbEntity
  8
_0-6_
  6
Continuous
 62
     5
100
AcDbLine
 10
32735.47401479603
 20
12029.77907675853
 30
0.0
 11
32850.37269643665
 21
12029.77907675853
 31
0.0
  0
LINE
  5
333
330
22
100
AcDbEntity
  8
_0-6_
  6
Continuous
 62
     5
100
AcDbLine
 10
32793.20914861148
 20
11929.77874683877
 30
0.0
 11
32850.37269643665
 21
11929.77874683877
 31
0.0
  0
LINE
  5
334
330
22
100
AcDbEntity
  8
_0-6_
  6
DASHED1
 62
     5
100
AcDbLine
 10
37650.87846343412
 20
24578.88021036284
 30
0.0
 11
37563.76974827365
 21
11980.86146102268
 31
0.0
  0
LINE
  5
335
330
22
100
AcDbEntity
  8
_0-2_
  6
Continuous
 62
     7
100
AcDbLine
 10
10050.15643403166
 20
11306.35782530688
 30
0.0
 11
10067.37577128884
 21
8731.359227465883
 31
0.0
  0
LINE
  5
336
330
22
100
AcDbEntity
  8
_0-0_
  6
CENTER1
 62
     4
100
AcDbLine
 10
9850.375995634284
 20
11980.86146102268
 30
0.0
 11
9850.375995634284
 21
7899.494999346163
 31
0.0
  0
LINE
  5
337
330
22
100
AcDbEntity
  8
ADD_LINE
  6
DOT
 62
     4
100
AcDbLine
 10
23850.3776452331
 20
16240.6765739872
 30
0.0
 11
23850.3776452331
 21
7899.494999346163
 31
0.0
  0
LINE
  5
338
330
22
100
AcDbEntity
  8
ADD_LINE
  6
DOT
 62
     7
100
AcDbLine
 10
9850.341354059112
 20
16234.825859381
 30
0.0
 11
9850.341354059112
 21
16154.34481986981
 31
0.0
  0
LINE
  5
339
330
22
100
AcDbEntity
  8
_0-0_
  6
CENTER1
 62
     4
100
AcDbLine
 10
9850.341354059112
 20
16154.34481986981
 30
0.0
 11
9850.341354059112
 21
16004.65486196757
 31
0.0
  0
LINE
  5
33A
330
22
100
AcDbEntity
  8
_0-3_
  6
Continuous
 62
     6
100
AcDbLine
 10
9850.375995634284
 20
11955.86261574185
 30
0.0
 11
9850.375995634284
 21
16004.65486196757
 31
0.0
  0
LINE
  5
33B
330
22
100
AcDbEntity
  8
ADD_LINE
  6
DOT
 62
     7
100
AcDbLine
 10
9850.375995634284
 20
20484.9759728734
 30
0.0
 11
9850.375995634284
 21
20222.4868602256
 31
0.0
  0
LINE
  5
33C
330
22
100
AcDbEntity
  8
_0-3_
  6
Continuous
 62
     6
100
AcDbLine
 10
9850.375995634284
 20
16154.34481986981
 30
0.0
 11
9850.375995634284
 21
20255.57698770659
 31
0.0
  0
LINE
  5
33D
330
22
100
AcDbEntity
  8
_0-3_
  6
Continuous
 62
     6
100
AcDbLine
 10
9850.375995634284
 20
24385.67919684933
 30
0.0
 11
9850.375995634284
 21
20404.66937843717
 31
0.0
  0
LINE
  5
33E
330
22
100
AcDbEntity
  8
_0-0_
  6
CENTER1
 62
     4
100
AcDbLine
 10
9850.375995634284
 20
20404.66937843717
 30
0.0
 11
9850.375995634284
 21
20254.49443848256
 31
0.0
  0
LINE
  5
33F
330
22
100
AcDbEntity
  8
_0-3_
  6
Continuous
 62
     6
100
AcDbLine
 10
16704.54073776899
 20
24575.01520033329
 30
0.0
 11
10095.61360384796
 21
11980.86146102268
 31
0.0
  0
LINE
  5
340
330
22
100
AcDbEntity
  8
_0-0_
  6
Continuous
 62
     7
100
AcDbLine
 10
17012.37567231291
 20
24575.01520033329
 30
0.0
 11
17012.37567231291
 21
24675.01553025305
 31
0.0
  0
LINE
  5
341
330
22
100
AcDbEntity
  8
_0-3_
  6
Continuous
 62
     6
100
AcDbLine
 10
9875.374840915114
 20
24529.77825195913
 30
0.0
 11
16825.37797515287
 21
24529.77825195913
 31
0.0
  0
LINE
  5
342
330
22
100
AcDbEntity
  8
ADD_LINE
  6
DOT
 62
     7
100
AcDbLine
 10
16850.25310052238
 20
20235.74468592238
 30
0.0
 11
16850.25310052238
 21
20222.48562302648
 31
0.0
  0
LINE
  5
343
330
22
100
AcDbEntity
  8
_0-3_
  6
Continuous
 62
     6
100
AcDbLine
 10
9887.877975152864
 20
20279.77783955942
 30
0.0
 11
16812.75112100379
 21
20279.77783955942
 31
0.0
  0
LINE
  5
344
330
22
100
AcDbEntity
  8
_0-0_
  6
CENTER1
 62
     4
100
AcDbLine
 10
16850.37682043369
 20
16002.86834644814
 30
0.0
 11
16850.37682043369
 21
25457.71222841605
 31
0.0
  0
LINE
  5
345
330
22
100
AcDbEntity
  8
_0-3_
  6
Continuous
 62
     6
100
AcDbLine
 10
16850.37682043369
 20
16139.17675874227
 30
0.0
 11
16850.37682043369
 21
24529.77825195913
 31
0.0
  0
LINE
  5
346
330
22
100
AcDbEntity
  8
ADD_LINE
  6
DOT
 62
     4
100
AcDbLine
 10
16850.37682043369
 20
16240.6765739872
 30
0.0
 11
16850.37682043369
 21
16154.34481986981
 31
0.0
  0
LINE
  5
347
330
22
100
AcDbEntity
  8
_0-3_
  6
Continuous
 62
     6
100
AcDbLine
 10
16850.3397044603
 20
16004.34432499016
 30
0.0
 11
16850.3397044603
 21
11955.86261574185
 31
0.0
  0
LINE
  5
348
330
22
100
AcDbEntity
  8
_0-3_
  6
Continuous
 62
     6
100
AcDbLine
 10
9888.048708630485
 20
11830.76693901043
 30
0.0
 11
16813.05299758741
 21
11830.76693901043
 31
0.0
  0
LINE
  5
349
330
22
100
AcDbEntity
  8
_0-3_
  6
Continuous
 62
     6
100
AcDbLine
 10
9995.640492308693
 20
24575.01520033329
 30
0.0
 11
16604.41668793791
 21
11980.86146102268
 31
0.0
  0
LINE
  5
34A
330
22
100
AcDbEntity
  8
ADD_LINE
  6
DOT
 62
     4
100
AcDbLine
 10
16850.37682043369
 20
15944.44532992576
 30
0.0
 11
16850.37682043369
 21
7899.494999346163
 31
0.0
  0
LINE
  5
34B
330
22
100
AcDbEntity
  8
_0-0_
  6
CENTER1
 62
     4
100
AcDbLine
 10
16850.3397044603
 20
11955.86261574185
 30
0.0
 11
16850.3397044603
 21
7899.494999346163
 31
0.0
  0
LINE
  5
34C
330
22
100
AcDbEntity
  8
_0-3_
  6
Continuous
 62
     6
100
AcDbLine
 10
9887.843333577698
 20
16029.77742715971
 30
0.0
 11
16812.84267373817
 21
16029.77742715971
 31
0.0
  0
LINE
  5
34D
330
22
100
AcDbEntity
  8
_0-3_
  6
Continuous
 62
     6
100
AcDbLine
 10
23691.14517057095
 20
24578.88021036284
 30
0.0
 11
17094.89066716617
 21
11980.86146102268
 31
0.0
  0
LINE
  5
34E
330
22
100
AcDbEntity
  8
_0-3_
  6
Continuous
 62
     6
100
AcDbLine
 10
16875.37814011274
 20
24529.77825195913
 30
0.0
 11
23825.37879995228
 21
24529.77825195913
 31
0.0
  0
LINE
  5
34F
330
22
100
AcDbEntity
  8
_0-3_
  6
Continuous
 62
     6
100
AcDbLine
 10
23875.37649051393
 20
24529.77825195913
 30
0.0
 11
30825.37715035346
 21
24529.77825195913
 31
0.0
  0
LINE
  5
350
330
22
100
AcDbEntity
  8
_0-2_
  6
Continuous
 62
     7
100
AcDbLine
 10
23812.87814011275
 20
20404.4949333622
 30
0.0
 11
23812.87814011275
 21
20254.49443848256
 31
0.0
  0
LINE
  5
351
330
22
100
AcDbEntity
  8
_0-3_
  6
Continuous
 62
     6
100
AcDbLine
 10
16887.7501312445
 20
20279.77783955942
 30
0.0
 11
23812.87814011275
 21
20279.77783955942
 31
0.0
  0
LINE
  5
352
330
22
100
AcDbEntity
  8
_0-3_
  6
Continuous
 62
     6
100
AcDbLine
 10
16887.84168397888
 20
16029.77742715971
 30
0.0
 11
23812.84349853758
 21
16029.77742715971
 31
0.0
  0
LINE
  5
353
330
22
100
AcDbEntity
  8
_0-3_
  6
Continuous
 62
     6
100
AcDbLine
 10
23850.34052925971
 20
16004.34432499016
 30
0.0
 11
23850.34052925971
 21
11955.86014134362
 31
0.0
  0
LINE
  5
354
330
22
100
AcDbEntity
  8
_0-3_
  6
Continuous
 62
     6
100
AcDbLine
 10
16995.62399632052
 20
24575.01520033329
 30
0.0
 11
23605.01879150633
 21
11980.86146102268
 31
0.0
  0
LINE
  5
355
330
22
100
AcDbEntity
  8
_0-3_
  6
Continuous
 62
     6
100
AcDbLine
 10
16888.04705903166
 20
11830.76693901043
 30
0.0
 11
23813.05382238682
 21
11830.76693901043
 31
0.0
  0
LINE
  5
356
330
22
100
AcDbEntity
  8
_0-3_
  6
Continuous
 62
     6
100
AcDbLine
 10
23888.04788383108
 20
11830.76693901043
 30
0.0
 11
30813.05217278801
 21
11830.76693901043
 31
0.0
  0
LINE
  5
357
330
22
100
AcDbEntity
  8
_0-3_
  6
Continuous
 62
     6
100
AcDbLine
 10
30888.04623423226
 20
11830.76693901043
 30
0.0
 11
32850.37269643665
 21
11830.76693901043
 31
0.0
  0
LINE
  5
358
330
22
100
AcDbEntity
  8
ADD_LINE
  6
DOT
 62
     4
100
AcDbLine
 10
30850.37599563428
 20
16240.6765739872
 30
0.0
 11
30850.37599563428
 21
11955.86261574185
 31
0.0
  0
LINE
  5
359
330
22
100
AcDbEntity
  8
_0-3_
  6
Continuous
 62
     6
100
AcDbLine
 10
30850.37847003251
 20
16154.34481986981
 30
0.0
 11
30850.37847003251
 21
20253.91419209848
 31
0.0
  0
LINE
  5
35A
330
22
100
AcDbEntity
  8
_0-3_
  6
Continuous
 62
     6
100
AcDbLine
 10
30850.37847003251
 20
20403.91468697813
 30
0.0
 11
30850.37847003251
 21
24454.69511217873
 31
0.0
  0
LINE
  5
35B
330
22
100
AcDbEntity
  8
_0-3_
  6
Continuous
 62
     6
100
AcDbLine
 10
30691.52952709544
 20
24579.69676177754
 30
0.0
 11
24094.42754229814
 21
11980.86146102268
 31
0.0
  0
LINE
  5
35C
330
22
100
AcDbEntity
  8
_0-3_
  6
Continuous
 62
     6
100
AcDbLine
 10
31007.62895171537
 20
24579.69676177754
 30
0.0
 11
32850.37517083488
 21
21061.38332810461
 31
0.0
  0
LINE
  5
35D
330
22
100
AcDbEntity
  8
_0-3_
  6
Continuous
 62
     6
100
AcDbLine
 10
23887.87715035346
 20
20279.77783955942
 30
0.0
 11
30812.87649051393
 21
20279.77783955942
 31
0.0
  0
LINE
  5
35E
330
22
100
AcDbEntity
  8
_0-3_
  6
Continuous
 62
     6
100
AcDbLine
 10
30887.87550075464
 20
20279.77783955942
 30
0.0
 11
32850.37269643665
 21
20279.77783955942
 31
0.0
  0
LINE
  5
35F
330
22
100
AcDbEntity
  8
_0-6_
  6
Continuous
 62
     5
100
AcDbLine
 10
30397.41760511486
 20
16029.77866435883
 30
0.0
 11
30812.84184893876
 21
16029.77866435883
 31
0.0
  0
LINE
  5
360
330
22
100
AcDbEntity
  8
_0-6_
  6
Continuous
 62
     5
100
AcDbLine
 10
30887.84085917947
 20
16029.77866435883
 30
0.0
 11
32850.37764523311
 21
16029.77866435883
 31
0.0
  0
LINE
  5
361
330
22
100
AcDbEntity
  8
_0-3_
  6
Continuous
 62
     6
100
AcDbLine
 10
23887.84250877828
 20
16029.77742715971
 30
0.0
 11
30812.91608088557
 21
16029.77742715971
 31
0.0
  0
LINE
  5
362
330
22
100
AcDbEntity
  8
_0-3_
  6
Continuous
 62
     6
100
AcDbLine
 10
30887.48207143665
 20
16029.77742715971
 30
0.0
 11
32850.37764523311
 21
16029.77742715971
 31
0.0
  0
LINE
  5
363
330
22
100
AcDbEntity
  8
_0-3_
  6
Continuous
 62
     6
100
AcDbLine
 10
24007.66524288935
 20
24578.88021036284
 30
0.0
 11
30605.25715853548
 21
11980.86146102268
 31
0.0
  0
LINE
  5
364
330
22
100
AcDbEntity
  8
_0-3_
  6
Continuous
 62
     6
100
AcDbLine
 10
32850.37269643665
 20
15333.76137326402
 30
0.0
 11
31094.13143931039
 21
11980.86146102268
 31
0.0
  0
LINE
  5
365
330
22
100
AcDbEntity
  8
_0-3_
  6
Continuous
 62
     6
100
AcDbLine
 10
30875.37484091512
 20
24529.77825195913
 30
0.0
 11
32850.37269643665
 21
24529.77825195913
 31
0.0
  0
LINE
  5
366
330
22
100
AcDbEntity
  8
_0-3_
  6
Continuous
 62
     6
100
AcDbLine
 10
17121.5238524755
 20
12136.79556284911
 30
0.0
 11
17215.30107085599
 21
12313.44780102479
 31
0.0
  0
LINE
  5
367
330
22
100
AcDbEntity
  8
_0-3_
  6
Continuous
 62
     6
100
AcDbLine
 10
17209.84997156333
 20
12089.90695365887
 30
0.0
 11
17303.62718994383
 21
12266.55919183455
 31
0.0
  0
LINE
  5
368
330
22
100
AcDbEntity
  8
_0-3_
  6
Continuous
 62
     6
100
AcDbLine
 10
23904.12899790412
 20
12131.85171519286
 30
0.0
 11
23904.12899790412
 21
12335.60108834531
 31
0.0
  0
LINE
  5
369
330
22
100
AcDbEntity
  8
_0-3_
  6
Continuous
 62
     6
100
AcDbLine
 10
23804.12866798437
 20
12126.36844872327
 30
0.0
 11
23804.12866798437
 21
12330.87746213121
 31
0.0
  0
LINE
  5
36A
330
22
100
AcDbEntity
  8
_0-3_
  6
Continuous
 62
     6
100
AcDbLine
 10
24121.56179324831
 20
12136.79556284911
 30
0.0
 11
24215.3390116288
 21
12313.44780102479
 31
0.0
  0
LINE
  5
36B
330
22
100
AcDbEntity
  8
_0-3_
  6
Continuous
 62
     6
100
AcDbLine
 10
24209.88791233614
 20
12089.90695365887
 30
0.0
 11
24303.66513071663
 21
12266.55919183455
 31
0.0
  0
LINE
  5
36C
330
22
100
AcDbEntity
  8
_0-3_
  6
Continuous
 62
     6
100
AcDbLine
 10
23579.1934972179
 20
12136.79556284911
 30
0.0
 11
23485.41627883741
 21
12313.44780102479
 31
0.0
  0
LINE
  5
36D
330
22
100
AcDbEntity
  8
_0-3_
  6
Continuous
 62
     6
100
AcDbLine
 10
23490.86737813006
 20
12089.90695365887
 30
0.0
 11
23397.09015974957
 21
12266.55919183455
 31
0.0
  0
LINE
  5
36E
330
22
100
AcDbEntity
  8
_0-3_
  6
Continuous
 62
     6
100
AcDbLine
 10
30796.62464296325
 20
12131.85171519286
 30
0.0
 11
30796.62464296325
 21
12335.60108834531
 31
0.0
  0
LINE
  5
36F
330
22
100
AcDbEntity
  8
_0-3_
  6
Continuous
 62
     6
100
AcDbLine
 10
30896.62497288302
 20
12126.36844872327
 30
0.0
 11
30896.62497288302
 21
12330.87746213121
 31
0.0
  0
LINE
  5
370
330
22
100
AcDbEntity
  8
_0-3_
  6
Continuous
 62
     6
100
AcDbLine
 10
30579.19184761908
 20
12136.79556284911
 30
0.0
 11
30485.4146292386
 21
12313.44780102479
 31
0.0
  0
LINE
  5
371
330
22
100
AcDbEntity
  8
_0-3_
  6
Continuous
 62
     6
100
AcDbLine
 10
30490.86572853124
 20
12089.90695365887
 30
0.0
 11
30397.08851015075
 21
12266.55919183455
 31
0.0
  0
LINE
  5
372
330
22
100
AcDbEntity
  8
_0-3_
  6
Continuous
 62
     6
100
AcDbLine
 10
31121.56014364949
 20
12136.79556284911
 30
0.0
 11
31215.33736202999
 21
12313.44780102479
 31
0.0
  0
LINE
  5
373
330
22
100
AcDbEntity
  8
_0-3_
  6
Continuous
 62
     6
100
AcDbLine
 10
31209.88626273732
 20
12089.90695365887
 30
0.0
 11
31303.66348111782
 21
12266.55919183455
 31
0.0
  0
CIRCLE
  5
374
330
22
100
AcDbEntity
  8
_0-0_
  6
Continuous
 62
     7
100
AcDbCircle
 10
9718.235707152443
 20
24650.01915937044
 30
0.0
 40
10.00000012887491
  0
CIRCLE
  5
375
330
22
100
AcDbEntity
  8
_0-0_
  6
Continuous
 62
     7
100
AcDbCircle
 10
9718.069922471281
 20
24600.01157121589
 30
0.0
 40
10.00000012887491
  0
CIRCLE
  5
376
330
22
100
AcDbEntity
  8
_0-0_
  6
Continuous
 62
     7
100
AcDbCircle
 10
9850.375995634284
 20
24600.01157121589
 30
0.0
 40
10.00000012887491
  0
CIRCLE
  5
377
330
22
100
AcDbEntity
  8
_0-0_
  6
Continuous
 62
     7
100
AcDbCircle
 10
9850.375995634284
 20
24650.01915937044
 30
0.0
 40
10.00000012887491
  0
CIRCLE
  5
378
330
22
100
AcDbEntity
  8
_0-0_
  6
Continuous
 62
     7
100
AcDbCircle
 10
9850.375995634284
 20
24530.01579418886
 30
0.0
 40
10.00000012887491
  0
CIRCLE
  5
379
330
22
100
AcDbEntity
  8
_0-0_
  6
Continuous
 62
     7
100
AcDbCircle
 10
10163.83276294847
 20
24650.02905696335
 30
0.0
 40
15.00000019331236
  0
CIRCLE
  5
37A
330
22
100
AcDbEntity
  8
_0-0_
  6
Continuous
 62
     7
100
AcDbCircle
 10
9982.516284116124
 20
24650.01915937044
 30
0.0
 40
10.00000012887491
  0
ARC
  5
37B
330
22
100
AcDbEntity
  8
_0-0_
  6
Continuous
 62
     6
100
AcDbCircle
 10
10296.64856214611
 20
11830.99210924903
 30
0.0
 40
50.00114118730699
100
AcDbArc
 50
89.64202880859373
 51
270.3579711914062
  0
ARC
  5
37C
330
22
100
AcDbEntity
  8
_0-0_
  6
Continuous
 62
     6
100
AcDbCircle
 10
10496.88428981714
 20
11830.99210924903
 30
0.0
 40
50.00022295359018
100
AcDbArc
 50
270.0879058837891
 51
89.91209411621095
  0
CIRCLE
  5
37D
330
22
100
AcDbEntity
  8
_0-0_
  6
Continuous
 62
     6
100
AcDbCircle
 10
10646.88231029855
 20
11830.99210924903
 30
0.0
 40
50.00000064437454
  0
CIRCLE
  5
37E
330
22
100
AcDbEntity
  8
_0-0_
  6
Continuous
 62
     7
100
AcDbCircle
 10
9982.516284116124
 20
24600.01652001233
 30
0.0
 40
10.00000012887491
  0
CIRCLE
  5
37F
330
22
100
AcDbEntity
  8
_0-3_
  6
Continuous
 62
     7
100
AcDbCircle
 10
9850.618486660465
 20
20279.66030564367
 30
0.0
 40
10.00000012887491
  0
CIRCLE
  5
380
330
22
100
AcDbEntity
  8
_0-3_
  6
Continuous
 62
     7
100
AcDbCircle
 10
9689.678677222122
 20
20380.00581411601
 30
0.0
 40
10.00000012887491
  0
CIRCLE
  5
381
330
22
100
AcDbEntity
  8
_0-3_
  6
Continuous
 62
     7
100
AcDbCircle
 10
10010.60317838344
 20
20380.05530208053
 30
0.0
 40
10.00000012887491
  0
CIRCLE
  5
382
330
22
100
AcDbEntity
  8
_0-3_
  6
Continuous
 62
     7
100
AcDbCircle
 10
9850.618486660465
 20
20379.32782900199
 30
0.0
 40
10.00000012887491
  0
CIRCLE
  5
383
330
22
100
AcDbEntity
  8
_0-3_
  6
Continuous
 62
     7
100
AcDbCircle
 10
9850.450227581076
 20
11830.99210924903
 30
0.0
 40
10.00000012887491
  0
ARC
  5
384
330
22
100
AcDbEntity
  8
_0-3_
  6
Continuous
 62
     6
100
AcDbCircle
 10
9846.585217551515
 20
12130.86195590233
 30
0.0
 40
50.00114118730699
100
AcDbArc
 50
179.6420288085938
 51
0.3579711914061931
  0
ARC
  5
385
330
22
100
AcDbEntity
  8
_0-3_
  6
Continuous
 62
     6
100
AcDbCircle
 10
9846.585217551515
 20
12331.09768357335
 30
0.0
 40
50.00022295359018
100
AcDbArc
 50
0.0879058837891062
 51
179.9120941162109
  0
CIRCLE
  5
386
330
22
100
AcDbEntity
  8
_0-3_
  6
Continuous
 62
     6
100
AcDbCircle
 10
9846.585217551515
 20
12481.098178453
 30
0.0
 40
50.00000064437454
  0
CIRCLE
  5
387
330
22
100
AcDbEntity
  8
_0-3_
  6
Continuous
 62
     7
100
AcDbCircle
 10
9631.384329407511
 20
11930.70664617365
 30
0.0
 40
10.00000012887491
  0
CIRCLE
  5
388
330
22
100
AcDbEntity
  8
_0-3_
  6
Continuous
 62
     7
100
AcDbCircle
 10
9850.794168934539
 20
11930.69551138163
 30
0.0
 40
10.00000012887491
  0
CIRCLE
  5
389
330
22
100
AcDbEntity
  8
_0-3_
  6
Continuous
 62
     7
100
AcDbCircle
 10
10068.97670694129
 20
11930.70540897454
 30
0.0
 40
10.00000012887491
  0
CIRCLE
  5
38A
330
22
100
AcDbEntity
  8
_0-3_
  6
Continuous
 62
     6
100
AcDbCircle
 10
10327.17768746283
 20
12423.44717417724
 30
0.0
 40
50.00000064437454
  0
CIRCLE
  5
38B
330
22
100
AcDbEntity
  8
_0-3_
  6
Continuous
 62
     7
100
AcDbCircle
 10
16850.45105238048
 20
11830.99210924903
 30
0.0
 40
10.00000012887491
  0
ARC
  5
38C
330
22
100
AcDbEntity
  8
_0-3_
  6
Continuous
 62
     6
100
AcDbCircle
 10
16846.58604235092
 20
12130.86195590233
 30
0.0
 40
50.00114118730699
100
AcDbArc
 50
179.6420288085938
 51
0.3579711914061931
  0
ARC
  5
38D
330
22
100
AcDbEntity
  8
_0-3_
  6
Continuous
 62
     6
100
AcDbCircle
 10
16846.58604235092
 20
12331.09768357335
 30
0.0
 40
50.00022295359018
100
AcDbArc
 50
0.0879058837891062
 51
179.9120941162109
  0
CIRCLE
  5
38E
330
22
100
AcDbEntity
  8
_0-3_
  6
Continuous
 62
     6
100
AcDbCircle
 10
16846.58604235092
 20
12481.098178453
 30
0.0
 40
50.00000064437454
  0
CIRCLE
  5
38F
330
22
100
AcDbEntity
  8
_0-3_
  6
Continuous
 62
     7
100
AcDbCircle
 10
16631.38267980869
 20
11930.70664617365
 30
0.0
 40
10.00000012887491
  0
CIRCLE
  5
390
330
22
100
AcDbEntity
  8
_0-3_
  6
Continuous
 62
     7
100
AcDbCircle
 10
16850.79251933572
 20
11930.69551138163
 30
0.0
 40
10.00000012887491
  0
CIRCLE
  5
391
330
22
100
AcDbEntity
  8
_0-3_
  6
Continuous
 62
     7
100
AcDbCircle
 10
17068.97505734248
 20
11930.70540897454
 30
0.0
 40
10.00000012887491
  0
CIRCLE
  5
392
330
22
100
AcDbEntity
  8
_0-0_
  6
Continuous
 62
     7
100
AcDbCircle
 10
16718.23653195185
 20
24650.01915937044
 30
0.0
 40
10.00000012887491
  0
CIRCLE
  5
393
330
22
100
AcDbEntity
  8
_0-0_
  6
Continuous
 62
     7
100
AcDbCircle
 10
16718.06827287246
 20
24600.01157121589
 30
0.0
 40
10.00000012887491
  0
CIRCLE
  5
394
330
22
100
AcDbEntity
  8
_0-0_
  6
Continuous
 62
     7
100
AcDbCircle
 10
16850.37682043369
 20
24600.01157121589
 30
0.0
 40
10.00000012887491
  0
CIRCLE
  5
395
330
22
100
AcDbEntity
  8
_0-0_
  6
Continuous
 62
     7
100
AcDbCircle
 10
16850.37682043369
 20
24650.01915937044
 30
0.0
 40
10.00000012887491
  0
CIRCLE
  5
396
330
22
100
AcDbEntity
  8
_0-0_
  6
Continuous
 62
     7
100
AcDbCircle
 10
16850.37682043369
 20
24530.01579418886
 30
0.0
 40
10.00000012887491
  0
CIRCLE
  5
397
330
22
100
AcDbEntity
  8
_0-0_
  6
Continuous
 62
     7
100
AcDbCircle
 10
16982.51463451731
 20
24650.01915937044
 30
0.0
 40
10.00000012887491
  0
CIRCLE
  5
398
330
22
100
AcDbEntity
  8
_0-0_
  6
Continuous
 62
     7
100
AcDbCircle
 10
16982.51463451731
 20
24600.01652001233
 30
0.0
 40
10.00000012887491
  0
CIRCLE
  5
399
330
22
100
AcDbEntity
  8
_0-0_
  6
Continuous
 62
     7
100
AcDbCircle
 10
16536.91757872127
 20
24650.02905696335
 30
0.0
 40
15.00000019331236
  0
CIRCLE
  5
39A
330
22
100
AcDbEntity
  8
_0-3_
  6
Continuous
 62
     7
100
AcDbCircle
 10
23850.45187717989
 20
11830.99210924903
 30
0.0
 40
10.00000012887491
  0
CIRCLE
  5
39B
330
22
100
AcDbEntity
  8
_0-3_
  6
Continuous
 62
     7
100
AcDbCircle
 10
23631.3835046081
 20
11930.70540897454
 30
0.0
 40
10.00000012887491
  0
CIRCLE
  5
39C
330
22
100
AcDbEntity
  8
_0-3_
  6
Continuous
 62
     7
100
AcDbCircle
 10
23850.79334413513
 20
11930.69551138163
 30
0.0
 40
10.00000012887491
  0
CIRCLE
  5
39D
330
22
100
AcDbEntity
  8
_0-3_
  6
Continuous
 62
     7
100
AcDbCircle
 10
24068.97588214189
 20
11930.70540897454
 30
0.0
 40
10.00000012887491
  0
CIRCLE
  5
39E
330
22
100
AcDbEntity
  8
_0-3_
  6
Continuous
 62
     7
100
AcDbCircle
 10
30850.45022758107
 20
11830.99210924903
 30
0.0
 40
10.00000012887491
  0
CIRCLE
  5
39F
330
22
100
AcDbEntity
  8
_0-3_
  6
Continuous
 62
     7
100
AcDbCircle
 10
30631.38185500928
 20
11930.70664617365
 30
0.0
 40
10.00000012887491
  0
CIRCLE
  5
3A0
330
22
100
AcDbEntity
  8
_0-3_
  6
Continuous
 62
     7
100
AcDbCircle
 10
30850.79169453632
 20
11930.69551138163
 30
0.0
 40
10.00000012887491
  0
CIRCLE
  5
3A1
330
22
100
AcDbEntity
  8
_0-3_
  6
Continuous
 62
     7
100
AcDbCircle
 10
31068.97423254307
 20
11930.70540897454
 30
0.0
 40
10.00000012887491
  0
ARC
  5
3A2
330
22
100
AcDbEntity
  8
_0-3_
  6
Continuous
 62
     6
100
AcDbCircle
 10
16441.24002250295
 20
12289.95710146292
 30
0.0
 40
50.00041143314257
100
AcDbArc
 50
28.02186584472656
 51
207.9016876220703
  0
ARC
  5
3A3
330
22
100
AcDbEntity
  8
_0-3_
  6
Continuous
 62
     6
100
AcDbCircle
 10
16534.84650740582
 20
12113.62653505667
 30
0.0
 40
50.00108319359857
100
AcDbArc
 50
208.3190002441406
 51
27.60488891601563
  0
CIRCLE
  5
3A4
330
22
100
AcDbEntity
  8
_0-3_
  6
Continuous
 62
     6
100
AcDbCircle
 10
16371.80840827153
 20
12421.68045384362
 30
0.0
 40
50.00000064437454
  0
CIRCLE
  5
3A5
330
22
100
AcDbEntity
  8
_0-3_
  6
Continuous
 62
     7
100
AcDbCircle
 10
23631.3835046081
 20
11930.70664617365
 30
0.0
 40
10.00000012887491
  0
CIRCLE
  5
3A6
330
22
100
AcDbEntity
  8
_0-2_
  6
Continuous
 62
     7
100
AcDbCircle
 10
30718.18127039147
 20
24629.96168734764
 30
0.0
 40
10.00000012887491
  0
CIRCLE
  5
3A7
330
22
100
AcDbEntity
  8
_0-2_
  6
Continuous
 62
     7
100
AcDbCircle
 10
30982.24904910768
 20
24628.67005147349
 30
0.0
 40
10.00000012887491
  0
CIRCLE
  5
3A8
330
22
100
AcDbEntity
  8
_0-2_
  6
Continuous
 62
     7
100
AcDbCircle
 10
30850.62096105869
 20
24629.53114205626
 30
0.0
 40
10.00000012887491
  0
CIRCLE
  5
3A9
330
22
100
AcDbEntity
  8
_0-2_
  6
Continuous
 62
     7
100
AcDbCircle
 10
30850.62096105869
 20
24529.86238149883
 30
0.0
 40
10.00000012887491
  0
CIRCLE
  5
3AA
330
22
100
AcDbEntity
  8
_0-2_
  6
Continuous
 62
     7
100
AcDbCircle
 10
23849.93967674704
 20
20280.24055202775
 30
0.0
 40
10.00000012887491
  0
CIRCLE
  5
3AB
330
22
100
AcDbEntity
  8
_0-2_
  6
Continuous
 62
     7
100
AcDbCircle
 10
23689.68280121916
 20
20380.00581411601
 30
0.0
 40
10.00000012887491
  0
CIRCLE
  5
3AC
330
22
100
AcDbEntity
  8
_0-2_
  6
Continuous
 62
     7
100
AcDbCircle
 10
24010.60235358403
 20
20380.05653927965
 30
0.0
 40
10.00000012887491
  0
CIRCLE
  5
3AD
330
22
100
AcDbEntity
  8
_0-2_
  6
Continuous
 62
     7
100
AcDbCircle
 10
23849.93967674704
 20
20379.90807538607
 30
0.0
 40
10.00000012887491
  0
CIRCLE
  5
3AE
330
22
100
AcDbEntity
  8
_0-2_
  6
Continuous
 62
     7
100
AcDbCircle
 10
16850.49559154856
 20
20279.66030564367
 30
0.0
 40
10.00000012887491
  0
CIRCLE
  5
3AF
330
22
100
AcDbEntity
  8
_0-2_
  6
Continuous
 62
     7
100
AcDbCircle
 10
16689.55578211021
 20
20380.00581411601
 30
0.0
 40
10.00000012887491
  0
CIRCLE
  5
3B0
330
22
100
AcDbEntity
  8
_0-2_
  6
Continuous
 62
     7
100
AcDbCircle
 10
17010.48028327153
 20
20380.05653927965
 30
0.0
 40
10.00000012887491
  0
CIRCLE
  5
3B1
330
22
100
AcDbEntity
  8
_0-2_
  6
Continuous
 62
     7
100
AcDbCircle
 10
16850.49559154856
 20
20379.32782900199
 30
0.0
 40
10.00000012887491
  0
CIRCLE
  5
3B2
330
22
100
AcDbEntity
  8
_0-2_
  6
Continuous
 62
     7
100
AcDbCircle
 10
30850.58137068708
 20
16029.51019215127
 30
0.0
 40
10.00000012887491
  0
CIRCLE
  5
3B3
330
22
100
AcDbEntity
  8
_0-2_
  6
Continuous
 62
     7
100
AcDbCircle
 10
30662.34894881208
 20
16129.8557006236
 30
0.0
 40
10.00000012887491
  0
CIRCLE
  5
3B4
330
22
100
AcDbEntity
  8
_0-2_
  6
Continuous
 62
     7
100
AcDbCircle
 10
30850.58137068708
 20
16129.1789527087
 30
0.0
 40
10.00000012887491
  0
CIRCLE
  5
3B5
330
22
100
AcDbEntity
  8
_0-2_
  6
Continuous
 62
     7
100
AcDbCircle
 10
31038.33375930616
 20
16129.8557006236
 30
0.0
 40
10.00000012887491
  0
CIRCLE
  5
3B6
330
22
100
AcDbEntity
  8
_0-2_
  6
Continuous
 62
     7
100
AcDbCircle
 10
31038.32386171325
 20
16129.8557006236
 30
0.0
 40
10.00000012887491
  0
CIRCLE
  5
3B7
330
22
100
AcDbEntity
  8
_0-2_
  6
Continuous
 62
     7
100
AcDbCircle
 10
23718.18044559206
 20
24629.14513593295
 30
0.0
 40
10.00000012887491
  0
CIRCLE
  5
3B8
330
22
100
AcDbEntity
  8
_0-2_
  6
Continuous
 62
     7
100
AcDbCircle
 10
23982.24327551182
 20
24627.8535000588
 30
0.0
 40
10.00000012887491
  0
CIRCLE
  5
3B9
330
22
100
AcDbEntity
  8
_0-2_
  6
Continuous
 62
     7
100
AcDbCircle
 10
23850.61518746284
 20
24628.71459064156
 30
0.0
 40
10.00000012887491
  0
CIRCLE
  5
3BA
330
22
100
AcDbEntity
  8
_0-2_
  6
Continuous
 62
     7
100
AcDbCircle
 10
23850.61518746284
 20
24529.04583008413
 30
0.0
 40
10.00000012887491
  0
CIRCLE
  5
3BB
330
22
100
AcDbEntity
  8
_0-2_
  6
Continuous
 62
     7
100
AcDbCircle
 10
23850.58302028589
 20
16029.51019215127
 30
0.0
 40
10.00000012887491
  0
CIRCLE
  5
3BC
330
22
100
AcDbEntity
  8
_0-2_
  6
Continuous
 62
     7
100
AcDbCircle
 10
23662.35059841089
 20
16129.8557006236
 30
0.0
 40
10.00000012887491
  0
CIRCLE
  5
3BD
330
22
100
AcDbEntity
  8
_0-2_
  6
Continuous
 62
     7
100
AcDbCircle
 10
23850.58302028589
 20
16129.1789527087
 30
0.0
 40
10.00000012887491
  0
CIRCLE
  5
3BE
330
22
100
AcDbEntity
  8
_0-2_
  6
Continuous
 62
     7
100
AcDbCircle
 10
24038.33540890498
 20
16129.8557006236
 30
0.0
 40
10.00000012887491
  0
CIRCLE
  5
3BF
330
22
100
AcDbEntity
  8
_0-2_
  6
Continuous
 62
     7
100
AcDbCircle
 10
24038.32551131207
 20
16129.8557006236
 30
0.0
 40
10.00000012887491
  0
CIRCLE
  5
3C0
330
22
100
AcDbEntity
  8
_0-2_
  6
Continuous
 62
     7
100
AcDbCircle
 10
16850.58219548648
 20
16029.51019215127
 30
0.0
 40
10.00000012887491
  0
CIRCLE
  5
3C1
330
22
100
AcDbEntity
  8
_0-2_
  6
Continuous
 62
     7
100
AcDbCircle
 10
16662.34977361148
 20
16129.8557006236
 30
0.0
 40
10.00000012887491
  0
CIRCLE
  5
3C2
330
22
100
AcDbEntity
  8
_0-2_
  6
Continuous
 62
     7
100
AcDbCircle
 10
16850.58219548648
 20
16129.1789527087
 30
0.0
 40
10.00000012887491
  0
CIRCLE
  5
3C3
330
22
100
AcDbEntity
  8
_0-2_
  6
Continuous
 62
     7
100
AcDbCircle
 10
17038.33458410557
 20
16129.8557006236
 30
0.0
 40
10.00000012887491
  0
CIRCLE
  5
3C4
330
22
100
AcDbEntity
  8
_0-2_
  6
Continuous
 62
     7
100
AcDbCircle
 10
17038.32468651266
 20
16129.8557006236
 30
0.0
 40
10.00000012887491
  0
CIRCLE
  5
3C5
330
22
100
AcDbEntity
  8
_0-2_
  6
Continuous
 62
     7
100
AcDbCircle
 10
9850.583845085296
 20
16029.51019215127
 30
0.0
 40
10.00000012887491
  0
CIRCLE
  5
3C6
330
22
100
AcDbEntity
  8
_0-2_
  6
Continuous
 62
     7
100
AcDbCircle
 10
9662.351423210296
 20
16129.8557006236
 30
0.0
 40
10.00000012887491
  0
CIRCLE
  5
3C7
330
22
100
AcDbEntity
  8
_0-2_
  6
Continuous
 62
     7
100
AcDbCircle
 10
9850.583845085296
 20
16129.1789527087
 30
0.0
 40
10.00000012887491
  0
CIRCLE
  5
3C8
330
22
100
AcDbEntity
  8
_0-2_
  6
Continuous
 62
     7
100
AcDbCircle
 10
10038.33623370438
 20
16129.8557006236
 30
0.0
 40
10.00000012887491
  0
CIRCLE
  5
3C9
330
22
100
AcDbEntity
  8
_0-2_
  6
Continuous
 62
     7
100
AcDbCircle
 10
10038.32633611148
 20
16129.8557006236
 30
0.0
 40
10.00000012887491
  0
CIRCLE
  5
3CA
330
22
100
AcDbEntity
  8
_0-2_
  6
Continuous
 62
     7
100
AcDbCircle
 10
30849.93802714822
 20
20279.66030564367
 30
0.0
 40
10.00000012887491
  0
CIRCLE
  5
3CB
330
22
100
AcDbEntity
  8
_0-2_
  6
Continuous
 62
     7
100
AcDbCircle
 10
30689.68115162034
 20
20379.42556773193
 30
0.0
 40
10.00000012887491
  0
CIRCLE
  5
3CC
330
22
100
AcDbEntity
  8
_0-2_
  6
Continuous
 62
     7
100
AcDbCircle
 10
31010.60070398521
 20
20379.47629289557
 30
0.0
 40
10.00000012887491
  0
CIRCLE
  5
3CD
330
22
100
AcDbEntity
  8
_0-2_
  6
Continuous
 62
     7
100
AcDbCircle
 10
30849.93802714822
 20
20379.32782900199
 30
0.0
 40
10.00000012887491
  0
ARC
  5
3CE
330
22
100
AcDbEntity
  8
_0-3_
  6
Continuous
 62
     6
100
AcDbCircle
 10
10165.31492748605
 20
12113.68468341499
 30
0.0
 40
50.00012146460043
100
AcDbArc
 50
152.3113861083984
 51
332.3113861083985
  0
ARC
  5
3CF
330
22
100
AcDbEntity
  8
_0-3_
  6
Continuous
 62
     6
100
AcDbCircle
 10
10258.24837607136
 20
12290.78231327141
 30
0.0
 40
50.00012146460043
100
AcDbArc
 50
332.3113861083985
 51
152.3113861083984
  0
ARC
  5
3D0
330
22
100
AcDbEntity
  8
_0-3_
  6
Continuous
 62
     6
100
AcDbCircle
 10
9893.630951029132
 20
24517.89124287974
 30
0.0
 40
68.31585877650494
100
AcDbArc
 50
182.4142456054687
 51
230.7162933349609
  0
ARC
  5
3D1
330
22
100
AcDbEntity
  8
_0-3_
  6
Continuous
 62
     6
100
AcDbCircle
 10
9807.121040239437
 20
24517.89124287974
 30
0.0
 40
68.31585877650494
100
AcDbArc
 50
309.2837066650391
 51
357.5857543945312
  0
ARC
  5
3D2
330
22
100
AcDbEntity
  8
_0-3_
  6
Continuous
 62
     6
100
AcDbCircle
 10
16893.50805591722
 20
24517.89124287974
 30
0.0
 40
68.31585877650494
100
AcDbArc
 50
182.4142456054687
 51
230.7162933349609
  0
ARC
  5
3D3
330
22
100
AcDbEntity
  8
_0-3_
  6
Continuous
 62
     6
100
AcDbCircle
 10
16806.99814512752
 20
24517.89124287974
 30
0.0
 40
68.31585877650494
100
AcDbArc
 50
309.2837066650391
 51
357.5857543945312
  0
ARC
  5
3D4
330
22
100
AcDbEntity
  8
_0-3_
  6
Continuous
 62
     6
100
AcDbCircle
 10
23893.63260062795
 20
24506.75645086116
 30
0.0
 40
68.31585877650494
100
AcDbArc
 50
182.4142456054687
 51
230.7162933349609
  0
ARC
  5
3D5
330
22
100
AcDbEntity
  8
_0-3_
  6
Continuous
 62
     6
100
AcDbCircle
 10
23807.12268983826
 20
24506.75645086116
 30
0.0
 40
68.31585877650494
100
AcDbArc
 50
309.2837066650391
 51
357.5857543945312
  0
ARC
  5
3D6
330
22
100
AcDbEntity
  8
_0-3_
  6
Continuous
 62
     6
100
AcDbCircle
 10
30893.63342542736
 20
24507.57300227585
 30
0.0
 40
68.31585877650494
100
AcDbArc
 50
182.4142456054687
 51
230.7162933349609
  0
ARC
  5
3D7
330
22
100
AcDbEntity
  8
_0-3_
  6
Continuous
 62
     6
100
AcDbCircle
 10
30807.12351463767
 20
24507.57300227585
 30
0.0
 40
68.31585877650494
100
AcDbArc
 50
309.2837066650391
 51
357.5857543945312
  0
CIRCLE
  5
3D8
330
22
100
AcDbEntity
  8
_0-F_
  6
Continuous
 62
     4
100
AcDbCircle
 10
9338.650647239015
 20
25031.35856762636
 30
0.0
 40
300.0000038662473
  0
CIRCLE
  5
3D9
330
22
100
AcDbEntity
  8
_0-F_
  6
Continuous
 62
     4
100
AcDbCircle
 10
9356.823246412897
 20
20597.92111711432
 30
0.0
 40
300.0000038662473
  0
CIRCLE
  5
3DA
330
22
100
AcDbEntity
  8
_0-F_
  6
Continuous
 62
     4
100
AcDbCircle
 10
9311.538665872882
 20
12236.69567964071
 30
0.0
 40
300.0000038662473
  0
CIRCLE
  5
3DB
330
22
100
AcDbEntity
  8
_0-F_
  6
Continuous
 62
     4
100
AcDbCircle
 10
9356.823246412897
 20
16347.92070471461
 30
0.0
 40
300.0000038662473
  0
ARC
  5
3DC
330
22
100
AcDbEntity
  8
_0-3_
  6
Continuous
 62
     6
100
AcDbCircle
 10
17259.43938641765
 20
12289.95710146292
 30
0.0
 40
50.00041143314257
100
AcDbArc
 50
332.0983123779297
 51
151.9781341552734
  0
ARC
  5
3DD
330
22
100
AcDbEntity
  8
_0-3_
  6
Continuous
 62
     6
100
AcDbCircle
 10
17165.83290151477
 20
12113.62653505667
 30
0.0
 40
50.00108319359857
100
AcDbArc
 50
152.3951110839844
 51
331.6809997558594
  0
CIRCLE
  5
3DE
330
22
100
AcDbEntity
  8
_0-3_
  6
Continuous
 62
     6
100
AcDbCircle
 10
17328.87100064906
 20
12421.68045384362
 30
0.0
 40
50.00000064437454
  0
ARC
  5
3DF
330
22
100
AcDbEntity
  8
_0-3_
  6
Continuous
 62
     6
100
AcDbCircle
 10
23854.13130734248
 20
12130.86195590233
 30
0.0
 40
50.00114118730699
100
AcDbArc
 50
179.6420288085938
 51
0.3579711914061931
  0
ARC
  5
3E0
330
22
100
AcDbEntity
  8
_0-3_
  6
Continuous
 62
     6
100
AcDbCircle
 10
23854.13130734248
 20
12331.09768357335
 30
0.0
 40
50.00022295359018
100
AcDbArc
 50
0.0879058837891062
 51
179.9120941162109
  0
CIRCLE
  5
3E1
330
22
100
AcDbEntity
  8
_0-3_
  6
Continuous
 62
     6
100
AcDbCircle
 10
23854.13130734248
 20
12481.098178453
 30
0.0
 40
50.00000064437454
  0
ARC
  5
3E2
330
22
100
AcDbEntity
  8
_0-3_
  6
Continuous
 62
     6
100
AcDbCircle
 10
24259.47732719045
 20
12289.95710146292
 30
0.0
 40
50.00041143314257
100
AcDbArc
 50
332.0983123779297
 51
151.9781341552734
  0
ARC
  5
3E3
330
22
100
AcDbEntity
  8
_0-3_
  6
Continuous
 62
     6
100
AcDbCircle
 10
24165.87084228758
 20
12113.62653505667
 30
0.0
 40
50.00108319359857
100
AcDbArc
 50
152.3951110839844
 51
331.6809997558594
  0
CIRCLE
  5
3E4
330
22
100
AcDbEntity
  8
_0-3_
  6
Continuous
 62
     6
100
AcDbCircle
 10
24328.90894142187
 20
12421.68045384362
 30
0.0
 40
50.00000064437454
  0
ARC
  5
3E5
330
22
100
AcDbEntity
  8
_0-3_
  6
Continuous
 62
     6
100
AcDbCircle
 10
23441.27796327577
 20
12289.95710146292
 30
0.0
 40
50.00041143314257
100
AcDbArc
 50
28.02186584472656
 51
207.9016876220703
  0
ARC
  5
3E6
330
22
100
AcDbEntity
  8
_0-3_
  6
Continuous
 62
     6
100
AcDbCircle
 10
23534.88444817863
 20
12113.62653505667
 30
0.0
 40
50.00108319359857
100
AcDbArc
 50
208.3190002441406
 51
27.60488891601563
  0
CIRCLE
  5
3E7
330
22
100
AcDbEntity
  8
_0-3_
  6
Continuous
 62
     6
100
AcDbCircle
 10
23371.84634904434
 20
12421.68045384362
 30
0.0
 40
50.00000064437454
  0
ARC
  5
3E8
330
22
100
AcDbEntity
  8
_0-3_
  6
Continuous
 62
     6
100
AcDbCircle
 10
30846.62233352491
 20
12130.86195590233
 30
0.0
 40
50.00114118730699
100
AcDbArc
 50
179.6420288085938
 51
0.3579711914061931
  0
ARC
  5
3E9
330
22
100
AcDbEntity
  8
_0-3_
  6
Continuous
 62
     6
100
AcDbCircle
 10
30846.62233352491
 20
12331.09768357335
 30
0.0
 40
50.00022295359018
100
AcDbArc
 50
0.0879058837891062
 51
179.9120941162109
  0
CIRCLE
  5
3EA
330
22
100
AcDbEntity
  8
_0-3_
  6
Continuous
 62
     6
100
AcDbCircle
 10
30846.62233352491
 20
12481.098178453
 30
0.0
 40
50.00000064437454
  0
ARC
  5
3EB
330
22
100
AcDbEntity
  8
_0-3_
  6
Continuous
 62
     6
100
AcDbCircle
 10
30441.27631367694
 20
12289.95710146292
 30
0.0
 40
50.00041143314257
100
AcDbArc
 50
28.02186584472656
 51
207.9016876220703
  0
ARC
  5
3EC
330
22
100
AcDbEntity
  8
_0-3_
  6
Continuous
 62
     6
100
AcDbCircle
 10
30534.88279857982
 20
12113.62653505667
 30
0.0
 40
50.00108319359857
100
AcDbArc
 50
208.3190002441406
 51
27.60488891601563
  0
CIRCLE
  5
3ED
330
22
100
AcDbEntity
  8
_0-3_
  6
Continuous
 62
     6
100
AcDbCircle
 10
30371.84469944552
 20
12421.68045384362
 30
0.0
 40
50.00000064437454
  0
ARC
  5
3EE
330
22
100
AcDbEntity
  8
_0-3_
  6
Continuous
 62
     6
100
AcDbCircle
 10
31259.47567759164
 20
12289.95710146292
 30
0.0
 40
50.00041143314257
100
AcDbArc
 50
332.0983123779297
 51
151.9781341552734
  0
ARC
  5
3EF
330
22
100
AcDbEntity
  8
_0-3_
  6
Continuous
 62
     6
100
AcDbCircle
 10
31165.86919268876
 20
12113.62653505667
 30
0.0
 40
50.00108319359857
100
AcDbArc
 50
152.3951110839844
 51
331.6809997558594
  0
CIRCLE
  5
3F0
330
22
100
AcDbEntity
  8
_0-3_
  6
Continuous
 62
     6
100
AcDbCircle
 10
31328.90729182306
 20
12421.68045384362
 30
0.0
 40
50.00000064437454
  0
TEXT
  5
3F1
330
22
100
AcDbEntity
  8
_0-0_
 62
     4
100
AcDbText
 10
5800.375005874997
 20
9918.860155365216
 30
0.0
 40
250.0
  1
3,000
 50
90.0
100
AcDbText
  0
TEXT
  5
3F2
330
22
100
AcDbEntity
  8
_0-9_
 62
     4
100
AcDbText
 10
13037.87578943443
 20
6199.713323749668
 30
0.0
 40
250.0
  1
7,000
100
AcDbText
  0
TEXT
  5
3F3
330
22
100
AcDbEntity
  8
_0-0_
 62
     4
100
AcDbText
 10
5264.007125543492
 20
16359.24849979485
 30
0.0
 40
250.0
  1
16,000
 50
90.0
100
AcDbText
  0
TEXT
  5
3F4
330
22
100
AcDbEntity
  8
_0-0_
 62
     4
100
AcDbText
 10
5791.620584950163
 20
17869.460341275
 30
0.0
 40
250.0
  1
13,000
 50
90.0
100
AcDbText
  0
TEXT
  5
3F5
330
22
100
AcDbEntity
  8
_0-9_
 62
     4
100
AcDbText
 10
6285.124464806585
 20
22092.27866435883
 30
0.0
 40
250.0
  1
4,250
 50
90.0
100
AcDbText
  0
TEXT
  5
3F6
330
22
100
AcDbEntity
  8
_0-9_
 62
     4
100
AcDbText
 10
6285.124464806585
 20
17842.27763335957
 30
0.0
 40
250.0
  1
4,250
 50
90.0
100
AcDbText
  0
TEXT
  5
3F7
330
22
100
AcDbEntity
  8
_0-9_
 62
     4
100
AcDbText
 10
6289.236914658778
 20
11317.15238756934
 30
0.0
 40
250.0
  1
400
 50
90.0
100
AcDbText
  0
TEXT
  5
3F8
330
22
100
AcDbEntity
  8
_0-9_
 62
     4
100
AcDbText
 10
6282.756465703966
 20
9718.857021127462
 30
0.0
 40
250.0
  1
2,600
 50
90.0
100
AcDbText
  0
TEXT
  5
3F9
330
22
100
AcDbEntity
  8
_0-9_
 62
     4
100
AcDbText
 10
6284.179244684118
 20
24333.71683409595
 30
0.0
 40
250.0
  1
200
 50
90.0
100
AcDbText
  0
TEXT
  5
3FA
330
22
100
AcDbEntity
  8
_0-9_
 62
     4
100
AcDbText
 10
6276.956476261397
 20
11777.86193363274
 30
0.0
 40
250.0
  1
50
 50
90.0
100
AcDbText
  0
TEXT
  5
3FB
330
22
100
AcDbEntity
  8
_0-9_
 62
     4
100
AcDbText
 10
6285.124464806585
 20
13617.77094588596
 30
0.0
 40
250.0
  1
4,250
 50
90.0
100
AcDbText
  0
TEXT
  5
3FC
330
22
100
AcDbEntity
  8
_0-F_
 62
     4
100
AcDbText
 10
7398.14085109644
 20
11987.48789947285
 30
0.0
 40
250.0
  1
ＧＬ
100
AcDbText
  0
TEXT
  5
3FD
330
22
100
AcDbEntity
  8
_0-F_
 62
     7
100
AcDbText
 10
11005.30606914041
 20
25423.80307512213
 30
0.0
 40
300.0
  1
ｼﾞｮｲﾝﾄﾋﾞｰﾑ
100
AcDbText
  0
TEXT
  5
3FE
330
22
100
AcDbEntity
  8
_0-F_
 62
     7
100
AcDbText
 10
11055.56649955373
 20
10586.48114931449
 30
0.0
 40
300.0
  1
ﾈｶｾ
100
AcDbText
  0
TEXT
  5
3FF
330
22
100
AcDbEntity
  8
_0-F_
 62
     7
100
AcDbText
 10
38545.09398022044
 20
12745.81177510629
 30
0.0
 40
300.0
  1
ﾊﾞﾝﾄﾞ
100
AcDbText
  0
TEXT
  5
400
330
22
100
AcDbEntity
  8
_0-F_
 62
     7
100
AcDbText
 10
9188.650647239015
 20
24881.35807274671
 30
0.0
 40
300.0
  1
Ａ
100
AcDbText
  0
TEXT
  5
401
330
22
100
AcDbEntity
  8
_0-F_
 62
     7
100
AcDbText
 10
9206.823246412897
 20
20447.92062223468
 30
0.0
 40
300.0
  1
Ｂ
100
AcDbText
  0
TEXT
  5
402
330
22
100
AcDbEntity
  8
_0-F_
 62
     7
100
AcDbText
 10
9161.538665872882
 20
12086.69518476106
 30
0.0
 40
300.0
  1
Ｃ
100
AcDbText
  0
TEXT
  5
403
330
22
100
AcDbEntity
  8
_0-F_
 62
     7
100
AcDbText
 10
9206.823246412897
 20
16197.92020983497
 30
0.0
 40
300.0
  1
Ｂ
100
AcDbText
  0
POINT
  5
404
330
22
100
AcDbEntity
  8
_0-0_
 62
     4
100
AcDbPoint
 10
5350.375995634289
 20
24731.35757786707
 30
0.0
  0
POINT
  5
405
330
22
100
AcDbEntity
  8
_0-0_
 62
     4
100
AcDbPoint
 10
5350.375995634289
 20
8731.359227465883
 30
0.0
  0
POINT
  5
406
330
22
100
AcDbEntity
  8
_0-0_
 62
     4
100
AcDbPoint
 10
5850.377645233105
 20
8731.359227465883
 30
0.0
  0
POINT
  5
407
330
22
100
AcDbEntity
  8
_0-0_
 62
     4
100
AcDbPoint
 10
5850.377645233105
 20
11731.36046466499
 30
0.0
  0
POINT
  5
408
330
22
100
AcDbEntity
  8
_0-0_
 62
     4
100
AcDbPoint
 10
5850.377645233105
 20
24731.35757786707
 30
0.0
  0
POINT
  5
409
330
22
100
AcDbEntity
  8
_0-9_
 62
     4
100
AcDbPoint
 10
9850.375995634284
 20
6149.714395988897
 30
0.0
  0
POINT
  5
40A
330
22
100
AcDbEntity
  8
_0-9_
 62
     4
100
AcDbPoint
 10
16850.37929483192
 20
6149.714395988897
 30
0.0
  0
POINT
  5
40B
330
22
100
AcDbEntity
  8
_0-9_
 62
     4
100
AcDbPoint
 10
23850.37269643665
 20
6149.714395988897
 30
0.0
  0
POINT
  5
40C
330
22
100
AcDbEntity
  8
_0-9_
 62
     4
100
AcDbPoint
 10
16850.36692284079
 20
6149.714395988897
 30
0.0
  0
POINT
  5
40D
330
22
100
AcDbEntity
  8
_0-9_
 62
     4
100
AcDbPoint
 10
30850.36609804138
 20
6149.714395988897
 30
0.0
  0
POINT
  5
40E
330
22
100
AcDbEntity
  8
_0-9_
 62
     4
100
AcDbPoint
 10
23850.3776452331
 20
6149.714395988897
 30
0.0
  0
POINT
  5
40F
330
22
100
AcDbEntity
  8
_0-9_
 62
     4
100
AcDbPoint
 10
30850.38094443074
 20
6149.714395988897
 30
0.0
  0
POINT
  5
410
330
22
100
AcDbEntity
  8
_0-9_
 62
     4
100
AcDbPoint
 10
30850.37599563428
 20
6149.714395988897
 30
0.0
  0
POINT
  5
411
330
22
100
AcDbEntity
  8
_0-9_
 62
     4
100
AcDbPoint
 10
6335.124629766466
 20
24731.35757786707
 30
0.0
  0
POINT
  5
412
330
22
100
AcDbEntity
  8
_0-9_
 62
     4
100
AcDbPoint
 10
6335.124629766466
 20
24529.77825195913
 30
0.0
  0
POINT
  5
413
330
22
100
AcDbEntity
  8
_0-9_
 62
     4
100
AcDbPoint
 10
6335.124629766466
 20
20279.77783955942
 30
0.0
  0
POINT
  5
414
330
22
100
AcDbEntity
  8
_0-9_
 62
     4
100
AcDbPoint
 10
6335.124629766466
 20
16029.77742715971
 30
0.0
  0
POINT
  5
415
330
22
100
AcDbEntity
  8
_0-9_
 62
     4
100
AcDbPoint
 10
6335.124629766466
 20
11830.76570181132
 30
0.0
  0
POINT
  5
416
330
22
100
AcDbEntity
  8
_0-9_
 62
     4
100
AcDbPoint
 10
6335.124629766466
 20
11731.35922746588
 30
0.0
  0
POINT
  5
417
330
22
100
AcDbEntity
  8
_0-9_
 62
     4
100
AcDbPoint
 10
6332.756630663847
 20
11731.35922746588
 30
0.0
  0
POINT
  5
418
330
22
100
AcDbEntity
  8
_0-9_
 62
     4
100
AcDbPoint
 10
6332.756630663847
 20
11331.35790778683
 30
0.0
  0
POINT
  5
419
330
22
100
AcDbEntity
  8
_0-9_
 62
     4
100
AcDbPoint
 10
6332.756630663847
 20
11331.35295899037
 30
0.0
  0
POINT
  5
41A
330
22
100
AcDbEntity
  8
_0-9_
 62
     4
100
AcDbPoint
 10
6332.756630663847
 20
8731.359227465883
 30
0.0
  0
TEXT
  5
41B
330
22
100
AcDbEntity
  8
_0-0_
 62
     7
100
AcDbText
 10
8654.994212483947
 20
21846.32100626128
 30
0.0
 40
300.0
  1
PC　POLE
 50
90.0
100
AcDbText
  0
TEXT
  5
41C
330
22
100
AcDbEntity
  8
_0-0_
 62
     7
100
AcDbText
 10
9065.888451754958
 20
21691.54859316214
 30
0.0
 40
300.0
  1
16-22-1200
 50
90.0
100
AcDbText
  0
TEXT
  5
41D
330
22
100
AcDbEntity
  8
_0-9_
 62
     4
100
AcDbText
 10
12814.08065237839
 20
5772.556803305716
 30
0.0
 40
250.0
  1
（9,500）
100
AcDbText
  0
TEXT
  5
41E
330
22
100
AcDbEntity
  8
_0-9_
 62
     4
100
AcDbText
 10
19997.77083936568
 20
6199.713323749668
 30
0.0
 40
250.0
  1
7,000
100
AcDbText
  0
TEXT
  5
41F
330
22
100
AcDbEntity
  8
_0-9_
 62
     4
100
AcDbText
 10
19773.97570230964
 20
5772.556803305716
 30
0.0
 40
250.0
  1
（9,500）
100
AcDbText
  0
TEXT
  5
420
330
22
100
AcDbEntity
  8
_0-9_
 62
     4
100
AcDbText
 10
27135.67504123047
 20
6199.713323749668
 30
0.0
 40
250.0
  1
7,000
100
AcDbText
  0
TEXT
  5
421
330
22
100
AcDbEntity
  8
_0-9_
 62
     4
100
AcDbText
 10
26911.87990417442
 20
5772.556803305716
 30
0.0
 40
250.0
  1
（9,500）
100
AcDbText
  0
TEXT
  5
422
330
22
100
AcDbEntity
  8
_0-F_
 62
     7
100
AcDbText
 10
11764.6449429263
 20
22992.06842298953
 30
0.0
 40
300.0
  1
ﾌﾞﾚｰｽﾜｲﾔｰ　55m㎡
100
AcDbText
  0
TEXT
  5
423
330
22
100
AcDbEntity
  8
_0-F_
 62
     7
100
AcDbText
 10
17520.57236387753
 20
22412.94665290402
 30
0.0
 40
300.0
  1
縦ﾜｲﾔｰ 38m㎡
100
AcDbText
  0
TEXT
  5
424
330
22
100
AcDbEntity
  8
_0-F_
 62
     7
100
AcDbText
 10
20977.31410928504
 20
25110.15330474629
 30
0.0
 40
300.0
  1
横ﾜｲﾔｰ 38m㎡
100
AcDbText
  0
TEXT
  5
425
330
22
100
AcDbEntity
  8
_0-F_
 62
     7
100
AcDbText
 10
20977.31410928504
 20
20860.15289234659
 30
0.0
 40
300.0
  1
横ﾜｲﾔｰ 38m㎡
100
AcDbText
  0
TEXT
  5
426
330
22
100
AcDbEntity
  8
_0-F_
 62
     7
100
AcDbText
 10
20977.31410928504
 20
16610.15247994688
 30
0.0
 40
300.0
  1
横ﾜｲﾔｰ 38m㎡
100
AcDbText
  0
TEXT
  5
427
330
22
100
AcDbEntity
  8
_0-F_
 62
     7
100
AcDbText
 10
20977.31410928504
 20
12411.13951739937
 30
0.0
 40
300.0
  1
横ﾜｲﾔｰ 38m㎡
100
AcDbText
  0
TEXT
  5
428
330
22
100
AcDbEntity
  8
_0-3_
 62
     7
100
AcDbText
 10
3980.01291747058
 20
5714.815458244395
 30
0.0
 40
400.0
  1
設計条件
100
AcDbText
  0
TEXT
  5
429
330
22
100
AcDbEntity
  8
_0-3_
 62
     7
100
AcDbText
 10
4980.01291747058
 20
4264.815458244394
 30
0.0
 40
300.0
  1
基準風速・・・３４ｍ／ｓｅｃ
100
AcDbText
  0
TEXT
  5
42A
330
22
100
AcDbEntity
  8
_0-3_
 62
     7
100
AcDbText
 10
4980.01291747058
 20
3764.815458244393
 30
0.0
 40
300.0
  1
地表面粗度区分・・・Ⅲ
100
AcDbText
  0
TEXT
  5
42B
330
22
100
AcDbEntity
  8
_0-3_
 62
     7
100
AcDbText
 10
4980.01291747058
 20
3264.815458244393
 30
0.0
 40
300.0
  1
基礎　普通土質（Ｂ）を選定
100
AcDbText
  0
TEXT
  5
42C
330
22
100
AcDbEntity
  8
_0-3_
 62
     7
100
AcDbText
 10
4480.01291747058
 20
5264.815458244394
 30
0.0
 40
300.0
  1
・設計荷重　建築基準法・同施工令
100
AcDbText
  0
TEXT
  5
42D
330
22
100
AcDbEntity
  8
_0-3_
 62
     7
100
AcDbText
 10
4719.470795993217
 20
4764.815458244394
 30
0.0
 40
300.0
  1
（平成１２年６月）に基づく風圧力による。
100
AcDbText
  0
TEXT
  5
42E
330
22
100
AcDbEntity
  8
_0-F_
 62
     7
100
AcDbText
 10
17528.11449463133
 20
24037.29382417196
 30
0.0
 40
300.0
  1
ﾎﾟﾘﾛｰﾌﾟ6φ押え
100
AcDbText
  0
TEXT
  5
42F
330
22
100
AcDbEntity
  8
_0-F_
 62
     7
100
AcDbText
 10
24715.77945746721
 20
25266.27793523616
 30
0.0
 40
300.0
  1
ポリロープ4φにてかがりどめ
100
AcDbText
  0
LINE
  5
430
330
22
100
AcDbEntity
  8
_0-F_
  6
Continuous
 62
     4
100
AcDbLine
 10
24229.75766296764
 20
24523.76546426909
 30
0.0
 11
24629.75898264669
 21
25216.58212125811
 31
0.0
  0
LINE
  5
431
330
22
100
AcDbEntity
  8
_0-F_
  6
Continuous
 62
     4
100
AcDbLine
 10
24229.75766296764
 20
24523.76546426909
 30
0.0
 11
24229.75766296764
 21
24623.76579418886
 31
0.0
  0
LINE
  5
432
330
22
100
AcDbEntity
  8
_0-3_
  6
Continuous
 62
     4
100
AcDbLine
 10
31607.46281750304
 20
25671.44634178625
 30
0.0
 11
31789.86803155496
 21
25671.44634178625
 31
0.0
  0
TEXT
  5
433
330
22
100
AcDbEntity
  8
_0-3_
 62
     7
100
AcDbText
 10
31845.99216716519
 20
26550.3068916798
 30
0.0
 40
300.0
  1
ｸﾚﾓﾅ250D/80本×37.5㎜目
100
AcDbText
  0
TEXT
  5
434
330
22
100
AcDbEntity
  8
_0-3_
 62
     7
100
AcDbText
 10
31673.46306948078
 20
26127.35499397641
 30
0.0
 40
300.0
  1
（KRP-40 1800D/18本×40㎜目 ｴｺﾛﾈｯﾄ）
100
AcDbText
  0
TEXT
  5
435
330
22
100
AcDbEntity
  8
_0-3_
 62
     7
100
AcDbText
 10
31673.46306948078
 20
25705.85454195154
 30
0.0
 40
300.0
  1
（KSP-24 37.5㎜目 ｽｰﾊﾟｰﾎﾟﾘｴﾁﾚﾝ）
100
AcDbText
  0
LINE
  5
436
330
22
100
AcDbEntity
  8
_0-3_
  6
Continuous
 62
     4
100
AcDbLine
 10
31607.46281750304
 20
26480.15275316629
 30
0.0
 11
30937.62017304301
 21
26480.15275316629
 31
0.0
  0
TEXT
  5
437
330
22
100
AcDbEntity
  8
_0-3_
 62
     7
100
AcDbText
 10
31863.09743466413
 20
26997.40590719922
 30
0.0
 40
300.0
  1
NET
100
AcDbText
  0
LINE
  5
438
330
22
100
AcDbEntity
  8
_0-3_
  6
Continuous
 62
     4
100
AcDbLine
 10
31607.46281750304
 20
26887.05764389686
 30
0.0
 11
31607.46281750304
 21
25671.44634178625
 31
0.0
  0
LINE
  5
439
330
22
100
AcDbEntity
  8
_0-3_
  6
Continuous
 62
     4
100
AcDbLine
 10
31607.46281750304
 20
26887.05764389686
 30
0.0
 11
31789.86803155496
 21
26887.05764389686
 31
0.0
  0
LINE
  5
43A
330
22
100
AcDbEntity
  8
_0-F_
  6
Continuous
 62
     4
100
AcDbLine
 10
29731.22084939017
 20
24390.60324931977
 30
0.0
 11
30937.62017304301
 21
26480.15275316629
 31
0.0
  0
LINE
  5
43B
330
22
100
AcDbEntity
  8
_0-F_
  6
Continuous
 62
     4
100
AcDbLine
 10
29731.22084939017
 20
24390.60324931977
 30
0.0
 11
29731.22084939017
 21
24490.60357923953
 31
0.0
  0
LINE
  5
43C
330
22
100
AcDbEntity
  8
_0-F_
  6
Continuous
 62
     4
100
AcDbLine
 10
24629.75898264669
 20
25216.58212125811
 30
0.0
 11
29529.65450419295
 21
25216.58212125811
 31
0.0
  0
ENDSEC
  0
SECTION
  2
OBJECTS
  0
DICTIONARY
  5
C
330
0
100
AcDbDictionary
281
     1
  3
ACAD_COLOR
350
1B
  3
ACAD_GROUP
350
D
  3
ACAD_LAYOUT
350
19
  3
ACAD_MATERIAL
350
1A
  3
ACAD_MLINESTYLE
350
16
  3
ACAD_PLOTSETTINGS
350
18
  3
ACAD_PLOTSTYLENAME
350
E
  3
ACAD_TABLESTYLE
350
1C
  3
ACDBHEADERROUNDTRIPXREC
350
72D
  3
AcDbVariableDictionary
350
728
  3
ADE_QUERY_LIBRARY
350
726
  3
AEC_VARS
350
464
  3
ASE_INDEX_DICTIONARY
350
722
  3
Autodesk_MAP
350
466
  3
Root
350
43F
1001
ADE
1000
ADE02C004
1000
[Query]
1000
CaseSensitiveMatch=0
1000
SaveCurrQueryInSession=1
1000
MkSelSetWithQryObj=0
1000
ShowBlockAsInsPt=0
1000
CreateAssociativeHatchObjects=0
1000
ReferenceBoundaryForAreaLocation=1
1000
ShowImageAsBoundary=1
1000
DefaultJoinOperator=2
1000
ColorForAdd=red
1000
ColorForRemove=red
1000
BlockLocnForQuery=1
1000
TextLocnForQuery=1
1000
IncludeAllObjectsInGroups=0
1000
AlwaysUseLibraryDefinitions=0
1000
PreviewDefinitionsFrom=2
1000
[Save Back]
1000
RedefineBlockDefinitions=1
1000
RedefineLayerDefinitions=1
1000
RedefineTextStyleDefinitions=1
1000
RemoveUnusedGroups=1
1000
EraseSavedBackObjects=1
1000
RemoveLockAfterSave=1
1000
CreateHistoryFileOfChanges=0
1000
CreateBackupFileOfSourceDwg=1
1000
DontAddObjectsToSaveSet=0
1000
MarkObjectsForEditingWithoutPrompting=0
1000
[Coordinate Transformation]
1000
RestoreLastActiveDwgsOnStartup=1
1000
ActivateDwgsOnAttach=1
1000
AdjustSizesAndScalesForChangesInUnits=1
1000
AdjustRotationsForMapDistortions=1
1000
AdjustSizesAndScalesForMapDistortions=1
1000
AdjustElevations=1
1000
AdjustZeroRotationObjects=1
1000
ReconnectDbOnWSOpen=1
1000
NoOfSQLConditionsInHistory=10
  0
DICTIONARY
  5
1B
102
{ACAD_REACTORS
330
C
102
}
330
C
100
AcDbDictionary
281
     1
  0
DICTIONARY
  5
D
102
{ACAD_REACTORS
330
C
102
}
330
C
100
AcDbDictionary
281
     1
  0
DICTIONARY
  5
19
102
{ACAD_REACTORS
330
C
102
}
330
C
100
AcDbDictionary
281
     1
  3
Model
350
25
  3
レイアウト1
350
21
  0
DICTIONARY
  5
1A
102
{ACAD_REACTORS
330
C
102
}
330
C
100
AcDbDictionary
281
     1
  0
DICTIONARY
  5
16
102
{ACAD_REACTORS
330
C
102
}
330
C
100
AcDbDictionary
281
     1
  3
Standard
350
17
  0
DICTIONARY
  5
18
102
{ACAD_REACTORS
330
C
102
}
330
C
100
AcDbDictionary
281
     1
  0
ACDBDICTIONARYWDFLT
  5
E
102
{ACAD_REACTORS
330
C
102
}
330
C
100
AcDbDictionary
281
     1
  3
Normal
350
F
100
AcDbDictionaryWithDefault
340
F
  0
DICTIONARY
  5
1C
102
{ACAD_REACTORS
330
C
102
}
330
C
100
AcDbDictionary
281
     1
  3
Legend
350
46A
  3
Standard
350
1D
  0
DICTIONARY
  5
72D
102
{ACAD_REACTORS
330
C
102
}
330
C
100
AcDbDictionary
281
     1
  0
DICTIONARY
  5
728
102
{ACAD_REACTORS
330
C
102
}
330
C
100
AcDbDictionary
281
     1
  3
CTABLESTYLE
350
729
  3
DIMASSOC
350
72A
  3
PROJECTNAME
350
72B
  0
DICTIONARY
  5
726
102
{ACAD_REACTORS
330
C
102
}
330
C
100
AcDbDictionary
281
     1
  3
_CurrQry
350
727
  0
DICTIONARY
  5
464
102
{ACAD_REACTORS
330
C
102
}
330
C
100
AcDbDictionary
281
     1
  3
AEC_VARS_DWG_SETUP
350
465
  0
DICTIONARY
  5
722
102
{ACAD_REACTORS
330
C
102
}
330
C
100
AcDbDictionary
281
     1
  3
ASEBlockHierarchyIndexRecord
350
724
1001
DCO15
1040
1621942908.812
  0
DICTIONARY
  5
466
102
{ACAD_REACTORS
330
C
102
}
330
C
100
AcDbDictionary
281
     1
  3
MAP_DISPLAY_MANAGEMENT_DICTIONARY
350
467
  3
MAP_DISPLAY_STYLELIBRARY_DICTIONARY
350
468
  0
LAYOUT
  5
25
102
{ACAD_XDICTIONARY
360
730
102
}
102
{ACAD_REACTORS
330
19
102
}
330
19
100
AcDbPlotSettings
  1

  2
DCColor a450_newosk
  4

  6

 40
0.0
 41
0.0
 42
0.0
 43
0.0
 44
0.0
 45
0.0
 46
0.0
 47
0.0
 48
0.0
 49
0.0
140
0.0
141
0.0
142
1.0
143
1.0
 70
  1712
 72
     0
 73
     0
 74
     0
  7

 75
     0
147
1.0
148
0.0
149
0.0
100
AcDbLayout
  1
Model
 70
     1
 71
     0
 10
0.0
 20
0.0
 11
12.0
 21
9.0
 12
0.0
 22
0.0
 32
0.0
 14
0.0
 24
0.0
 34
0.0
 15
0.0
 25
0.0
 35
0.0
146
0.0
 13
0.0
 23
0.0
 33
0.0
 16
1.0
 26
0.0
 36
0.0
 17
0.0
 27
1.0
 37
0.0
 76
     0
330
22
  0
LAYOUT
  5
21
102
{ACAD_XDICTIONARY
360
72E
102
}
102
{ACAD_REACTORS
330
19
102
}
330
19
100
AcDbPlotSettings
  1

  2
DCColor a450_newosk
  4

  6

 40
0.0
 41
0.0
 42
0.0
 43
0.0
 44
0.0
 45
0.0
 46
0.0
 47
0.0
 48
0.0
 49
0.0
140
0.0
141
0.0
142
1.0
143
1.0
 70
   688
 72
     0
 73
     0
 74
     5
  7

 75
    16
147
1.0
148
0.0
149
0.0
100
AcDbLayout
  1
レイアウト1
 70
     1
 71
     1
 10
0.0
 20
0.0
 11
12.0
 21
9.0
 12
0.0
 22
0.0
 32
0.0
 14
1.000000000000000E+20
 24
1.000000000000000E+20
 34
1.000000000000000E+20
 15
-1.000000000000000E+20
 25
-1.000000000000000E+20
 35
-1.000000000000000E+20
146
0.0
 13
0.0
 23
0.0
 33
0.0
 16
1.0
 26
0.0
 36
0.0
 17
0.0
 27
1.0
 37
0.0
 76
     0
330
1E
  0
MLINESTYLE
  5
17
102
{ACAD_REACTORS
330
16
102
}
330
16
100
AcDbMlineStyle
  2
STANDARD
 70
     0
  3

 62
   256
 51
90.0
 52
90.0
 71
     2
 49
0.5
 62
   256
  6
BYLAYER
 49
-0.5
 62
   256
  6
BYLAYER
  0
ACDBPLACEHOLDER
  5
F
102
{ACAD_REACTORS
330
E
102
}
330
E
  0
TABLESTYLE
  5
46A
102
{ACAD_REACTORS
330
1C
102
}
330
1C
100
AcDbTableStyle
  3

 70
     0
 71
     1
 40
0.06
 41
0.06
280
     0
281
     0
  7
STANDARD
140
0.4
170
     4
 62
     0
 63
     7
283
     0
274
    -2
284
     0
 64
     0
275
    -2
285
     0
 65
     0
276
    -2
286
     1
 66
     0
277
    -2
287
     1
 67
     0
278
    -2
288
     0
 68
     0
279
    -2
289
     1
 69
     0
  7
STANDARD
140
0.5
170
     5
 62
     0
 63
     7
283
     0
274
    -2
284
     1
 64
     0
275
    -2
285
     0
 65
     0
276
    -2
286
     1
 66
     0
277
    -2
287
     1
 67
     0
278
    -2
288
     0
 68
     0
279
    -2
289
     1
 69
     0
  7
STANDARD
140
0.4
170
     4
 62
     0
 63
     7
283
     0
274
    -2
284
     1
 64
     0
275
    -2
285
     0
 65
     0
276
    -2
286
     1
 66
     0
277
    -2
287
     1
 67
     0
278
    -2
288
     0
 68
     0
279
    -2
289
     1
 69
     0
  0
TABLESTYLE
  5
1D
102
{ACAD_REACTORS
330
1C
102
}
330
1C
100
AcDbTableStyle
  3
Standard
 70
     0
 71
     0
 40
0.06
 41
0.06
280
     0
281
     0
  7
STANDARD
140
0.18
170
     2
 62
     0
 63
     7
283
     0
274
    -2
284
     1
 64
     0
275
    -2
285
     1
 65
     0
276
    -2
286
     1
 66
     0
277
    -2
287
     1
 67
     0
278
    -2
288
     1
 68
     0
279
    -2
289
     1
 69
     0
  7
STANDARD
140
0.25
170
     5
 62
     0
 63
     7
283
     0
274
    -2
284
     1
 64
     0
275
    -2
285
     1
 65
     0
276
    -2
286
     1
 66
     0
277
    -2
287
     1
 67
     0
278
    -2
288
     1
 68
     0
279
    -2
289
     1
 69
     0
  7
STANDARD
140
0.18
170
     5
 62
     0
 63
     7
283
     0
274
    -2
284
     1
 64
     0
275
    -2
285
     1
 65
     0
276
    -2
286
     1
 66
     0
277
    -2
287
     1
 67
     0
278
    -2
288
     1
 68
     0
279
    -2
289
     1
 69
     0
  0
DICTIONARYVAR
  5
729
102
{ACAD_REACTORS
330
728
102
}
330
728
100
DictionaryVariables
280
     0
  1
STANDARD
  0
DICTIONARYVAR
  5
72A
102
{ACAD_REACTORS
330
728
102
}
330
728
100
DictionaryVariables
280
     0
  1
1
  0
DICTIONARYVAR
  5
72B
102
{ACAD_REACTORS
330
728
102
}
330
728
100
DictionaryVariables
280
     0
  1

  0
XRECORD
  5
727
102
{ACAD_REACTORS
330
726
102
}
330
726
100
AcDbXrecord
280
     1
1000
ADE02C001
1070
     1
1070
     0
1002
{
1002
}
1002
{
1002
}
1002
{
1002
}
1000

  0
XRECORD
  5
724
102
{ACAD_REACTORS
330
722
102
}
330
722
100
AcDbXrecord
280
     1
  0
DMMAPMANAGER
  5
467
102
{ACAD_REACTORS
330
466
102
}
330
466
100
AcDbDictionary
281
     1
  3
DisplayMap1
350
469
100
AcDbDictionaryWithDefault
340
469
100
AcMapDMMapManager
 70
     1
340
469
  0
DMSTYLELIBRARY
  5
468
102
{ACAD_REACTORS
330
466
102
}
330
466
100
AcMapDMStyleLibrary
 70
     1
 70
     1
360
46E
  0
DICTIONARY
  5
730
330
25
100
AcDbDictionary
280
     1
281
     1
  3
ACAD_XREC_ROUNDTRIP
360
731
  0
DICTIONARY
  5
72E
330
21
100
AcDbDictionary
280
     1
281
     1
  3
ACAD_XREC_ROUNDTRIP
360
72F
  0
DMMAP
  5
469
102
{ACAD_REACTORS
330
467
330
46B
102
}
330
467
100
AcMapDMMap
 70
     1
  1
既定値
 70
     1
330
0
100
AcMapDMMap
 70
     1
 90
        1
360
46B
 90
        1
 40
1.797693134862314E+99
 70
     1
100
AcMapDMMap
 70
     2
 70
     0
 40
1.797693134862314E+99
290
     0
290
     1
 40
1.0
 40
3.0
  1
Legend
 90
        1
 40
1.797693134862314E+99
  1

 70
     0
 40
100.0
 70
     1
 90
        0
 90
        1
360
46C
  0
DMSTYLECATEGORY
  5
46E
102
{ACAD_REACTORS
330
468
102
}
330
468
100
AcMapDMStyleCategory
 70
     1
  1
スタイルを表示
 70
     0
  0
XRECORD
  5
731
102
{ACAD_REACTORS
330
730
102
}
330
730
100
AcDbXrecord
280
     1
102
SHADEPLOT
 70
     0
102
SHADEPLOTRESLEVEL
 70
     2
102
SHADEPLOTCUSTOMDPI
 70
   300
  0
XRECORD
  5
72F
102
{ACAD_REACTORS
330
72E
102
}
330
72E
100
AcDbXrecord
280
     1
102
SHADEPLOT
 70
     0
102
SHADEPLOTRESLEVEL
 70
     2
102
SHADEPLOTCUSTOMDPI
 70
   300
  0
DMBASEELEMENT
  5
46B
102
{ACAD_REACTORS
330
469
102
}
330
469
100
AcMapDMBaseElement
 70
     1
  1
マップ ベース
 70
     1
330
469
100
AcMapDMBaseElement
 70
     1
  1

 70
     2
  1

 70
     1
 40
1.797693134862314E+99
 70
     1
 70
     1
 70
     1
 70
     1
360
46D
100
AcMapDMBaseElement
 70
     1
  0
DMDEFAULTSTYLE
  5
46C
102
{ACAD_REACTORS
330
469
102
}
330
469
100
AcMapDMDefaultStyle
 70
     1
 90
        1
  1
既定値
100
AcMapDMDefaultStyle
 70
     1
280
   100
 90
     0
  0
DMSTYLEREFERENCE
  5
46D
330
46B
100
AcMapDMStyleReference
 70
     1
 70
     0
340
46C
330
469
  0
ENDSEC
  0
EOF
