  0
SECTION
  2
HEADER
  9
$ACADVER
  1
AC1015
  9
$ACADMAINTVER
 70
    20
  9
$DWGCODEPAGE
  3
ANSI_932
  9
$INSBASE
 10
0.0
 20
0.0
 30
0.0
  9
$EXTMIN
 10
2752.915060781397
 20
2690.382484566065
 30
0.0
  9
$EXTMAX
 10
39752.91619488059
 20
27690.38454656459
 30
0.0
  9
$LIMMIN
 10
0.0
 20
0.0
  9
$LIMMAX
 10
42000.0
 20
29700.0
  9
$ORTHOMODE
 70
     0
  9
$REGENMODE
 70
     1
  9
$FILLMODE
 70
     1
  9
$QTEXTMODE
 70
     0
  9
$MIRRTEXT
 70
     0
  9
$LTSCALE
 40
100.0
  9
$ATTMODE
 70
     1
  9
$TEXTSIZE
 40
0.2
  9
$TRACEWID
 40
0.05
  9
$TEXTSTYLE
  7
STANDARD
  9
$CLAYER
  8
0
  9
$CELTYPE
  6
CONTINUOUS
  9
$CECOLOR
 62
   256
  9
$CELTSCALE
 40
1.0
  9
$DISPSILH
 70
     0
  9
$DIMSCALE
 40
40.0
  9
$DIMASZ
 40
0.18
  9
$DIMEXO
 40
0.0625
  9
$DIMDLI
 40
0.38
  9
$DIMRND
 40
0.0
  9
$DIMDLE
 40
0.0
  9
$DIMEXE
 40
0.18
  9
$DIMTP
 40
0.0
  9
$DIMTM
 40
0.0
  9
$DIMTXT
 40
0.18
  9
$DIMCEN
 40
0.09
  9
$DIMTSZ
 40
0.0
  9
$DIMTOL
 70
     0
  9
$DIMLIM
 70
     0
  9
$DIMTIH
 70
     1
  9
$DIMTOH
 70
     1
  9
$DIMSE1
 70
     0
  9
$DIMSE2
 70
     0
  9
$DIMTAD
 70
     0
  9
$DIMZIN
 70
     0
  9
$DIMBLK
  1

  9
$DIMASO
 70
     1
  9
$DIMSHO
 70
     1
  9
$DIMPOST
  1

  9
$DIMAPOST
  1

  9
$DIMALT
 70
     0
  9
$DIMALTD
 70
     2
  9
$DIMALTF
 40
25.4
  9
$DIMLFAC
 40
1.0
  9
$DIMTOFL
 70
     0
  9
$DIMTVP
 40
0.0
  9
$DIMTIX
 70
     0
  9
$DIMSOXD
 70
     0
  9
$DIMSAH
 70
     0
  9
$DIMBLK1
  1

  9
$DIMBLK2
  1

  9
$DIMSTYLE
  2
Standard
  9
$DIMCLRD
 70
     0
  9
$DIMCLRE
 70
     0
  9
$DIMCLRT
 70
     0
  9
$DIMTFAC
 40
1.0
  9
$DIMGAP
 40
0.09
  9
$DIMJUST
 70
     0
  9
$DIMSD1
 70
     0
  9
$DIMSD2
 70
     0
  9
$DIMTOLJ
 70
     1
  9
$DIMTZIN
 70
     0
  9
$DIMALTZ
 70
     0
  9
$DIMALTTZ
 70
     0
  9
$DIMUPT
 70
     0
  9
$DIMDEC
 70
     4
  9
$DIMTDEC
 70
     4
  9
$DIMALTU
 70
     2
  9
$DIMALTTD
 70
     2
  9
$DIMTXSTY
  7
STANDARD
  9
$DIMAUNIT
 70
     0
  9
$DIMADEC
 70
     0
  9
$DIMALTRND
 40
0.0
  9
$DIMAZIN
 70
     0
  9
$DIMDSEP
 70
    46
  9
$DIMATFIT
 70
     3
  9
$DIMFRAC
 70
     0
  9
$DIMLDRBLK
  1

  9
$DIMLUNIT
 70
     2
  9
$DIMLWD
 70
    -2
  9
$DIMLWE
 70
    -2
  9
$DIMTMOVE
 70
     0
  9
$LUNITS
 70
     2
  9
$LUPREC
 70
     4
  9
$SKETCHINC
 40
0.1
  9
$FILLETRAD
 40
0.0
  9
$AUNITS
 70
     0
  9
$AUPREC
 70
     0
  9
$MENU
  1
.
  9
$ELEVATION
 40
0.0
  9
$PELEVATION
 40
0.0
  9
$THICKNESS
 40
0.0
  9
$LIMCHECK
 70
     0
  9
$CHAMFERA
 40
0.0
  9
$CHAMFERB
 40
0.0
  9
$CHAMFERC
 40
0.0
  9
$CHAMFERD
 40
0.0
  9
$SKPOLY
 70
     0
  9
$TDCREATE
 40
2454575.701627778
  9
$TDUCREATE
 40
2454575.326627778
  9
$TDUPDATE
 40
2454575.702210822
  9
$TDUUPDATE
 40
2454575.327210822
  9
$TDINDWG
 40
0.0005837731
  9
$TDUSRTIMER
 40
0.0005837731
  9
$USRTIMER
 70
     1
  9
$ANGBASE
 50
0.0
  9
$ANGDIR
 70
     0
  9
$PDMODE
 70
     0
  9
$PDSIZE
 40
0.0
  9
$PLINEWID
 40
0.0
  9
$SPLFRAME
 70
     0
  9
$SPLINETYPE
 70
     6
  9
$SPLINESEGS
 70
     8
  9
$HANDSEED
  5
968
  9
$SURFTAB1
 70
     6
  9
$SURFTAB2
 70
     6
  9
$SURFTYPE
 70
     6
  9
$SURFU
 70
     6
  9
$SURFV
 70
     6
  9
$UCSBASE
  2

  9
$UCSNAME
  2

  9
$UCSORG
 10
0.0
 20
0.0
 30
0.0
  9
$UCSXDIR
 10
1.0
 20
0.0
 30
0.0
  9
$UCSYDIR
 10
0.0
 20
1.0
 30
0.0
  9
$UCSORTHOREF
  2

  9
$UCSORTHOVIEW
 70
     0
  9
$UCSORGTOP
 10
0.0
 20
0.0
 30
0.0
  9
$UCSORGBOTTOM
 10
0.0
 20
0.0
 30
0.0
  9
$UCSORGLEFT
 10
0.0
 20
0.0
 30
0.0
  9
$UCSORGRIGHT
 10
0.0
 20
0.0
 30
0.0
  9
$UCSORGFRONT
 10
0.0
 20
0.0
 30
0.0
  9
$UCSORGBACK
 10
0.0
 20
0.0
 30
0.0
  9
$PUCSBASE
  2

  9
$PUCSNAME
  2

  9
$PUCSORG
 10
0.0
 20
0.0
 30
0.0
  9
$PUCSXDIR
 10
1.0
 20
0.0
 30
0.0
  9
$PUCSYDIR
 10
0.0
 20
1.0
 30
0.0
  9
$PUCSORTHOREF
  2

  9
$PUCSORTHOVIEW
 70
     0
  9
$PUCSORGTOP
 10
0.0
 20
0.0
 30
0.0
  9
$PUCSORGBOTTOM
 10
0.0
 20
0.0
 30
0.0
  9
$PUCSORGLEFT
 10
0.0
 20
0.0
 30
0.0
  9
$PUCSORGRIGHT
 10
0.0
 20
0.0
 30
0.0
  9
$PUCSORGFRONT
 10
0.0
 20
0.0
 30
0.0
  9
$PUCSORGBACK
 10
0.0
 20
0.0
 30
0.0
  9
$USERI1
 70
     0
  9
$USERI2
 70
     0
  9
$USERI3
 70
     0
  9
$USERI4
 70
     0
  9
$USERI5
 70
     0
  9
$USERR1
 40
0.0
  9
$USERR2
 40
0.0
  9
$USERR3
 40
0.0
  9
$USERR4
 40
0.0
  9
$USERR5
 40
0.0
  9
$WORLDVIEW
 70
     1
  9
$SHADEDGE
 70
     3
  9
$SHADEDIF
 70
    70
  9
$TILEMODE
 70
     1
  9
$MAXACTVP
 70
    64
  9
$PINSBASE
 10
0.0
 20
0.0
 30
0.0
  9
$PLIMCHECK
 70
     0
  9
$PEXTMIN
 10
1.000000000000000E+20
 20
1.000000000000000E+20
 30
1.000000000000000E+20
  9
$PEXTMAX
 10
-1.000000000000000E+20
 20
-1.000000000000000E+20
 30
-1.000000000000000E+20
  9
$PLIMMIN
 10
0.0
 20
0.0
  9
$PLIMMAX
 10
12.0
 20
9.0
  9
$UNITMODE
 70
     0
  9
$VISRETAIN
 70
     1
  9
$PLINEGEN
 70
     0
  9
$PSLTSCALE
 70
     1
  9
$TREEDEPTH
 70
  3020
  9
$CMLSTYLE
  2
Standard
  9
$CMLJUST
 70
     0
  9
$CMLSCALE
 40
1.0
  9
$PROXYGRAPHICS
 70
     1
  9
$MEASUREMENT
 70
     0
  9
$CELWEIGHT
370
    -1
  9
$ENDCAPS
280
     0
  9
$JOINSTYLE
280
     0
  9
$LWDISPLAY
290
     0
  9
$INSUNITS
 70
     2
  9
$HYPERLINKBASE
  1

  9
$STYLESHEET
  1

  9
$XEDIT
290
     1
  9
$CEPSNTYPE
380
     0
  9
$PSTYLEMODE
290
     1
  9
$FINGERPRINTGUID
  2
{6E542DC9-408E-4B7D-A893-ACEC66FD38BF}
  9
$VERSIONGUID
  2
{3000EB70-91B6-431C-90A2-9CDC6B51FB70}
  9
$EXTNAMES
290
     1
  9
$PSVPSCALE
 40
0.0
  9
$OLESTARTUP
290
     0
  0
ENDSEC
  0
SECTION
  2
CLASSES
  0
CLASS
  1
ACDBDICTIONARYWDFLT
  2
AcDbDictionaryWithDefault
  3
ObjectDBX Classes
 90
        0
280
     0
281
     0
  0
CLASS
  1
TABLESTYLE
  2
AcDbTableStyle
  3
ObjectDBX Classes
 90
     2047
280
     0
281
     0
  0
CLASS
  1
AECC_TREE_NODE
  2
AeccDbTreeNode
  3
AeccvBase10|Product Desc: Autodesk Civil 3D |Company: Autodesk,Inc. |WEB Address: www.autodesk.com
 90
     1023
280
     0
281
     0
  0
CLASS
  1
AECC_CLASS_NODE
  2
AeccDbClassNode
  3
AeccLand10|Product Desc: Autodesk Civil 3D |Company: Autodesk,Inc. |WEB Address: www.autodesk.com
 90
     1023
280
     0
281
     0
  0
CLASS
  1
AECC_ROOT_SETTINGS_NODE
  2
AeccDbRootSettingsNode
  3
AeccvBase10|Product Desc: Autodesk Civil 3D |Company: Autodesk,Inc. |WEB Address: www.autodesk.com
 90
     1023
280
     0
281
     0
  0
CLASS
  1
AEC_VARS_DWG_SETUP
  2
AecDbVarsDwgSetup
  3
AecBase40|Product Desc: Autodesk Architectural Desktop 2005 |Company: Autodesk,Inc. |WEB Address: www.autodesk.com
 90
      129
280
     0
281
     0
  0
CLASS
  1
DMMAPMANAGER
  2
AcMapDMMapManager
  3
AcMapDisplayManagement
 90
     1024
280
     0
281
     0
  0
CLASS
  1
DMSTYLELIBRARY
  2
AcMapDMStyleLibrary
  3
AcMapDisplayManagement
 90
     1024
280
     0
281
     0
  0
CLASS
  1
DMMAP
  2
AcMapDMMap
  3
AcMapDisplayManagement
 90
     1024
280
     0
281
     0
  0
CLASS
  1
DMBASEELEMENT
  2
AcMapDMBaseElement
  3
AcMapDisplayManagement
 90
     1024
280
     0
281
     0
  0
CLASS
  1
DMDEFAULTSTYLE
  2
AcMapDMDefaultStyle
  3
AcMapDisplayManagement
 90
     1024
280
     0
281
     0
  0
CLASS
  1
DMSTYLEREFERENCE
  2
AcMapDMStyleReference
  3
AcMapDisplayManagement
 90
     1024
280
     0
281
     0
  0
CLASS
  1
DMSTYLECATEGORY
  2
AcMapDMStyleCategory
  3
AcMapDisplayManagement
 90
     1024
280
     0
281
     0
  0
CLASS
  1
AECC_SETTINGS_NODE
  2
AeccDbSettingsNode
  3
AeccvBase10|Product Desc: Autodesk Civil 3D |Company: Autodesk,Inc. |WEB Address: www.autodesk.com
 90
     1023
280
     0
281
     0
  0
CLASS
  1
AECC_PROFILE_VIEW_STYLE
  2
AeccDbGraphStyleProfile
  3
AeccLand10|Product Desc: Autodesk Civil 3D |Company: Autodesk,Inc. |WEB Address: www.autodesk.com
 90
      129
280
     0
281
     0
  0
CLASS
  1
AECC_PROFILE_VIEW_BAND_STYLE_SET
  2
AeccDbGraphProfileBandStyleSet
  3
AeccLand10|Product Desc: Autodesk Civil 3D |Company: Autodesk,Inc. |WEB Address: www.autodesk.com
 90
      129
280
     0
281
     0
  0
CLASS
  1
AECC_PROFILE_VIEW_DATA_BAND_STYLE
  2
AeccDbGraphStyleProfileDataBands
  3
AeccLand10|Product Desc: Autodesk Civil 3D |Company: Autodesk,Inc. |WEB Address: www.autodesk.com
 90
      129
280
     0
281
     0
  0
CLASS
  1
AECC_LABEL_NODE
  2
AeccDbLabelNode
  3
AeccLand10|Product Desc: Autodesk Civil 3D |Company: Autodesk,Inc. |WEB Address: www.autodesk.com
 90
     1023
280
     0
281
     0
  0
CLASS
  1
AECC_LABEL_COLLECTOR_STYLE
  2
AeccDbLabelStyleCollector
  3
AeccLand10|Product Desc: Autodesk Civil 3D |Company: Autodesk,Inc. |WEB Address: www.autodesk.com
 90
     1023
280
     0
281
     0
  0
CLASS
  1
AECC_LABEL_TEXT_STYLE
  2
AeccDbLabelStyleText
  3
AeccLand10|Product Desc: Autodesk Civil 3D |Company: Autodesk,Inc. |WEB Address: www.autodesk.com
 90
     1023
280
     0
281
     0
  0
CLASS
  1
AECC_PROFILE_VIEW_HORIZONTAL_GEOMETRY_BAND_STYLE
  2
AeccDbGraphStyleHorGeometryBands
  3
AeccLand10|Product Desc: Autodesk Civil 3D |Company: Autodesk,Inc. |WEB Address: www.autodesk.com
 90
      129
280
     0
281
     0
  0
CLASS
  1
AECC_PROFILE_VIEW_VERTICAL_GEOMETRY_BAND_STYLE
  2
AeccDbGraphStyleVertGeometryBands
  3
AeccLand10|Product Desc: Autodesk Civil 3D |Company: Autodesk,Inc. |WEB Address: www.autodesk.com
 90
      129
280
     0
281
     0
  0
CLASS
  1
AECC_LABEL_RADIAL_LINE_STYLE
  2
AeccDbLabelStyleRadialLine
  3
AeccLand10|Product Desc: Autodesk Civil 3D |Company: Autodesk,Inc. |WEB Address: www.autodesk.com
 90
     1023
280
     0
281
     0
  0
CLASS
  1
AECC_POINT_STYLE
  2
AeccDbPointStyle
  3
AeccLand10|Product Desc: Autodesk Civil 3D |Company: Autodesk,Inc. |WEB Address: www.autodesk.com
 90
      895
280
     0
281
     0
  0
CLASS
  1
AECC_PROFILE_LABEL_SET
  2
AeccDbVAlignStnLabelsDlgTemplate
  3
AeccLand10|Product Desc: Autodesk Civil 3D |Company: Autodesk,Inc. |WEB Address: www.autodesk.com
 90
     1023
280
     0
281
     0
  0
CLASS
  1
AECC_SECTION_VIEW_STYLE
  2
AeccDbGraphStyleCrossSection
  3
AeccLand10|Product Desc: Autodesk Civil 3D |Company: Autodesk,Inc. |WEB Address: www.autodesk.com
 90
      129
280
     0
281
     0
  0
CLASS
  1
AECC_SECTION_VIEW_BAND_STYLE_SET
  2
AeccDbGraphSectionBandStyleSet
  3
AeccLand10|Product Desc: Autodesk Civil 3D |Company: Autodesk,Inc. |WEB Address: www.autodesk.com
 90
      129
280
     0
281
     0
  0
CLASS
  1
AECC_SECTION_VIEW_DATA_BAND_STYLE
  2
AeccDbGraphStyleSectionDataBands
  3
AeccLand10|Product Desc: Autodesk Civil 3D |Company: Autodesk,Inc. |WEB Address: www.autodesk.com
 90
      129
280
     0
281
     0
  0
CLASS
  1
AECC_SECTION_LABEL_SET
  2
AeccDbSectionLabelsDlgTemplate
  3
AeccLand10|Product Desc: Autodesk Civil 3D |Company: Autodesk,Inc. |WEB Address: www.autodesk.com
 90
     1023
280
     0
281
     0
  0
CLASS
  1
AECC_ALIGNMENT_STYLE
  2
AeccDbAlignmentStyle
  3
AeccLand10|Product Desc: Autodesk Civil 3D |Company: Autodesk,Inc. |WEB Address: www.autodesk.com
 90
     1023
280
     0
281
     0
  0
CLASS
  1
AECC_LABEL_VECTOR_ARROW_STYLE
  2
AeccDbLabelStyleVectorArrow
  3
AeccLand10|Product Desc: Autodesk Civil 3D |Company: Autodesk,Inc. |WEB Address: www.autodesk.com
 90
     1023
280
     0
281
     0
  0
CLASS
  1
AECC_ALIGNMENT_LABEL_SET
  2
AeccDbAlignStnLabelsDlgTemplate
  3
AeccLand10|Product Desc: Autodesk Civil 3D |Company: Autodesk,Inc. |WEB Address: www.autodesk.com
 90
     1023
280
     0
281
     0
  0
CLASS
  1
AECC_SURFACE_STYLE
  2
AeccDbSurfaceStyle
  3
AeccLand10|Product Desc: Autodesk Civil 3D |Company: Autodesk,Inc. |WEB Address: www.autodesk.com
 90
      129
280
     0
281
     0
  0
CLASS
  1
AECC_LEGEND_TABLE_STYLE
  2
AeccDbLegendScheduleTableStyle
  3
AeccLand10|Product Desc: Autodesk Civil 3D |Company: Autodesk,Inc. |WEB Address: www.autodesk.com
 90
     1023
280
     0
281
     0
  0
CLASS
  1
AECC_SECTION_STYLE
  2
AeccDbSectionStyle
  3
AeccLand10|Product Desc: Autodesk Civil 3D |Company: Autodesk,Inc. |WEB Address: www.autodesk.com
 90
     1023
280
     0
281
     0
  0
CLASS
  1
AECC_GRADING_STYLE
  2
AeccDbGradingStyle
  3
AeccLand10|Product Desc: Autodesk Civil 3D |Company: Autodesk,Inc. |WEB Address: www.autodesk.com
 90
     1023
280
     0
281
     0
  0
CLASS
  1
AECC_GRADING_CRITERIA
  2
AeccDbGradingCriteria
  3
AeccLand10|Product Desc: Autodesk Civil 3D |Company: Autodesk,Inc. |WEB Address: www.autodesk.com
 90
     1023
280
     0
281
     0
  0
CLASS
  1
AECC_PARCEL_STYLE
  2
AeccDbParcelStyle
  3
AeccLand10|Product Desc: Autodesk Civil 3D |Company: Autodesk,Inc. |WEB Address: www.autodesk.com
 90
      129
280
     0
281
     0
  0
CLASS
  1
AECC_SAMPLE_LINE_GROUP_STYLE
  2
AeccDbSampleLineGroupStyle
  3
AeccLand10|Product Desc: Autodesk Civil 3D |Company: Autodesk,Inc. |WEB Address: www.autodesk.com
 90
      129
280
     0
281
     0
  0
CLASS
  1
AECC_SHEET_STYLE
  2
AeccDbSheetStyle
  3
AeccLand10|Product Desc: Autodesk Civil 3D |Company: Autodesk,Inc. |WEB Address: www.autodesk.com
 90
      129
280
     0
281
     0
  0
CLASS
  1
AECC_SAMPLE_LINE_STYLE
  2
AeccDbSampleLineStyle
  3
AeccLand10|Product Desc: Autodesk Civil 3D |Company: Autodesk,Inc. |WEB Address: www.autodesk.com
 90
     1023
280
     0
281
     0
  0
CLASS
  1
AECC_PROFILE_STYLE
  2
AeccDbVAlignmentStyle
  3
AeccLand10|Product Desc: Autodesk Civil 3D |Company: Autodesk,Inc. |WEB Address: www.autodesk.com
 90
     1023
280
     0
281
     0
  0
CLASS
  1
AECC_STATION_FORMAT_STYLE
  2
AeccDbStationFormatStyle
  3
AeccLand10|Product Desc: Autodesk Civil 3D |Company: Autodesk,Inc. |WEB Address: www.autodesk.com
 90
     1023
280
     0
281
     0
  0
CLASS
  1
AECC_TABLE_STYLE
  2
AeccDbScheduleTableStyle
  3
AeccLand10|Product Desc: Autodesk Civil 3D |Company: Autodesk,Inc. |WEB Address: www.autodesk.com
 90
     1023
280
     0
281
     0
  0
CLASS
  1
AECC_GRADING_CRITERIA_SET
  2
AeccDbGradingCriteriaSet
  3
AeccLand10|Product Desc: Autodesk Civil 3D |Company: Autodesk,Inc. |WEB Address: www.autodesk.com
 90
     1023
280
     0
281
     0
  0
CLASS
  1
AECC_FORMAT_MANAGER_OBJECT
  2
AeccDbFormatManagerObject
  3
AeccLand10|Product Desc: Autodesk Civil 3D |Company: Autodesk,Inc. |WEB Address: www.autodesk.com
 90
     1023
280
     0
281
     0
  0
CLASS
  1
AECC_POINT_DESCRIPTION_KEY_SET_NODE
  2
AeccDbPointDescKeySetsNode
  3
AeccvBase10|Product Desc: Autodesk Civil 3D |Company: Autodesk,Inc. |WEB Address: www.autodesk.com
 90
     1023
280
     0
281
     0
  0
CLASS
  1
DICTIONARYVAR
  2
AcDbDictionaryVar
  3
ObjectDBX Classes
 90
        0
280
     0
281
     0
  0
CLASS
  1
ACDBPLACEHOLDER
  2
AcDbPlaceHolder
  3
ObjectDBX Classes
 90
        0
280
     0
281
     0
  0
CLASS
  1
LAYOUT
  2
AcDbLayout
  3
ObjectDBX Classes
 90
        0
280
     0
281
     0
  0
ENDSEC
  0
SECTION
  2
TABLES
  0
TABLE
  2
VPORT
  5
8
330
0
100
AcDbSymbolTable
 70
     2
  0
VPORT
  5
962
330
8
100
AcDbSymbolTableRecord
100
AcDbViewportTableRecord
  2
*Active
 70
     0
 10
0.0
 20
0.0
 11
1.0
 21
1.0
 12
47576.64261530094
 22
13414.71396630718
 13
0.0
 23
0.0
 14
1.0
 24
1.0
 15
0.0
 25
0.0
 16
0.0
 26
0.0
 36
1.0
 17
0.0
 27
0.0
 37
0.0
 40
50193.14066237248
 41
1.937399678972712
 42
50.0
 43
0.0
 44
0.0
 50
0.0
 51
0.0
 71
     0
 72
   100
 73
     1
 74
     1
 75
     0
 76
     0
 77
     0
 78
     0
281
     0
 65
     1
110
0.0
120
0.0
130
0.0
111
1.0
121
0.0
131
0.0
112
0.0
122
1.0
132
0.0
 79
     0
146
0.0
  0
ENDTAB
  0
TABLE
  2
LTYPE
  5
5
330
0
100
AcDbSymbolTable
 70
    35
  0
LTYPE
  5
13
330
5
100
AcDbSymbolTableRecord
100
AcDbLinetypeTableRecord
  2
ByBlock
 70
     0
  3

 72
    65
 73
     0
 40
0.0
  0
LTYPE
  5
14
330
5
100
AcDbSymbolTableRecord
100
AcDbLinetypeTableRecord
  2
ByLayer
 70
     0
  3

 72
    65
 73
     0
 40
0.0
  0
LTYPE
  5
15
330
5
100
AcDbSymbolTableRecord
100
AcDbLinetypeTableRecord
  2
CONTINUOUS
 70
     0
  3
実線
 72
    65
 73
     0
 40
0.0
  0
LTYPE
  5
26
330
5
100
AcDbSymbolTableRecord
100
AcDbLinetypeTableRecord
  2
DASHED1
 70
     0
  3
--  --  --  --  --  --  --  --  
 72
    65
 73
     2
 40
2.5
 49
1.25
 74
     0
 49
-1.25
 74
     0
  0
LTYPE
  5
27
330
5
100
AcDbSymbolTableRecord
100
AcDbLinetypeTableRecord
  2
DASHED2
 70
     0
  3
----    ----    ----    ----    
 72
    65
 73
     2
 40
5.0
 49
2.5
 74
     0
 49
-2.5
 74
     0
  0
LTYPE
  5
28
330
5
100
AcDbSymbolTableRecord
100
AcDbLinetypeTableRecord
  2
DASHED3
 70
     0
  3
------  ------  ------  ------  
 72
    65
 73
     2
 40
5.0
 49
3.75
 74
     0
 49
-1.25
 74
     0
  0
LTYPE
  5
29
330
5
100
AcDbSymbolTableRecord
100
AcDbLinetypeTableRecord
  2
CENTER1
 70
     0
  3
----- - ----- - ----- - ----- - 
 72
    65
 73
     4
 40
10.0
 49
6.25
 74
     0
 49
-1.25
 74
     0
 49
1.25
 74
     0
 49
-1.25
 74
     0
  0
LTYPE
  5
2A
330
5
100
AcDbSymbolTableRecord
100
AcDbLinetypeTableRecord
  2
CENTER2
 70
     0
  3
----------  --  ----------  --  
 72
    65
 73
     4
 40
20.0
 49
12.5
 74
     0
 49
-2.5
 74
     0
 49
2.5
 74
     0
 49
-2.5
 74
     0
  0
LTYPE
  5
2B
330
5
100
AcDbSymbolTableRecord
100
AcDbLinetypeTableRecord
  2
PHANTOM1
 70
     0
  3
--- - - --- - - --- - - --- - - 
 72
    65
 73
     6
 40
10.0
 49
3.25
 74
     0
 49
-1.25
 74
     0
 49
1.25
 74
     0
 49
-1.25
 74
     0
 49
1.25
 74
     0
 49
-1.25
 74
     0
  0
LTYPE
  5
2C
330
5
100
AcDbSymbolTableRecord
100
AcDbLinetypeTableRecord
  2
PHANTOM2
 70
     0
  3
--------  -  -  --------  -  -  
 72
    65
 73
     6
 40
20.0
 49
10.0
 74
     0
 49
-2.5
 74
     0
 49
1.25
 74
     0
 49
-2.5
 74
     0
 49
1.25
 74
     0
 49
-2.5
 74
     0
  0
LTYPE
  5
2D
330
5
100
AcDbSymbolTableRecord
100
AcDbLinetypeTableRecord
  2
DOT
 70
     0
  3
-   -   -   -   -   -   -   -   
 72
    65
 73
     2
 40
2.5
 49
0.625
 74
     0
 49
-1.875
 74
     0
  0
LTYPE
  5
2E
330
5
100
AcDbSymbolTableRecord
100
AcDbLinetypeTableRecord
  2
DUMMY
 70
     0
  3
ダミー
 72
    65
 73
     0
 40
0.0
  0
LTYPE
  5
2F
330
5
100
AcDbSymbolTableRecord
100
AcDbLinetypeTableRecord
  2
RAND1
 70
     0
  3
ランダム線1
 72
    65
 73
     4
 40
10.0
 49
1.0
 74
     0
 49
-2.0
 74
     0
 49
3.0
 74
     0
 49
-4.0
 74
     0
  0
LTYPE
  5
30
330
5
100
AcDbSymbolTableRecord
100
AcDbLinetypeTableRecord
  2
RAND2
 70
     0
  3
ランダム線2
 72
    65
 73
     4
 40
14.0
 49
2.0
 74
     0
 49
-3.0
 74
     0
 49
4.0
 74
     0
 49
-5.0
 74
     0
  0
LTYPE
  5
31
330
5
100
AcDbSymbolTableRecord
100
AcDbLinetypeTableRecord
  2
RAND3
 70
     0
  3
ランダム線3
 72
    65
 73
     4
 40
18.0
 49
3.0
 74
     0
 49
-4.0
 74
     0
 49
5.0
 74
     0
 49
-6.0
 74
     0
  0
LTYPE
  5
32
330
5
100
AcDbSymbolTableRecord
100
AcDbLinetypeTableRecord
  2
RAND4
 70
     0
  3
ランダム線4
 72
    65
 73
     4
 40
22.0
 49
4.0
 74
     0
 49
-5.0
 74
     0
 49
6.0
 74
     0
 49
-7.0
 74
     0
  0
LTYPE
  5
33
330
5
100
AcDbSymbolTableRecord
100
AcDbLinetypeTableRecord
  2
RAND5
 70
     0
  3
ランダム線5
 72
    65
 73
     4
 40
26.0
 49
5.0
 74
     0
 49
-6.0
 74
     0
 49
7.0
 74
     0
 49
-8.0
 74
     0
  0
LTYPE
  5
34
330
5
100
AcDbSymbolTableRecord
100
AcDbLinetypeTableRecord
  2
LONG1
 70
     0
  3
----------  --  ----------  --  
 72
    65
 73
     4
 40
40.0
 49
32.5
 74
     0
 49
-2.5
 74
     0
 49
2.5
 74
     0
 49
-2.5
 74
     0
  0
LTYPE
  5
35
330
5
100
AcDbSymbolTableRecord
100
AcDbLinetypeTableRecord
  2
LONG2
 70
     0
  3
--------  -  -  --------  -  -  
 72
    65
 73
     6
 40
40.0
 49
30.0
 74
     0
 49
-2.5
 74
     0
 49
1.25
 74
     0
 49
-2.5
 74
     0
 49
1.25
 74
     0
 49
-2.5
 74
     0
  0
LTYPE
  5
36
330
5
100
AcDbSymbolTableRecord
100
AcDbLinetypeTableRecord
  2
LONG3
 70
     0
  3
+++++++++++++++..+++++++++++++++
 72
    65
 73
     2
 40
40.0
 49
37.5
 74
     0
 49
-2.5
 74
     0
  0
LTYPE
  5
37
330
5
100
AcDbSymbolTableRecord
100
AcDbLinetypeTableRecord
  2
LONG4
 70
     0
  3
+++++++++++++++..+++++++++++++++
 72
    65
 73
     2
 40
80.0
 49
75.0
 74
     0
 49
-5.0
 74
     0
  0
LTYPE
  5
38
330
5
100
AcDbSymbolTableRecord
100
AcDbLinetypeTableRecord
  2
LONG5
 70
     0
  3
----------  --  ----------  --  
 72
    65
 73
     4
 40
60.0
 49
37.5
 74
     0
 49
-7.5
 74
     0
 49
7.5
 74
     0
 49
-7.5
 74
     0
  0
LTYPE
  5
39
330
5
100
AcDbSymbolTableRecord
100
AcDbLinetypeTableRecord
  2
DASHED
 70
     0
  3
-------   -------------   ------
 72
    65
 73
     2
 40
7.5
 49
6.0
 74
     0
 49
-1.5
 74
     0
  0
LTYPE
  5
3A
330
5
100
AcDbSymbolTableRecord
100
AcDbLinetypeTableRecord
  2
DASHED_SPACED
 70
     0
  3
----        --------        ----
 72
    65
 73
     2
 40
12.0
 49
6.0
 74
     0
 49
-6.0
 74
     0
  0
LTYPE
  5
3B
330
5
100
AcDbSymbolTableRecord
100
AcDbLinetypeTableRecord
  2
LONG_DASHED_DOTTED
 70
     0
  3
------------- --- --------------
 72
    65
 73
     4
 40
15.25
 49
12.0
 74
     0
 49
-1.5
 74
     0
 49
0.25
 74
     0
 49
-1.5
 74
     0
  0
LTYPE
  5
3C
330
5
100
AcDbSymbolTableRecord
100
AcDbLinetypeTableRecord
  2
LONG_DASHED_DOUBLE-DOTTED
 70
     0
  3
----------- --- --- ------------
 72
    65
 73
     6
 40
17.0
 49
12.0
 74
     0
 49
-1.5
 74
     0
 49
0.25
 74
     0
 49
-1.5
 74
     0
 49
0.25
 74
     0
 49
-1.5
 74
     0
  0
LTYPE
  5
3D
330
5
100
AcDbSymbolTableRecord
100
AcDbLinetypeTableRecord
  2
LONG_DASHED_TRIPLICATE-DOTTED
 70
     0
  3
--------- --- --- --- ----------
 72
    65
 73
     8
 40
18.75
 49
12.0
 74
     0
 49
-1.5
 74
     0
 49
0.25
 74
     0
 49
-1.5
 74
     0
 49
0.25
 74
     0
 49
-1.5
 74
     0
 49
0.25
 74
     0
 49
-1.5
 74
     0
  0
LTYPE
  5
3E
330
5
100
AcDbSymbolTableRecord
100
AcDbLinetypeTableRecord
  2
DOTTED
 70
     0
  3
   -       -       -       -    
 72
    65
 73
     2
 40
1.75
 49
0.25
 74
     0
 49
-1.5
 74
     0
  0
LTYPE
  5
3F
330
5
100
AcDbSymbolTableRecord
100
AcDbLinetypeTableRecord
  2
CHAIN
 70
     0
  3
-------------- -- --------------
 72
    65
 73
     4
 40
18.5
 49
12.0
 74
     0
 49
-1.5
 74
     0
 49
3.5
 74
     0
 49
-1.5
 74
     0
  0
LTYPE
  5
40
330
5
100
AcDbSymbolTableRecord
100
AcDbLinetypeTableRecord
  2
CHAIN_DOUBLE_DASH
 70
     0
  3
------------ -- -- -------------
 72
    65
 73
     6
 40
23.5
 49
12.0
 74
     0
 49
-1.5
 74
     0
 49
3.5
 74
     0
 49
-1.5
 74
     0
 49
3.5
 74
     0
 49
-1.5
 74
     0
  0
LTYPE
  5
41
330
5
100
AcDbSymbolTableRecord
100
AcDbLinetypeTableRecord
  2
DASHED_DOTTED
 70
     0
  3
-----------     -     ----------
 72
    65
 73
     4
 40
9.25
 49
6.0
 74
     0
 49
-1.5
 74
     0
 49
0.25
 74
     0
 49
-1.5
 74
     0
  0
LTYPE
  5
42
330
5
100
AcDbSymbolTableRecord
100
AcDbLinetypeTableRecord
  2
DOUBLE-DASHED_DOTTED
 70
     0
  3
------   -----------   -   -----
 72
    65
 73
     6
 40
16.75
 49
6.0
 74
     0
 49
-1.5
 74
     0
 49
6.0
 74
     0
 49
-1.5
 74
     0
 49
0.25
 74
     0
 49
-1.5
 74
     0
  0
LTYPE
  5
43
330
5
100
AcDbSymbolTableRecord
100
AcDbLinetypeTableRecord
  2
DASHED_DOUBLE-DOTTED
 70
     0
  3
---------    -    -    ---------
 72
    65
 73
     6
 40
11.0
 49
6.0
 74
     0
 49
-1.5
 74
     0
 49
0.25
 74
     0
 49
-1.5
 74
     0
 49
0.25
 74
     0
 49
-1.5
 74
     0
  0
LTYPE
  5
44
330
5
100
AcDbSymbolTableRecord
100
AcDbLinetypeTableRecord
  2
DOUBLE-DASHED_DOUBLE-DOTTED
 70
     0
  3
-----   ---------   -   -   ----
 72
    65
 73
     8
 40
18.5
 49
6.0
 74
     0
 49
-1.5
 74
     0
 49
6.0
 74
     0
 49
-1.5
 74
     0
 49
0.25
 74
     0
 49
-1.5
 74
     0
 49
0.25
 74
     0
 49
-1.5
 74
     0
  0
LTYPE
  5
45
330
5
100
AcDbSymbolTableRecord
100
AcDbLinetypeTableRecord
  2
DASHED_TRIPLICATE-DOTTED
 70
     0
  3
-------    -    -    -    ------
 72
    65
 73
     8
 40
12.75
 49
6.0
 74
     0
 49
-1.5
 74
     0
 49
0.25
 74
     0
 49
-1.5
 74
     0
 49
0.25
 74
     0
 49
-1.5
 74
     0
 49
0.25
 74
     0
 49
-1.5
 74
     0
  0
LTYPE
  5
46
330
5
100
AcDbSymbolTableRecord
100
AcDbLinetypeTableRecord
  2
DOUBLE-DASHED_TRIPLICATE-DOTTED
 70
     0
  3
-----  ---------  -  -  -  -----
 72
    65
 73
    10
 40
20.25
 49
6.0
 74
     0
 49
-1.5
 74
     0
 49
6.0
 74
     0
 49
-1.5
 74
     0
 49
0.25
 74
     0
 49
-1.5
 74
     0
 49
0.25
 74
     0
 49
-1.5
 74
     0
 49
0.25
 74
     0
 49
-1.5
 74
     0
  0
LTYPE
  5
47
330
5
100
AcDbSymbolTableRecord
100
AcDbLinetypeTableRecord
  2
UNDEFINED
 70
     0
  3
--------------------------------
 72
    65
 73
     0
 40
0.0
  0
ENDTAB
  0
TABLE
  2
LAYER
  5
2
330
0
100
AcDbSymbolTable
 70
    10
  0
LAYER
  5
10
330
2
100
AcDbSymbolTableRecord
100
AcDbLayerTableRecord
  2
0
 70
     0
 62
     7
  6
CONTINUOUS
370
    -3
390
F
  0
LAYER
  5
49
330
2
100
AcDbSymbolTableRecord
100
AcDbLayerTableRecord
  2
_0-0_パイプ
 70
     0
 62
     7
  6
CONTINUOUS
370
    -3
390
F
  0
LAYER
  5
4A
330
2
100
AcDbSymbolTableRecord
100
AcDbLayerTableRecord
  2
_0-1_ＧＬ
 70
     0
 62
     7
  6
CONTINUOUS
370
    -3
390
F
  0
LAYER
  5
4B
330
2
100
AcDbSymbolTableRecord
100
AcDbLayerTableRecord
  2
_0-2_メッセン
 70
     0
 62
     7
  6
CONTINUOUS
370
    -3
390
F
  0
LAYER
  5
4C
330
2
100
AcDbSymbolTableRecord
100
AcDbLayerTableRecord
  2
_0-3_寸法
 70
     0
 62
     7
  6
CONTINUOUS
370
    -3
390
F
  0
LAYER
  5
4D
330
2
100
AcDbSymbolTableRecord
100
AcDbLayerTableRecord
  2
_0-4_ハッチ
 70
     0
 62
     7
  6
CONTINUOUS
370
    -3
390
F
  0
LAYER
  5
4E
330
2
100
AcDbSymbolTableRecord
100
AcDbLayerTableRecord
  2
_0-5_枠
 70
     0
 62
     7
  6
CONTINUOUS
370
    -3
390
F
  0
LAYER
  5
4F
330
2
100
AcDbSymbolTableRecord
100
AcDbLayerTableRecord
  2
_0-6_仕上
 70
     0
 62
     7
  6
CONTINUOUS
370
    -3
390
F
  0
LAYER
  5
50
330
2
100
AcDbSymbolTableRecord
100
AcDbLayerTableRecord
  2
_0-B_
 70
     0
 62
     7
  6
CONTINUOUS
370
    -3
390
F
  0
LAYER
  5
51
330
2
100
AcDbSymbolTableRecord
100
AcDbLayerTableRecord
  2
ADD_LINE
 70
     0
 62
     7
  6
CONTINUOUS
370
    -3
390
F
  0
ENDTAB
  0
TABLE
  2
STYLE
  5
3
330
0
100
AcDbSymbolTable
 70
     2
  0
STYLE
  5
11
330
3
100
AcDbSymbolTableRecord
100
AcDbTextStyleTableRecord
  2
STANDARD
 70
     0
 40
0.0
 41
1.0
 50
0.0
 71
     0
 42
0.2
  3
MS Gothic.ttf
  4

1001
ACAD
1000
MS Gothic
1071
    32817
  0
STYLE
  5
48
330
3
100
AcDbSymbolTableRecord
100
AcDbTextStyleTableRecord
  2
TATEGAKI
 70
     4
 40
0.0
 41
1.0
 50
0.0
 71
     0
 42
1.0
  3
txt
  4
bigfont.shx
  0
ENDTAB
  0
TABLE
  2
VIEW
  5
6
330
0
100
AcDbSymbolTable
 70
     0
  0
ENDTAB
  0
TABLE
  2
UCS
  5
7
330
0
100
AcDbSymbolTable
 70
     0
  0
ENDTAB
  0
TABLE
  2
APPID
  5
9
330
0
100
AcDbSymbolTable
 70
     3
  0
APPID
  5
12
330
9
100
AcDbSymbolTableRecord
100
AcDbRegAppTableRecord
  2
ACAD
 70
     0
  0
APPID
  5
959
330
9
100
AcDbSymbolTableRecord
100
AcDbRegAppTableRecord
  2
DCO15
 70
     0
  0
APPID
  5
95B
330
9
100
AcDbSymbolTableRecord
100
AcDbRegAppTableRecord
  2
ADE
 70
     0
  0
ENDTAB
  0
TABLE
  2
DIMSTYLE
  5
A
330
0
100
AcDbSymbolTable
 70
     1
100
AcDbDimStyleTable
 71
     0
  0
DIMSTYLE
105
673
330
A
100
AcDbSymbolTableRecord
100
AcDbDimStyleTableRecord
  2
Standard
 70
     0
340
11
  0
ENDTAB
  0
TABLE
  2
BLOCK_RECORD
  5
1
330
0
100
AcDbSymbolTable
 70
     0
  0
BLOCK_RECORD
  5
22
330
1
100
AcDbSymbolTableRecord
100
AcDbBlockTableRecord
  2
*Model_Space
340
25
  0
BLOCK_RECORD
  5
1E
330
1
100
AcDbSymbolTableRecord
100
AcDbBlockTableRecord
  2
*Paper_Space
340
21
  0
ENDTAB
  0
ENDSEC
  0
SECTION
  2
BLOCKS
  0
BLOCK
  5
23
330
22
100
AcDbEntity
  8
0
100
AcDbBlockBegin
  2
*Model_Space
 70
     0
 10
0.0
 20
0.0
 30
0.0
  3
*Model_Space
  1

  0
ENDBLK
  5
24
330
22
100
AcDbEntity
  8
0
100
AcDbBlockEnd
  0
BLOCK
  5
1F
330
1E
100
AcDbEntity
 67
     1
  8
0
100
AcDbBlockBegin
  2
*Paper_Space
 70
     0
 10
0.0
 20
0.0
 30
0.0
  3
*Paper_Space
  1

  0
ENDBLK
  5
20
330
1E
100
AcDbEntity
 67
     1
  8
0
100
AcDbBlockEnd
  0
ENDSEC
  0
SECTION
  2
ENTITIES
  0
LINE
  5
55
330
22
100
AcDbEntity
  8
_0-5_枠
  6
Continuous
 62
     2
100
AcDbLine
 10
37252.91537008118
 20
26690.38124736696
 30
0.0
 11
37252.91537008118
 21
27690.38454656459
 31
0.0
  0
LINE
  5
56
330
22
100
AcDbEntity
  8
_0-5_枠
  6
Continuous
 62
     2
100
AcDbLine
 10
37252.91537008118
 20
26690.38124736696
 30
0.0
 11
39752.91619488059
 21
26690.38124736696
 31
0.0
  0
LINE
  5
57
330
22
100
AcDbEntity
  8
_0-5_枠
  6
Continuous
 62
     2
100
AcDbLine
 10
2752.915060781397
 20
27690.38454656459
 30
0.0
 11
39752.91619488059
 21
27690.38454656459
 31
0.0
  0
LINE
  5
58
330
22
100
AcDbEntity
  8
_0-5_枠
  6
Continuous
 62
     2
100
AcDbLine
 10
2752.915060781397
 20
2690.382484566065
 30
0.0
 11
2752.915060781397
 21
27690.38454656459
 31
0.0
  0
LINE
  5
59
330
22
100
AcDbEntity
  8
_0-5_枠
  6
Continuous
 62
     2
100
AcDbLine
 10
39752.91619488059
 20
2690.382484566065
 30
0.0
 11
2752.915060781397
 21
2690.382484566065
 31
0.0
  0
LINE
  5
5A
330
22
100
AcDbEntity
  8
_0-5_枠
  6
Continuous
 62
     2
100
AcDbLine
 10
39752.91619488059
 20
27690.38454656459
 30
0.0
 11
39752.91619488059
 21
2690.382484566065
 31
0.0
  0
TEXT
  5
5B
330
22
100
AcDbEntity
  8
_0-5_枠
 62
     7
100
AcDbText
 10
38058.14657785145
 20
27011.18450301519
 30
0.0
 40
400.0
  1
５Ｍ
100
AcDbText
  0
TEXT
  5
5C
330
22
100
AcDbEntity
  8
_0-B_
 62
     7
100
AcDbText
 10
5490.042940080454
 20
6873.219204819477
 30
0.0
 40
400.0
  1
設計条件
100
AcDbText
  0
LINE
  5
5D
330
22
100
AcDbEntity
  8
_0-1_ＧＬ
  6
Continuous
 62
     3
100
AcDbLine
 10
6252.914545281766
 20
15015.0793616413
 30
0.0
 11
32861.43010429781
 21
15015.0793616413
 31
0.0
  0
LINE
  5
5E
330
22
100
AcDbEntity
  8
_0-0_パイプ
  6
Continuous
 62
     7
100
AcDbLine
 10
9027.915040161412
 20
14590.07919668142
 30
0.0
 11
9027.915040161412
 21
14640.0793616413
 31
0.0
  0
LINE
  5
5F
330
22
100
AcDbEntity
  8
_0-0_パイプ
  6
Continuous
 62
     7
100
AcDbLine
 10
9027.915040161412
 20
14640.0793616413
 30
0.0
 11
9477.914050402119
 21
14640.0793616413
 31
0.0
  0
LINE
  5
60
330
22
100
AcDbEntity
  8
_0-0_パイプ
  6
Continuous
 62
     7
100
AcDbLine
 10
9477.914050402119
 20
14640.0793616413
 30
0.0
 11
9477.914050402119
 21
14590.07919668142
 31
0.0
  0
LINE
  5
61
330
22
100
AcDbEntity
  8
_0-0_パイプ
  6
Continuous
 62
     7
100
AcDbLine
 10
9477.914050402119
 20
14590.07919668142
 30
0.0
 11
9027.915040161412
 21
14590.07919668142
 31
0.0
  0
LINE
  5
62
330
22
100
AcDbEntity
  8
_0-0_パイプ
  6
Continuous
 62
     7
100
AcDbLine
 10
8621.876188810061
 20
14515.0789492416
 30
0.0
 11
8621.876188810061
 21
14715.07960908112
 31
0.0
  0
LINE
  5
63
330
22
100
AcDbEntity
  8
_0-0_パイプ
  6
Continuous
 62
     7
100
AcDbLine
 10
9883.952901753472
 20
14715.07960908112
 30
0.0
 11
9883.952901753472
 21
14515.0789492416
 31
0.0
  0
LINE
  5
64
330
22
100
AcDbEntity
  8
_0-0_パイプ
  6
Continuous
 62
     7
100
AcDbLine
 10
9215.415040161412
 20
15085.07885026567
 30
0.0
 11
9215.415040161412
 21
15235.07934514531
 31
0.0
  0
LINE
  5
65
330
22
100
AcDbEntity
  8
_0-0_パイプ
  6
Continuous
 62
     7
100
AcDbLine
 10
9215.415040161412
 20
15235.07934514531
 30
0.0
 11
9290.414050402119
 21
15235.07934514531
 31
0.0
  0
LINE
  5
66
330
22
100
AcDbEntity
  8
_0-0_パイプ
  6
Continuous
 62
     7
100
AcDbLine
 10
9290.414050402119
 20
15235.07934514531
 30
0.0
 11
9290.414050402119
 21
15085.07885026567
 31
0.0
  0
LINE
  5
67
330
22
100
AcDbEntity
  8
_0-0_パイプ
  6
Continuous
 62
     7
100
AcDbLine
 10
9290.414050402119
 20
15085.07885026567
 30
0.0
 11
9215.415040161412
 21
15085.07885026567
 31
0.0
  0
LINE
  5
68
330
22
100
AcDbEntity
  8
_0-0_パイプ
  6
Continuous
 62
     7
100
AcDbLine
 10
9290.414050402119
 20
15115.07845436195
 30
0.0
 11
9267.914347329908
 21
15115.07845436195
 31
0.0
  0
LINE
  5
69
330
22
100
AcDbEntity
  8
_0-0_パイプ
  6
Continuous
 62
     7
100
AcDbLine
 10
9237.914743233625
 20
15115.07845436195
 30
0.0
 11
9215.415040161412
 21
15115.07845436195
 31
0.0
  0
LINE
  5
6A
330
22
100
AcDbEntity
  8
_0-0_パイプ
  6
Continuous
 62
     7
100
AcDbLine
 10
9002.916194880583
 20
15160.07909770549
 30
0.0
 11
9002.916194880583
 21
15260.07942762525
 31
0.0
  0
LINE
  5
6B
330
22
100
AcDbEntity
  8
_0-0_パイプ
  6
Continuous
 62
     7
100
AcDbLine
 10
9502.915370081174
 20
15160.07909770549
 30
0.0
 11
9002.916194880583
 21
15160.07909770549
 31
0.0
  0
LINE
  5
6C
330
22
100
AcDbEntity
  8
_0-0_パイプ
  6
Continuous
 62
     7
100
AcDbLine
 10
9002.916194880583
 20
15260.07942762525
 30
0.0
 11
9502.915370081174
 21
15260.07942762525
 31
0.0
  0
LINE
  5
6D
330
22
100
AcDbEntity
  8
_0-0_パイプ
  6
Continuous
 62
     7
100
AcDbLine
 10
9502.915370081174
 20
15260.07942762525
 30
0.0
 11
9502.915370081174
 21
15160.07909770549
 31
0.0
  0
LINE
  5
6E
330
22
100
AcDbEntity
  8
_0-0_パイプ
  6
Continuous
 62
     7
100
AcDbLine
 10
9252.914545281766
 20
20015.07977404101
 30
0.0
 11
9347.914116386071
 21
20015.07977404101
 31
0.0
  0
LINE
  5
6F
330
22
100
AcDbEntity
  8
_0-0_パイプ
  6
Continuous
 62
     7
100
AcDbLine
 10
9252.914545281766
 20
20015.07977404101
 30
0.0
 11
9157.914974177458
 21
20015.07977404101
 31
0.0
  0
LINE
  5
70
330
22
100
AcDbEntity
  8
_0-0_パイプ
  6
Continuous
 62
     7
100
AcDbLine
 10
9252.914545281766
 20
13015.07771204248
 30
0.0
 11
9394.415482253895
 21
13015.07771204248
 31
0.0
  0
LINE
  5
71
330
22
100
AcDbEntity
  8
_0-0_パイプ
  6
Continuous
 62
     7
100
AcDbLine
 10
9252.914545281766
 20
13015.0789492416
 30
0.0
 11
9111.416082707863
 21
13015.0789492416
 31
0.0
  0
LINE
  5
72
330
22
100
AcDbEntity
  8
_0-0_パイプ
  6
Continuous
 62
     7
100
AcDbLine
 10
9157.914974177458
 20
20015.07977404101
 30
0.0
 11
9111.416082707863
 21
13015.0789492416
 31
0.0
  0
LINE
  5
73
330
22
100
AcDbEntity
  8
_0-0_パイプ
  6
Continuous
 62
     7
100
AcDbLine
 10
9394.415482253895
 20
13015.07771204248
 30
0.0
 11
9347.914116386071
 21
20015.07977404101
 31
0.0
  0
LINE
  5
74
330
22
100
AcDbEntity
  8
ADD_LINE
  6
DOT
 62
     7
100
AcDbLine
 10
9252.914545281766
 20
14764.73706988666
 30
0.0
 11
9252.914545281766
 21
14469.0118402625
 31
0.0
  0
LINE
  5
75
330
22
100
AcDbEntity
  8
_0-0_パイプ
  6
Continuous
 62
     7
100
AcDbLine
 10
9121.38048436538
 20
14515.0789492416
 30
0.0
 11
8621.876188810061
 21
14515.0789492416
 31
0.0
  0
LINE
  5
76
330
22
100
AcDbEntity
  8
_0-0_パイプ
  6
Continuous
 62
     7
100
AcDbLine
 10
8621.876188810061
 20
14715.07960908112
 30
0.0
 11
9122.709236212932
 21
14715.07960908112
 31
0.0
  0
LINE
  5
77
330
22
100
AcDbEntity
  8
_0-0_パイプ
  6
Continuous
 62
     7
100
AcDbLine
 10
9383.122328748827
 20
14715.07960908112
 30
0.0
 11
9883.952901753472
 21
14715.07960908112
 31
0.0
  0
LINE
  5
78
330
22
100
AcDbEntity
  8
_0-0_パイプ
  6
Continuous
 62
     7
100
AcDbLine
 10
9883.952901753472
 20
14515.0789492416
 30
0.0
 11
9384.451080596377
 21
14515.0789492416
 31
0.0
  0
LINE
  5
79
330
22
100
AcDbEntity
  8
_0-0_パイプ
  6
Continuous
 62
     7
100
AcDbLine
 10
18027.91256576318
 20
14590.08167107965
 30
0.0
 11
18027.91256576318
 21
14640.08183603953
 31
0.0
  0
LINE
  5
7A
330
22
100
AcDbEntity
  8
_0-0_パイプ
  6
Continuous
 62
     7
100
AcDbLine
 10
18027.91256576318
 20
14640.08183603953
 30
0.0
 11
18477.91405040212
 21
14640.08183603953
 31
0.0
  0
LINE
  5
7B
330
22
100
AcDbEntity
  8
_0-0_パイプ
  6
Continuous
 62
     7
100
AcDbLine
 10
18477.91405040212
 20
14640.08183603953
 30
0.0
 11
18477.91405040212
 21
14590.08167107965
 31
0.0
  0
LINE
  5
7C
330
22
100
AcDbEntity
  8
_0-0_パイプ
  6
Continuous
 62
     7
100
AcDbLine
 10
18477.91405040212
 20
14590.08167107965
 30
0.0
 11
18027.91256576318
 21
14590.08167107965
 31
0.0
  0
LINE
  5
7D
330
22
100
AcDbEntity
  8
_0-0_パイプ
  6
Continuous
 62
     7
100
AcDbLine
 10
18102.91405040212
 20
19765.08637243628
 30
0.0
 11
18102.91405040212
 21
19815.08406299793
 31
0.0
  0
LINE
  5
7E
330
22
100
AcDbEntity
  8
_0-0_パイプ
  6
Continuous
 62
     7
100
AcDbLine
 10
18102.91405040212
 20
19815.08406299793
 30
0.0
 11
18402.91504016141
 21
19815.08406299793
 31
0.0
  0
LINE
  5
7F
330
22
100
AcDbEntity
  8
_0-0_パイプ
  6
Continuous
 62
     7
100
AcDbLine
 10
17621.87618881006
 20
14515.08142363983
 30
0.0
 11
17621.87618881006
 21
14715.08208347935
 31
0.0
  0
LINE
  5
80
330
22
100
AcDbEntity
  8
_0-0_パイプ
  6
Continuous
 62
     7
100
AcDbLine
 10
18883.95042735524
 20
14715.08208347935
 30
0.0
 11
18883.95042735524
 21
14515.08142363983
 31
0.0
  0
LINE
  5
81
330
22
100
AcDbEntity
  8
_0-0_パイプ
  6
Continuous
 62
     7
100
AcDbLine
 10
18102.91405040212
 20
19765.08637243628
 30
0.0
 11
18402.91504016141
 21
19765.08637243628
 31
0.0
  0
LINE
  5
82
330
22
100
AcDbEntity
  8
_0-0_パイプ
  6
Continuous
 62
     7
100
AcDbLine
 10
18402.91504016141
 20
19815.08406299793
 30
0.0
 11
18402.91504016141
 21
19765.08637243628
 31
0.0
  0
LINE
  5
83
330
22
100
AcDbEntity
  8
_0-0_パイプ
  6
Continuous
 62
     7
100
AcDbLine
 10
18102.91405040212
 20
19715.08868187462
 30
0.0
 11
18102.91405040212
 21
19765.08637243628
 31
0.0
  0
LINE
  5
84
330
22
100
AcDbEntity
  8
_0-0_パイプ
  6
Continuous
 62
     7
100
AcDbLine
 10
18227.89837921336
 20
19755.08485480536
 30
0.0
 11
18277.89854417324
 21
19755.08485480536
 31
0.0
  0
LINE
  5
85
330
22
100
AcDbEntity
  8
_0-0_パイプ
  6
Continuous
 62
     7
100
AcDbLine
 10
18277.89854417324
 20
19655.0845248856
 30
0.0
 11
18227.89837921336
 21
19655.0845248856
 31
0.0
  0
LINE
  5
86
330
22
100
AcDbEntity
  8
_0-0_パイプ
  6
Continuous
 62
     7
100
AcDbLine
 10
18102.91405040212
 20
19715.08868187462
 30
0.0
 11
18227.89837921336
 21
19715.08868187462
 31
0.0
  0
LINE
  5
87
330
22
100
AcDbEntity
  8
_0-0_パイプ
  6
Continuous
 62
     7
100
AcDbLine
 10
18277.89854417324
 20
19715.08868187462
 30
0.0
 11
18402.91504016141
 21
19715.08868187462
 31
0.0
  0
LINE
  5
88
330
22
100
AcDbEntity
  8
_0-0_パイプ
  6
Continuous
 62
     7
100
AcDbLine
 10
18102.91405040212
 20
19815.08406299793
 30
0.0
 11
18053.67352569773
 21
19823.76425197598
 31
0.0
  0
LINE
  5
89
330
22
100
AcDbEntity
  8
_0-0_パイプ
  6
Continuous
 62
     7
100
AcDbLine
 10
18052.91388544224
 20
19740.08505275722
 30
0.0
 11
18052.91388544224
 21
19840.08538267699
 31
0.0
  0
LINE
  5
8A
330
22
100
AcDbEntity
  8
_0-0_パイプ
  6
Continuous
 62
     7
100
AcDbLine
 10
18102.91405040212
 20
19765.08637243628
 30
0.0
 11
18053.67352569773
 21
19756.40123466178
 31
0.0
  0
LINE
  5
8B
330
22
100
AcDbEntity
  8
_0-0_パイプ
  6
Continuous
 62
     7
100
AcDbLine
 10
18052.91388544224
 20
19840.08538267699
 30
0.0
 11
17852.91322560271
 21
19840.08538267699
 31
0.0
  0
LINE
  5
8C
330
22
100
AcDbEntity
  8
_0-0_パイプ
  6
Continuous
 62
     7
100
AcDbLine
 10
17852.91322560271
 20
19740.08505275722
 30
0.0
 11
17852.91322560271
 21
19840.08538267699
 31
0.0
  0
LINE
  5
8D
330
22
100
AcDbEntity
  8
_0-0_パイプ
  6
Continuous
 62
     7
100
AcDbLine
 10
17852.91322560271
 20
19740.08505275722
 30
0.0
 11
18052.91388544224
 21
19740.08505275722
 31
0.0
  0
LINE
  5
8E
330
22
100
AcDbEntity
  8
_0-0_パイプ
  6
Continuous
 62
     7
100
AcDbLine
 10
18227.89837921336
 20
19685.08412898188
 30
0.0
 11
18242.92045084553
 21
19685.08412898188
 31
0.0
  0
LINE
  5
8F
330
22
100
AcDbEntity
  8
_0-0_パイプ
  6
Continuous
 62
     7
100
AcDbLine
 10
18262.908639718
 20
19685.08412898188
 30
0.0
 11
18277.93071135018
 21
19685.08412898188
 31
0.0
  0
LINE
  5
90
330
22
100
AcDbEntity
  8
ADD_LINE
  6
DOT
 62
     7
100
AcDbLine
 10
18252.91454528176
 20
19595.83753375384
 30
0.0
 11
18252.91454528176
 21
19838.6502317057
 31
0.0
  0
LINE
  5
91
330
22
100
AcDbEntity
  8
_0-0_パイプ
  6
Continuous
 62
     7
100
AcDbLine
 10
18227.89837921336
 20
19655.0845248856
 30
0.0
 11
18227.89837921336
 21
19755.08485480536
 31
0.0
  0
LINE
  5
92
330
22
100
AcDbEntity
  8
_0-0_パイプ
  6
Continuous
 62
     7
100
AcDbLine
 10
18277.89854417324
 20
19755.08485480536
 30
0.0
 11
18277.89854417324
 21
19655.0845248856
 31
0.0
  0
LINE
  5
93
330
22
100
AcDbEntity
  8
_0-0_パイプ
  6
Continuous
 62
     7
100
AcDbLine
 10
18402.91504016141
 20
19765.08637243628
 30
0.0
 11
18402.91504016141
 21
19715.08868187462
 31
0.0
  0
LINE
  5
94
330
22
100
AcDbEntity
  8
_0-0_パイプ
  6
Continuous
 62
     7
100
AcDbLine
 10
18252.91454528176
 20
20015.08101124013
 30
0.0
 11
18347.91411638607
 21
20015.08101124013
 31
0.0
  0
LINE
  5
95
330
22
100
AcDbEntity
  8
_0-0_パイプ
  6
Continuous
 62
     7
100
AcDbLine
 10
18252.91454528176
 20
20015.08101124013
 30
0.0
 11
18157.91497417746
 21
20015.08101124013
 31
0.0
  0
LINE
  5
96
330
22
100
AcDbEntity
  8
_0-0_パイプ
  6
Continuous
 62
     7
100
AcDbLine
 10
18252.91454528176
 20
13015.08018644071
 30
0.0
 11
18394.41548225389
 21
13015.08018644071
 31
0.0
  0
LINE
  5
97
330
22
100
AcDbEntity
  8
_0-0_パイプ
  6
Continuous
 62
     7
100
AcDbLine
 10
18252.91454528176
 20
13015.08142363982
 30
0.0
 11
18111.41608270787
 21
13015.08142363982
 31
0.0
  0
LINE
  5
98
330
22
100
AcDbEntity
  8
_0-0_パイプ
  6
Continuous
 62
     7
100
AcDbLine
 10
18157.91497417746
 20
20015.08101124013
 30
0.0
 11
18111.41608270787
 21
13015.08142363982
 31
0.0
  0
LINE
  5
99
330
22
100
AcDbEntity
  8
_0-0_パイプ
  6
Continuous
 62
     7
100
AcDbLine
 10
18394.41548225389
 20
13015.08018644071
 30
0.0
 11
18347.91411638607
 21
20015.08101124013
 31
0.0
  0
LINE
  5
9A
330
22
100
AcDbEntity
  8
_0-0_パイプ
  6
Continuous
 62
     7
100
AcDbLine
 10
18121.38048436538
 20
14515.08142363983
 30
0.0
 11
17621.87618881006
 21
14515.08142363983
 31
0.0
  0
LINE
  5
9B
330
22
100
AcDbEntity
  8
_0-0_パイプ
  6
Continuous
 62
     7
100
AcDbLine
 10
17621.87618881006
 20
14715.08208347935
 30
0.0
 11
18122.7067618147
 21
14715.08208347935
 31
0.0
  0
LINE
  5
9C
330
22
100
AcDbEntity
  8
_0-0_パイプ
  6
Continuous
 62
     7
100
AcDbLine
 10
18383.12232874883
 20
14715.08208347935
 30
0.0
 11
18883.95042735524
 21
14715.08208347935
 31
0.0
  0
LINE
  5
9D
330
22
100
AcDbEntity
  8
_0-0_パイプ
  6
Continuous
 62
     7
100
AcDbLine
 10
18883.95042735524
 20
14515.08142363983
 30
0.0
 11
18384.45108059637
 21
14515.08142363983
 31
0.0
  0
LINE
  5
9E
330
22
100
AcDbEntity
  8
_0-0_パイプ
  6
Continuous
 62
     7
100
AcDbLine
 10
36027.91504016142
 20
14590.08043388054
 30
0.0
 11
36027.91504016142
 21
14640.08059884041
 31
0.0
  0
LINE
  5
9F
330
22
100
AcDbEntity
  8
_0-0_パイプ
  6
Continuous
 62
     7
100
AcDbLine
 10
36102.91899919858
 20
19765.08389803805
 30
0.0
 11
36402.91751455964
 21
19765.08389803805
 31
0.0
  0
LINE
  5
A0
330
22
100
AcDbEntity
  8
_0-0_パイプ
  6
Continuous
 62
     7
100
AcDbLine
 10
36102.91899919858
 20
19715.08620747639
 30
0.0
 11
36102.91899919858
 21
19765.08389803805
 31
0.0
  0
LINE
  5
A1
330
22
100
AcDbEntity
  8
_0-0_パイプ
  6
Continuous
 62
     7
100
AcDbLine
 10
36277.90101857146
 20
19715.08620747639
 30
0.0
 11
36402.91751455964
 21
19715.08620747639
 31
0.0
  0
LINE
  5
A2
330
22
100
AcDbEntity
  8
_0-0_パイプ
  6
Continuous
 62
     7
100
AcDbLine
 10
36402.91751455964
 20
19765.08389803805
 30
0.0
 11
36402.91751455964
 21
19715.08620747639
 31
0.0
  0
LINE
  5
A3
330
22
100
AcDbEntity
  8
_0-0_パイプ
  6
Continuous
 62
     7
100
AcDbLine
 10
36252.91701967998
 20
20015.07977404101
 30
0.0
 11
36347.91906518253
 21
20015.07977404101
 31
0.0
  0
LINE
  5
A4
330
22
100
AcDbEntity
  8
_0-0_パイプ
  6
Continuous
 62
     7
100
AcDbLine
 10
36252.91701967998
 20
20015.07977404101
 30
0.0
 11
36157.91744857569
 21
20015.07977404101
 31
0.0
  0
LINE
  5
A5
330
22
100
AcDbEntity
  8
_0-0_パイプ
  6
Continuous
 62
     7
100
AcDbLine
 10
36252.91701967998
 20
13015.0789492416
 30
0.0
 11
36394.41795665213
 21
13015.0789492416
 31
0.0
  0
LINE
  5
A6
330
22
100
AcDbEntity
  8
_0-0_パイプ
  6
Continuous
 62
     7
100
AcDbLine
 10
36252.91701967998
 20
13015.08018644071
 30
0.0
 11
36111.4185571061
 21
13015.08018644071
 31
0.0
  0
LINE
  5
A7
330
22
100
AcDbEntity
  8
_0-0_パイプ
  6
Continuous
 62
     7
100
AcDbLine
 10
36157.91744857569
 20
20015.07977404101
 30
0.0
 11
36111.4185571061
 21
13015.08018644071
 31
0.0
  0
LINE
  5
A8
330
22
100
AcDbEntity
  8
_0-0_パイプ
  6
Continuous
 62
     7
100
AcDbLine
 10
36394.41795665213
 20
13015.0789492416
 30
0.0
 11
36347.91906518253
 21
20015.07977404101
 31
0.0
  0
LINE
  5
A9
330
22
100
AcDbEntity
  8
ADD_LINE
  6
DOT
 62
     7
100
AcDbLine
 10
36252.91701967998
 20
14764.73830708577
 30
0.0
 11
36252.91701967998
 21
14469.01307746161
 31
0.0
  0
LINE
  5
AA
330
22
100
AcDbEntity
  8
_0-0_パイプ
  6
Continuous
 62
     7
100
AcDbLine
 10
27027.91256576319
 20
14590.08043388054
 30
0.0
 11
27027.91256576319
 21
14640.08059884041
 31
0.0
  0
LINE
  5
AB
330
22
100
AcDbEntity
  8
_0-0_パイプ
  6
Continuous
 62
     7
100
AcDbLine
 10
27027.91256576319
 20
14640.08059884041
 30
0.0
 11
27477.91405040213
 21
14640.08059884041
 31
0.0
  0
LINE
  5
AC
330
22
100
AcDbEntity
  8
_0-0_パイプ
  6
Continuous
 62
     7
100
AcDbLine
 10
27477.91405040213
 20
14640.08059884041
 30
0.0
 11
27477.91405040213
 21
14590.08043388054
 31
0.0
  0
LINE
  5
AD
330
22
100
AcDbEntity
  8
_0-0_パイプ
  6
Continuous
 62
     7
100
AcDbLine
 10
27477.91405040213
 20
14590.08043388054
 30
0.0
 11
27027.91256576319
 21
14590.08043388054
 31
0.0
  0
LINE
  5
AE
330
22
100
AcDbEntity
  8
_0-0_パイプ
  6
Continuous
 62
     7
100
AcDbLine
 10
26621.87618881006
 20
14515.08018644071
 30
0.0
 11
26621.87618881006
 21
14715.08084628023
 31
0.0
  0
LINE
  5
AF
330
22
100
AcDbEntity
  8
_0-0_パイプ
  6
Continuous
 62
     7
100
AcDbLine
 10
27883.95042735525
 20
14715.08084628023
 30
0.0
 11
27883.95042735525
 21
14515.08018644071
 31
0.0
  0
LINE
  5
B0
330
22
100
AcDbEntity
  8
_0-0_パイプ
  6
Continuous
 62
     7
100
AcDbLine
 10
27102.91405040213
 20
19765.08389803805
 30
0.0
 11
27402.91504016142
 21
19765.08389803805
 31
0.0
  0
LINE
  5
B1
330
22
100
AcDbEntity
  8
_0-0_パイプ
  6
Continuous
 62
     7
100
AcDbLine
 10
27102.91405040213
 20
19715.08620747639
 30
0.0
 11
27102.91405040213
 21
19765.08389803805
 31
0.0
  0
LINE
  5
B2
330
22
100
AcDbEntity
  8
_0-0_パイプ
  6
Continuous
 62
     7
100
AcDbLine
 10
27227.89837921335
 20
19755.08485480536
 30
0.0
 11
27277.89854417324
 21
19755.08485480536
 31
0.0
  0
LINE
  5
B3
330
22
100
AcDbEntity
  8
_0-0_パイプ
  6
Continuous
 62
     7
100
AcDbLine
 10
27277.89854417324
 20
19655.0845248856
 30
0.0
 11
27227.89837921335
 21
19655.0845248856
 31
0.0
  0
LINE
  5
B4
330
22
100
AcDbEntity
  8
_0-0_パイプ
  6
Continuous
 62
     7
100
AcDbLine
 10
27102.91405040213
 20
19715.08620747639
 30
0.0
 11
27227.89837921335
 21
19715.08620747639
 31
0.0
  0
LINE
  5
B5
330
22
100
AcDbEntity
  8
_0-0_パイプ
  6
Continuous
 62
     7
100
AcDbLine
 10
27277.89854417324
 20
19715.08620747639
 30
0.0
 11
27402.91504016142
 21
19715.08620747639
 31
0.0
  0
LINE
  5
B6
330
22
100
AcDbEntity
  8
_0-0_パイプ
  6
Continuous
 62
     7
100
AcDbLine
 10
27227.89837921335
 20
19685.08412898188
 30
0.0
 11
27242.92045084554
 21
19685.08412898188
 31
0.0
  0
LINE
  5
B7
330
22
100
AcDbEntity
  8
_0-0_パイプ
  6
Continuous
 62
     7
100
AcDbLine
 10
27262.90863971799
 20
19685.08412898188
 30
0.0
 11
27277.93071135018
 21
19685.08412898188
 31
0.0
  0
LINE
  5
B8
330
22
100
AcDbEntity
  8
ADD_LINE
  6
DOT
 62
     7
100
AcDbLine
 10
27242.92045084554
 20
19685.08412898188
 30
0.0
 11
27262.90863971799
 21
19685.08412898188
 31
0.0
  0
LINE
  5
B9
330
22
100
AcDbEntity
  8
ADD_LINE
  6
DOT
 62
     7
100
AcDbLine
 10
27252.91454528177
 20
19595.83505935562
 30
0.0
 11
27252.91454528177
 21
19838.6502317057
 31
0.0
  0
LINE
  5
BA
330
22
100
AcDbEntity
  8
_0-0_パイプ
  6
Continuous
 62
     7
100
AcDbLine
 10
27227.89837921335
 20
19655.0845248856
 30
0.0
 11
27227.89837921335
 21
19755.08485480536
 31
0.0
  0
LINE
  5
BB
330
22
100
AcDbEntity
  8
_0-0_パイプ
  6
Continuous
 62
     7
100
AcDbLine
 10
27277.89854417324
 20
19755.08485480536
 30
0.0
 11
27277.89854417324
 21
19655.0845248856
 31
0.0
  0
LINE
  5
BC
330
22
100
AcDbEntity
  8
_0-0_パイプ
  6
Continuous
 62
     7
100
AcDbLine
 10
27402.91504016142
 20
19765.08389803805
 30
0.0
 11
27402.91504016142
 21
19715.08620747639
 31
0.0
  0
LINE
  5
BD
330
22
100
AcDbEntity
  8
_0-0_パイプ
  6
Continuous
 62
     7
100
AcDbLine
 10
27252.91454528177
 20
20015.07977404101
 30
0.0
 11
27347.91411638608
 21
20015.07977404101
 31
0.0
  0
LINE
  5
BE
330
22
100
AcDbEntity
  8
_0-0_パイプ
  6
Continuous
 62
     7
100
AcDbLine
 10
27252.91454528177
 20
20015.07977404101
 30
0.0
 11
27157.91497417746
 21
20015.07977404101
 31
0.0
  0
LINE
  5
BF
330
22
100
AcDbEntity
  8
_0-0_パイプ
  6
Continuous
 62
     7
100
AcDbLine
 10
27252.91454528177
 20
13015.0789492416
 30
0.0
 11
27394.41300785566
 21
13015.0789492416
 31
0.0
  0
LINE
  5
C0
330
22
100
AcDbEntity
  8
_0-0_パイプ
  6
Continuous
 62
     7
100
AcDbLine
 10
27252.91454528177
 20
13015.08018644071
 30
0.0
 11
27111.41608270787
 21
13015.08018644071
 31
0.0
  0
LINE
  5
C1
330
22
100
AcDbEntity
  8
_0-0_パイプ
  6
Continuous
 62
     7
100
AcDbLine
 10
27157.91497417746
 20
20015.07977404101
 30
0.0
 11
27111.41608270787
 21
13015.08018644071
 31
0.0
  0
LINE
  5
C2
330
22
100
AcDbEntity
  8
_0-0_パイプ
  6
Continuous
 62
     7
100
AcDbLine
 10
27394.41300785566
 20
13015.0789492416
 30
0.0
 11
27347.91411638608
 21
20015.07977404101
 31
0.0
  0
LINE
  5
C3
330
22
100
AcDbEntity
  8
ADD_LINE
  6
DOT
 62
     7
100
AcDbLine
 10
27252.91454528177
 20
14764.73830708577
 30
0.0
 11
27252.91454528177
 21
14469.01307746161
 31
0.0
  0
LINE
  5
C4
330
22
100
AcDbEntity
  8
_0-0_パイプ
  6
Continuous
 62
     7
100
AcDbLine
 10
27121.37800996716
 20
14515.08018644071
 30
0.0
 11
26621.87618881006
 21
14515.08018644071
 31
0.0
  0
LINE
  5
C5
330
22
100
AcDbEntity
  8
_0-0_パイプ
  6
Continuous
 62
     7
100
AcDbLine
 10
26621.87618881006
 20
14715.08084628023
 30
0.0
 11
27122.70676181471
 21
14715.08084628023
 31
0.0
  0
LINE
  5
C6
330
22
100
AcDbEntity
  8
_0-0_パイプ
  6
Continuous
 62
     7
100
AcDbLine
 10
27383.12232874883
 20
14715.08084628023
 30
0.0
 11
27883.95042735525
 21
14715.08084628023
 31
0.0
  0
LINE
  5
C7
330
22
100
AcDbEntity
  8
_0-0_パイプ
  6
Continuous
 62
     7
100
AcDbLine
 10
27883.95042735525
 20
14515.08018644071
 30
0.0
 11
27384.45108059638
 21
14515.08018644071
 31
0.0
  0
LINE
  5
C8
330
22
100
AcDbEntity
  8
ADD_LINE
  6
DOT
 62
     7
100
AcDbLine
 10
18252.91454528176
 20
15483.46438790291
 30
0.0
 11
18252.91454528176
 21
14469.01431466073
 31
0.0
  0
LINE
  5
C9
330
22
100
AcDbEntity
  8
_0-0_パイプ
  6
Continuous
 62
     7
100
AcDbLine
 10
9652.915864960821
 20
19835.0821494633
 30
0.0
 11
17852.91322560271
 21
19835.0821494633
 31
0.0
  0
LINE
  5
CA
330
22
100
AcDbEntity
  8
_0-0_パイプ
  6
Continuous
 62
     7
100
AcDbLine
 10
9652.915864960821
 20
19745.08333717445
 30
0.0
 11
17852.91322560271
 21
19745.08333717445
 31
0.0
  0
LINE
  5
CB
330
22
100
AcDbEntity
  8
_0-0_パイプ
  6
Continuous
 62
     7
100
AcDbLine
 10
18215.41504016141
 20
15085.07885026567
 30
0.0
 11
18215.41504016141
 21
15235.07934514531
 31
0.0
  0
LINE
  5
CC
330
22
100
AcDbEntity
  8
_0-0_パイプ
  6
Continuous
 62
     7
100
AcDbLine
 10
18215.41504016141
 20
15235.07934514531
 30
0.0
 11
18290.41652480034
 21
15235.07934514531
 31
0.0
  0
LINE
  5
CD
330
22
100
AcDbEntity
  8
_0-0_パイプ
  6
Continuous
 62
     7
100
AcDbLine
 10
18290.41652480034
 20
15235.07934514531
 30
0.0
 11
18290.41652480034
 21
15085.07885026567
 31
0.0
  0
LINE
  5
CE
330
22
100
AcDbEntity
  8
_0-0_パイプ
  6
Continuous
 62
     7
100
AcDbLine
 10
18290.41652480034
 20
15085.07885026567
 30
0.0
 11
18215.41504016141
 21
15085.07885026567
 31
0.0
  0
LINE
  5
CF
330
22
100
AcDbEntity
  8
_0-0_パイプ
  6
Continuous
 62
     7
100
AcDbLine
 10
18290.41652480034
 20
15115.07845436195
 30
0.0
 11
18267.91434732991
 21
15115.07845436195
 31
0.0
  0
LINE
  5
D0
330
22
100
AcDbEntity
  8
_0-0_パイプ
  6
Continuous
 62
     7
100
AcDbLine
 10
18237.91474323362
 20
15115.07845436195
 30
0.0
 11
18215.41504016141
 21
15115.07845436195
 31
0.0
  0
LINE
  5
D1
330
22
100
AcDbEntity
  8
_0-0_パイプ
  6
Continuous
 62
     7
100
AcDbLine
 10
18002.91619488058
 20
15160.07909770549
 30
0.0
 11
18002.91619488058
 21
15260.07942762525
 31
0.0
  0
LINE
  5
D2
330
22
100
AcDbEntity
  8
_0-0_パイプ
  6
Continuous
 62
     7
100
AcDbLine
 10
18502.91537008117
 20
15160.07909770549
 30
0.0
 11
18002.91619488058
 21
15160.07909770549
 31
0.0
  0
LINE
  5
D3
330
22
100
AcDbEntity
  8
_0-0_パイプ
  6
Continuous
 62
     7
100
AcDbLine
 10
18002.91619488058
 20
15260.07942762525
 30
0.0
 11
18502.91537008117
 21
15260.07942762525
 31
0.0
  0
LINE
  5
D4
330
22
100
AcDbEntity
  8
_0-0_パイプ
  6
Continuous
 62
     7
100
AcDbLine
 10
18502.91537008117
 20
15260.07942762525
 30
0.0
 11
18502.91537008117
 21
15160.07909770549
 31
0.0
  0
LINE
  5
D5
330
22
100
AcDbEntity
  8
_0-0_パイプ
  6
Continuous
 62
     7
100
AcDbLine
 10
27215.41504016142
 20
15085.07885026567
 30
0.0
 11
27215.41504016142
 21
15235.07934514531
 31
0.0
  0
LINE
  5
D6
330
22
100
AcDbEntity
  8
_0-0_パイプ
  6
Continuous
 62
     7
100
AcDbLine
 10
27215.41504016142
 20
15235.07934514531
 30
0.0
 11
27290.41652480034
 21
15235.07934514531
 31
0.0
  0
LINE
  5
D7
330
22
100
AcDbEntity
  8
_0-0_パイプ
  6
Continuous
 62
     7
100
AcDbLine
 10
27290.41652480034
 20
15235.07934514531
 30
0.0
 11
27290.41652480034
 21
15085.07885026567
 31
0.0
  0
LINE
  5
D8
330
22
100
AcDbEntity
  8
_0-0_パイプ
  6
Continuous
 62
     7
100
AcDbLine
 10
27290.41652480034
 20
15085.07885026567
 30
0.0
 11
27215.41504016142
 21
15085.07885026567
 31
0.0
  0
LINE
  5
D9
330
22
100
AcDbEntity
  8
_0-0_パイプ
  6
Continuous
 62
     7
100
AcDbLine
 10
27290.41652480034
 20
15115.07845436195
 30
0.0
 11
27267.91682172813
 21
15115.07845436195
 31
0.0
  0
LINE
  5
DA
330
22
100
AcDbEntity
  8
_0-0_パイプ
  6
Continuous
 62
     7
100
AcDbLine
 10
27237.91721763185
 20
15115.07845436195
 30
0.0
 11
27215.41504016142
 21
15115.07845436195
 31
0.0
  0
LINE
  5
DB
330
22
100
AcDbEntity
  8
_0-0_パイプ
  6
Continuous
 62
     7
100
AcDbLine
 10
27002.91619488059
 20
15160.07909770549
 30
0.0
 11
27002.91619488059
 21
15260.07942762525
 31
0.0
  0
LINE
  5
DC
330
22
100
AcDbEntity
  8
_0-0_パイプ
  6
Continuous
 62
     7
100
AcDbLine
 10
27502.91537008118
 20
15160.07909770549
 30
0.0
 11
27002.91619488059
 21
15160.07909770549
 31
0.0
  0
LINE
  5
DD
330
22
100
AcDbEntity
  8
_0-0_パイプ
  6
Continuous
 62
     7
100
AcDbLine
 10
27002.91619488059
 20
15260.07942762525
 30
0.0
 11
27502.91537008118
 21
15260.07942762525
 31
0.0
  0
LINE
  5
DE
330
22
100
AcDbEntity
  8
_0-0_パイプ
  6
Continuous
 62
     7
100
AcDbLine
 10
27502.91537008118
 20
15260.07942762525
 30
0.0
 11
27502.91537008118
 21
15160.07909770549
 31
0.0
  0
LINE
  5
DF
330
22
100
AcDbEntity
  8
_0-0_パイプ
  6
Continuous
 62
     7
100
AcDbLine
 10
36002.91866927881
 20
15160.07909770549
 30
0.0
 11
36002.91866927881
 21
15260.07942762525
 31
0.0
  0
LINE
  5
E0
330
22
100
AcDbEntity
  8
_0-0_パイプ
  6
Continuous
 62
     7
100
AcDbLine
 10
36502.91784447941
 20
15160.07909770549
 30
0.0
 11
36002.91866927881
 21
15160.07909770549
 31
0.0
  0
LINE
  5
E1
330
22
100
AcDbEntity
  8
_0-0_パイプ
  6
Continuous
 62
     7
100
AcDbLine
 10
36002.91866927881
 20
15260.07942762525
 30
0.0
 11
36502.91784447941
 21
15260.07942762525
 31
0.0
  0
LINE
  5
E2
330
22
100
AcDbEntity
  8
_0-0_パイプ
  6
Continuous
 62
     7
100
AcDbLine
 10
36502.91784447941
 20
15260.07942762525
 30
0.0
 11
36502.91784447941
 21
15160.07909770549
 31
0.0
  0
LINE
  5
E3
330
22
100
AcDbEntity
  8
_0-2_メッセン
  6
Continuous
 62
     6
100
AcDbLine
 10
9252.914545281766
 20
19606.77932271077
 30
0.0
 11
9252.914545281766
 21
15235.07934514531
 31
0.0
  0
LINE
  5
E4
330
22
100
AcDbEntity
  8
_0-2_メッセン
  6
Continuous
 62
     6
100
AcDbLine
 10
9290.414050402119
 20
15115.07845436195
 30
0.0
 11
18215.41504016141
 21
15115.07845436195
 31
0.0
  0
LINE
  5
E5
330
22
100
AcDbEntity
  8
_0-2_メッセン
  6
Continuous
 62
     6
100
AcDbLine
 10
18252.91454528176
 20
15235.07934514531
 30
0.0
 11
18252.91454528176
 21
19606.77932271077
 31
0.0
  0
LINE
  5
E6
330
22
100
AcDbEntity
  8
_0-2_メッセン
  6
Continuous
 62
     6
100
AcDbLine
 10
18227.89590481512
 20
19655.0845248856
 30
0.0
 11
9277.935660146628
 21
19655.0845248856
 31
0.0
  0
LINE
  5
E7
330
22
100
AcDbEntity
  8
_0-2_メッセン
  6
Continuous
 62
     6
100
AcDbLine
 10
9402.915040161412
 20
19715.08373307817
 30
0.0
 11
18002.91619488058
 21
15260.07942762525
 31
0.0
  0
LINE
  5
E8
330
22
100
AcDbEntity
  8
_0-2_メッセン
  6
Continuous
 62
     6
100
AcDbLine
 10
18102.91405040212
 20
19715.08868187462
 30
0.0
 11
9502.915370081174
 21
15260.07942762525
 31
0.0
  0
LINE
  5
E9
330
22
100
AcDbEntity
  8
_0-0_パイプ
  6
Continuous
 62
     7
100
AcDbLine
 10
9052.913885442238
 20
17430.08337016643
 30
0.0
 11
9052.913885442238
 21
17530.08370008619
 31
0.0
  0
LINE
  5
EA
330
22
100
AcDbEntity
  8
_0-0_パイプ
  6
Continuous
 62
     7
100
AcDbLine
 10
9052.913885442238
 20
17530.08370008619
 30
0.0
 11
9452.912730723067
 21
17530.08370008619
 31
0.0
  0
LINE
  5
EB
330
22
100
AcDbEntity
  8
_0-0_パイプ
  6
Continuous
 62
     7
100
AcDbLine
 10
9452.912730723067
 20
17530.08370008619
 30
0.0
 11
9452.912730723067
 21
17430.08337016643
 31
0.0
  0
LINE
  5
EC
330
22
100
AcDbEntity
  8
_0-0_パイプ
  6
Continuous
 62
     7
100
AcDbLine
 10
9452.912730723067
 20
17430.08337016643
 30
0.0
 11
9052.913885442238
 21
17430.08337016643
 31
0.0
  0
LINE
  5
ED
330
22
100
AcDbEntity
  8
_0-0_パイプ
  6
Continuous
 62
     7
100
AcDbLine
 10
9215.412565763184
 20
17355.08312272661
 30
0.0
 11
9215.412565763184
 21
17505.08361760625
 31
0.0
  0
LINE
  5
EE
330
22
100
AcDbEntity
  8
_0-0_パイプ
  6
Continuous
 62
     7
100
AcDbLine
 10
9215.412565763184
 20
17505.08361760625
 30
0.0
 11
9290.414050402119
 21
17505.08361760625
 31
0.0
  0
LINE
  5
EF
330
22
100
AcDbEntity
  8
_0-0_パイプ
  6
Continuous
 62
     7
100
AcDbLine
 10
9290.414050402119
 20
17505.08361760625
 30
0.0
 11
9290.414050402119
 21
17355.08312272661
 31
0.0
  0
LINE
  5
F0
330
22
100
AcDbEntity
  8
_0-0_パイプ
  6
Continuous
 62
     7
100
AcDbLine
 10
9290.414050402119
 20
17355.08312272661
 30
0.0
 11
9215.412565763184
 21
17355.08312272661
 31
0.0
  0
LINE
  5
F1
330
22
100
AcDbEntity
  8
_0-0_パイプ
  6
Continuous
 62
     7
100
AcDbLine
 10
9290.414050402119
 20
17385.08272682289
 30
0.0
 11
9267.91187293168
 21
17385.08272682289
 31
0.0
  0
LINE
  5
F2
330
22
100
AcDbEntity
  8
_0-0_パイプ
  6
Continuous
 62
     7
100
AcDbLine
 10
9237.912268835399
 20
17385.08272682289
 30
0.0
 11
9215.412565763184
 21
17385.08272682289
 31
0.0
  0
LINE
  5
F3
330
22
100
AcDbEntity
  8
_0-0_パイプ
  6
Continuous
 62
     7
100
AcDbLine
 10
18052.91388544224
 20
17430.08337016643
 30
0.0
 11
18052.91388544224
 21
17530.08370008619
 31
0.0
  0
LINE
  5
F4
330
22
100
AcDbEntity
  8
_0-0_パイプ
  6
Continuous
 62
     7
100
AcDbLine
 10
18052.91388544224
 20
17530.08370008619
 30
0.0
 11
18452.91273072306
 21
17530.08370008619
 31
0.0
  0
LINE
  5
F5
330
22
100
AcDbEntity
  8
_0-0_パイプ
  6
Continuous
 62
     7
100
AcDbLine
 10
18452.91273072306
 20
17530.08370008619
 30
0.0
 11
18452.91273072306
 21
17430.08337016643
 31
0.0
  0
LINE
  5
F6
330
22
100
AcDbEntity
  8
_0-0_パイプ
  6
Continuous
 62
     7
100
AcDbLine
 10
18452.91273072306
 20
17430.08337016643
 30
0.0
 11
18052.91388544224
 21
17430.08337016643
 31
0.0
  0
LINE
  5
F7
330
22
100
AcDbEntity
  8
_0-0_パイプ
  6
Continuous
 62
     7
100
AcDbLine
 10
18215.41256576318
 20
17355.08312272661
 30
0.0
 11
18215.41256576318
 21
17505.08361760625
 31
0.0
  0
LINE
  5
F8
330
22
100
AcDbEntity
  8
_0-0_パイプ
  6
Continuous
 62
     7
100
AcDbLine
 10
18215.41256576318
 20
17505.08361760625
 30
0.0
 11
18290.41405040212
 21
17505.08361760625
 31
0.0
  0
LINE
  5
F9
330
22
100
AcDbEntity
  8
_0-0_パイプ
  6
Continuous
 62
     7
100
AcDbLine
 10
18290.41405040212
 20
17505.08361760625
 30
0.0
 11
18290.41405040212
 21
17355.08312272661
 31
0.0
  0
LINE
  5
FA
330
22
100
AcDbEntity
  8
_0-0_パイプ
  6
Continuous
 62
     7
100
AcDbLine
 10
18290.41405040212
 20
17355.08312272661
 30
0.0
 11
18215.41256576318
 21
17355.08312272661
 31
0.0
  0
LINE
  5
FB
330
22
100
AcDbEntity
  8
_0-0_パイプ
  6
Continuous
 62
     7
100
AcDbLine
 10
18290.41405040212
 20
17385.08272682289
 30
0.0
 11
18267.91187293168
 21
17385.08272682289
 31
0.0
  0
LINE
  5
FC
330
22
100
AcDbEntity
  8
_0-0_パイプ
  6
Continuous
 62
     7
100
AcDbLine
 10
18237.9122688354
 20
17385.08272682289
 30
0.0
 11
18215.41256576318
 21
17385.08272682289
 31
0.0
  0
LINE
  5
FD
330
22
100
AcDbEntity
  8
_0-0_パイプ
  6
Continuous
 62
     7
100
AcDbLine
 10
27052.91388544224
 20
17430.08337016643
 30
0.0
 11
27052.91388544224
 21
17530.08370008619
 31
0.0
  0
LINE
  5
FE
330
22
100
AcDbEntity
  8
_0-0_パイプ
  6
Continuous
 62
     7
100
AcDbLine
 10
27052.91388544224
 20
17530.08370008619
 30
0.0
 11
27452.91273072307
 21
17530.08370008619
 31
0.0
  0
LINE
  5
FF
330
22
100
AcDbEntity
  8
_0-0_パイプ
  6
Continuous
 62
     7
100
AcDbLine
 10
27452.91273072307
 20
17530.08370008619
 30
0.0
 11
27452.91273072307
 21
17430.08337016643
 31
0.0
  0
LINE
  5
100
330
22
100
AcDbEntity
  8
_0-0_パイプ
  6
Continuous
 62
     7
100
AcDbLine
 10
27452.91273072307
 20
17430.08337016643
 30
0.0
 11
27052.91388544224
 21
17430.08337016643
 31
0.0
  0
LINE
  5
101
330
22
100
AcDbEntity
  8
_0-0_パイプ
  6
Continuous
 62
     7
100
AcDbLine
 10
27215.41256576319
 20
17355.08312272661
 30
0.0
 11
27215.41256576319
 21
17505.08361760625
 31
0.0
  0
LINE
  5
102
330
22
100
AcDbEntity
  8
_0-0_パイプ
  6
Continuous
 62
     7
100
AcDbLine
 10
27215.41256576319
 20
17505.08361760625
 30
0.0
 11
27290.41405040213
 21
17505.08361760625
 31
0.0
  0
LINE
  5
103
330
22
100
AcDbEntity
  8
_0-0_パイプ
  6
Continuous
 62
     7
100
AcDbLine
 10
27290.41405040213
 20
17505.08361760625
 30
0.0
 11
27290.41405040213
 21
17355.08312272661
 31
0.0
  0
LINE
  5
104
330
22
100
AcDbEntity
  8
_0-0_パイプ
  6
Continuous
 62
     7
100
AcDbLine
 10
27290.41405040213
 20
17355.08312272661
 30
0.0
 11
27215.41256576319
 21
17355.08312272661
 31
0.0
  0
LINE
  5
105
330
22
100
AcDbEntity
  8
_0-0_パイプ
  6
Continuous
 62
     7
100
AcDbLine
 10
27290.41405040213
 20
17385.08272682289
 30
0.0
 11
27267.91187293169
 21
17385.08272682289
 31
0.0
  0
LINE
  5
106
330
22
100
AcDbEntity
  8
_0-0_パイプ
  6
Continuous
 62
     7
100
AcDbLine
 10
27237.9122688354
 20
17385.08272682289
 30
0.0
 11
27215.41256576319
 21
17385.08272682289
 31
0.0
  0
LINE
  5
107
330
22
100
AcDbEntity
  8
_0-0_パイプ
  6
Continuous
 62
     7
100
AcDbLine
 10
36052.91388544224
 20
17430.08337016643
 30
0.0
 11
36052.91388544224
 21
17530.08370008619
 31
0.0
  0
LINE
  5
108
330
22
100
AcDbEntity
  8
_0-0_パイプ
  6
Continuous
 62
     7
100
AcDbLine
 10
36052.91388544224
 20
17530.08370008619
 30
0.0
 11
36452.91273072308
 21
17530.08370008619
 31
0.0
  0
LINE
  5
109
330
22
100
AcDbEntity
  8
_0-0_パイプ
  6
Continuous
 62
     7
100
AcDbLine
 10
36452.91273072308
 20
17530.08370008619
 30
0.0
 11
36452.91273072308
 21
17430.08337016643
 31
0.0
  0
LINE
  5
10A
330
22
100
AcDbEntity
  8
_0-0_パイプ
  6
Continuous
 62
     7
100
AcDbLine
 10
36452.91273072308
 20
17430.08337016643
 30
0.0
 11
36052.91388544224
 21
17430.08337016643
 31
0.0
  0
LINE
  5
10B
330
22
100
AcDbEntity
  8
_0-2_メッセン
  6
Continuous
 62
     6
100
AcDbLine
 10
9290.414050402119
 20
17385.08272682289
 30
0.0
 11
18215.41256576318
 21
17385.08272682289
 31
0.0
  0
LINE
  5
10C
330
22
100
AcDbEntity
  8
_0-2_メッセン
  6
Continuous
 62
     6
100
AcDbLine
 10
27252.91701967999
 20
19606.77932271077
 30
0.0
 11
27252.91701967999
 21
15235.07934514531
 31
0.0
  0
LINE
  5
10D
330
22
100
AcDbEntity
  8
_0-2_メッセン
  6
Continuous
 62
     6
100
AcDbLine
 10
27215.41504016142
 20
15115.07845436195
 30
0.0
 11
18290.41652480034
 21
15115.07845436195
 31
0.0
  0
LINE
  5
10E
330
22
100
AcDbEntity
  8
_0-2_メッセン
  6
Continuous
 62
     6
100
AcDbLine
 10
18277.93566014663
 20
19655.0845248856
 30
0.0
 11
27227.89590481513
 21
19655.0845248856
 31
0.0
  0
LINE
  5
10F
330
22
100
AcDbEntity
  8
_0-2_メッセン
  6
Continuous
 62
     6
100
AcDbLine
 10
27102.91652480034
 20
19715.08373307817
 30
0.0
 11
18502.91537008117
 21
15260.07942762525
 31
0.0
  0
LINE
  5
110
330
22
100
AcDbEntity
  8
_0-2_メッセン
  6
Continuous
 62
     6
100
AcDbLine
 10
18402.91504016141
 20
19715.08868187462
 30
0.0
 11
27002.91619488059
 21
15260.07942762525
 31
0.0
  0
LINE
  5
111
330
22
100
AcDbEntity
  8
_0-2_メッセン
  6
Continuous
 62
     6
100
AcDbLine
 10
27215.41751455963
 20
17385.08272682289
 30
0.0
 11
18290.41899919857
 21
17385.08272682289
 31
0.0
  0
LINE
  5
112
330
22
100
AcDbEntity
  8
_0-0_パイプ
  6
CENTER1
 62
     4
100
AcDbLine
 10
9252.914545281766
 20
20123.69719578404
 30
0.0
 11
9252.914545281766
 21
11015.07729964278
 31
0.0
  0
LINE
  5
113
330
22
100
AcDbEntity
  8
_0-0_パイプ
  6
CENTER1
 62
     4
100
AcDbLine
 10
18252.91454528176
 20
20123.69719578404
 30
0.0
 11
18252.91454528176
 21
11015.07729964278
 31
0.0
  0
LINE
  5
114
330
22
100
AcDbEntity
  8
_0-0_パイプ
  6
CENTER1
 62
     4
100
AcDbLine
 10
36252.91701967998
 20
20123.69719578404
 30
0.0
 11
36252.91701967998
 21
11015.07729964278
 31
0.0
  0
LINE
  5
115
330
22
100
AcDbEntity
  8
_0-1_ＧＬ
  6
Continuous
 62
     3
100
AcDbLine
 10
7752.914545281765
 20
15015.0793616413
 30
0.0
 11
8152.915864960819
 21
14615.07927916136
 31
0.0
  0
LINE
  5
116
330
22
100
AcDbEntity
  8
_0-1_ＧＬ
  6
Continuous
 62
     3
100
AcDbLine
 10
7752.914545281765
 20
15015.0793616413
 30
0.0
 11
7352.915700000938
 21
14615.07927916136
 31
0.0
  0
LINE
  5
117
330
22
100
AcDbEntity
  8
_0-1_ＧＬ
  6
Continuous
 62
     3
100
AcDbLine
 10
7352.915700000938
 20
14615.07927916136
 30
0.0
 11
6952.914380321884
 21
15015.0793616413
 31
0.0
  0
LINE
  5
118
330
22
100
AcDbEntity
  8
_0-1_ＧＬ
  6
Continuous
 62
     3
100
AcDbLine
 10
7037.526427671969
 20
14922.57150955093
 30
0.0
 11
6730.032960083288
 21
14615.07927916136
 31
0.0
  0
LINE
  5
119
330
22
100
AcDbEntity
  8
_0-1_ＧＬ
  6
Continuous
 62
     3
100
AcDbLine
 10
7141.136904603979
 20
14822.66273236554
 30
0.0
 11
6933.552214200685
 21
14615.07927916136
 31
0.0
  0
LINE
  5
11A
330
22
100
AcDbEntity
  8
_0-1_ＧＬ
  6
Continuous
 62
     3
100
AcDbLine
 10
7244.744907137762
 20
14722.75395518015
 30
0.0
 11
7137.071468318083
 21
14615.07927916136
 31
0.0
  0
LINE
  5
11B
330
22
100
AcDbEntity
  8
_0-1_ＧＬ
  6
Continuous
 62
     3
100
AcDbLine
 10
7852.91487520153
 20
14915.07903172154
 30
0.0
 11
7552.916359840466
 21
14615.07927916136
 31
0.0
  0
LINE
  5
11C
330
22
100
AcDbEntity
  8
_0-1_ＧＬ
  6
Continuous
 62
     3
100
AcDbLine
 10
7952.915205121295
 20
14815.07870180178
 30
0.0
 11
7752.914545281765
 21
14615.07927916136
 31
0.0
  0
LINE
  5
11D
330
22
100
AcDbEntity
  8
_0-1_ＧＬ
  6
Continuous
 62
     3
100
AcDbLine
 10
8052.915535041053
 20
14715.07960908112
 30
0.0
 11
7952.915205121295
 21
14615.07927916136
 31
0.0
  0
LINE
  5
11E
330
22
100
AcDbEntity
  8
_0-1_ＧＬ
  6
Continuous
 62
     3
100
AcDbLine
 10
7652.916689760229
 20
14915.07903172154
 30
0.0
 11
7552.916359840466
 21
15015.0793616413
 31
0.0
  0
LINE
  5
11F
330
22
100
AcDbEntity
  8
_0-1_ＧＬ
  6
Continuous
 62
     3
100
AcDbLine
 10
7552.916359840466
 20
14815.07870180178
 30
0.0
 11
7352.915700000938
 21
15015.0793616413
 31
0.0
  0
LINE
  5
120
330
22
100
AcDbEntity
  8
_0-1_ＧＬ
  6
Continuous
 62
     3
100
AcDbLine
 10
7452.9160299207
 20
14715.07960908112
 30
0.0
 11
7152.915040161413
 21
15015.0793616413
 31
0.0
  0
LINE
  5
121
330
22
100
AcDbEntity
  8
_0-1_ＧＬ
  6
Continuous
 62
     3
100
AcDbLine
 10
6952.914380321884
 20
15015.0793616413
 30
0.0
 11
6652.913390562594
 21
14715.07960908112
 31
0.0
  0
LINE
  5
122
330
22
100
AcDbEntity
  8
_0-1_ＧＬ
  6
Continuous
 62
     3
100
AcDbLine
 10
6752.913720482357
 20
14815.07870180178
 30
0.0
 11
6552.913060642831
 21
15015.0793616413
 31
0.0
  0
LINE
  5
123
330
22
100
AcDbEntity
  8
_0-1_ＧＬ
  6
Continuous
 62
     3
100
AcDbLine
 10
6852.914050402121
 20
14915.07903172154
 30
0.0
 11
6752.913720482357
 21
15015.0793616413
 31
0.0
  0
LINE
  5
124
330
22
100
AcDbEntity
  8
_0-1_ＧＬ
  6
Continuous
 62
     3
100
AcDbLine
 10
7264.14913802881
 20
15207.74095634147
 30
0.0
 11
7041.68341669224
 21
15207.74095634147
 31
0.0
  0
LINE
  5
125
330
22
100
AcDbEntity
  8
_0-1_ＧＬ
  6
Continuous
 62
     3
100
AcDbLine
 10
7152.915040161413
 20
15015.0793616413
 30
0.0
 11
7264.14913802881
 21
15207.74095634147
 31
0.0
  0
LINE
  5
126
330
22
100
AcDbEntity
  8
_0-1_ＧＬ
  6
Continuous
 62
     3
100
AcDbLine
 10
7152.915040161413
 20
15015.0793616413
 30
0.0
 11
7041.68341669224
 21
15207.74095634147
 31
0.0
  0
LINE
  5
127
330
22
100
AcDbEntity
  8
ADD_LINE
  6
DOT
 62
     7
100
AcDbLine
 10
36252.91701967998
 20
19838.6502317057
 30
0.0
 11
36252.91701967998
 21
19595.83505935562
 31
0.0
  0
LINE
  5
128
330
22
100
AcDbEntity
  8
_0-0_パイプ
  6
Continuous
 62
     7
100
AcDbLine
 10
36102.91899919858
 20
19715.08620747639
 30
0.0
 11
36277.90101857146
 21
19715.08620747639
 31
0.0
  0
LINE
  5
129
330
22
100
AcDbEntity
  8
_0-0_パイプ
  6
Continuous
 62
     7
100
AcDbLine
 10
36027.91504016142
 20
14640.08059884041
 30
0.0
 11
36383.62463158879
 21
14640.08059884041
 31
0.0
  0
LINE
  5
12A
330
22
100
AcDbEntity
  8
_0-0_パイプ
  6
Continuous
 62
     7
100
AcDbLine
 10
36383.95620095112
 20
14590.08043388054
 30
0.0
 11
36027.91504016142
 21
14590.08043388054
 31
0.0
  0
LINE
  5
12B
330
22
100
AcDbEntity
  8
_0-2_メッセン
  6
Continuous
 62
     7
100
AcDbLine
 10
36433.12744250517
 20
14715.08084628023
 30
0.0
 11
36434.1246249904
 21
14565.08035140059
 31
0.0
  0
LINE
  5
12C
330
22
100
AcDbEntity
  8
_0-2_メッセン
  6
Continuous
 62
     7
100
AcDbLine
 10
36434.1246249904
 20
14565.08035140059
 30
0.0
 11
36584.12759426825
 21
14565.08035140059
 31
0.0
  0
LINE
  5
12D
330
22
100
AcDbEntity
  8
_0-2_メッセン
  6
Continuous
 62
     7
100
AcDbLine
 10
36584.12759426825
 20
14565.08035140059
 30
0.0
 11
36584.45916363059
 21
14515.08018644071
 31
0.0
  0
LINE
  5
12E
330
22
100
AcDbEntity
  8
_0-2_メッセン
  6
Continuous
 62
     7
100
AcDbLine
 10
36383.12480314705
 20
14715.08084628023
 30
0.0
 11
36433.12744250517
 21
14715.08084628023
 31
0.0
  0
LINE
  5
12F
330
22
100
AcDbEntity
  8
_0-2_メッセン
  6
Continuous
 62
     7
100
AcDbLine
 10
36384.4535549946
 20
14515.08018644071
 30
0.0
 11
36584.45916363059
 21
14515.08018644071
 31
0.0
  0
LINE
  5
130
330
22
100
AcDbEntity
  8
_0-2_メッセン
  6
Continuous
 62
     6
100
AcDbLine
 10
30252.91701967999
 20
16684.64616049582
 30
0.0
 11
27502.91784447941
 21
15260.07942762525
 31
0.0
  0
LINE
  5
131
330
22
100
AcDbEntity
  8
_0-2_メッセン
  6
Continuous
 62
     6
100
AcDbLine
 10
27290.41899919857
 20
15115.07845436195
 30
0.0
 11
30252.91701967999
 21
15115.07845436195
 31
0.0
  0
LINE
  5
132
330
22
100
AcDbEntity
  8
_0-2_メッセン
  6
Continuous
 62
     6
100
AcDbLine
 10
27290.41652480034
 20
17385.08272682289
 30
0.0
 11
30252.91701967999
 21
17385.08272682289
 31
0.0
  0
LINE
  5
133
330
22
100
AcDbEntity
  8
_0-2_メッセン
  6
Continuous
 62
     6
100
AcDbLine
 10
27402.91751455964
 20
19715.08373307817
 30
0.0
 11
30252.91701967999
 21
18238.71794773716
 31
0.0
  0
LINE
  5
134
330
22
100
AcDbEntity
  8
_0-2_メッセン
  6
Continuous
 62
     6
100
AcDbLine
 10
30252.91701967999
 20
19655.0845248856
 30
0.0
 11
27277.93813454485
 21
19655.0845248856
 31
0.0
  0
LINE
  5
135
330
22
100
AcDbEntity
  8
_0-1_ＧＬ
  6
Continuous
 62
     3
100
AcDbLine
 10
34252.91784447941
 20
15015.0793616413
 30
0.0
 11
38252.91619488059
 21
15015.0793616413
 31
0.0
  0
LINE
  5
136
330
22
100
AcDbEntity
  8
_0-1_ＧＬ
  6
Continuous
 62
     3
100
AcDbLine
 10
30452.91767951952
 20
15015.0793616413
 30
0.0
 11
30852.91899919857
 21
14615.07927916136
 31
0.0
  0
LINE
  5
137
330
22
100
AcDbEntity
  8
_0-1_ＧＬ
  6
Continuous
 62
     3
100
AcDbLine
 10
30452.91767951952
 20
15015.0793616413
 30
0.0
 11
30052.91883423869
 21
14615.07927916136
 31
0.0
  0
LINE
  5
138
330
22
100
AcDbEntity
  8
_0-1_ＧＬ
  6
Continuous
 62
     3
100
AcDbLine
 10
30052.91883423869
 20
14615.07927916136
 30
0.0
 11
29652.91751455964
 21
15015.0793616413
 31
0.0
  0
LINE
  5
139
330
22
100
AcDbEntity
  8
_0-1_ＧＬ
  6
Continuous
 62
     3
100
AcDbLine
 10
29737.52956190972
 20
14922.57150955093
 30
0.0
 11
29430.03609432104
 21
14615.07927916136
 31
0.0
  0
LINE
  5
13A
330
22
100
AcDbEntity
  8
_0-1_ＧＬ
  6
Continuous
 62
     3
100
AcDbLine
 10
29841.14003884173
 20
14822.66273236554
 30
0.0
 11
29633.55534843844
 21
14615.07927916136
 31
0.0
  0
LINE
  5
13B
330
22
100
AcDbEntity
  8
_0-1_ＧＬ
  6
Continuous
 62
     3
100
AcDbLine
 10
29944.74804137552
 20
14722.75395518015
 30
0.0
 11
29837.07460255584
 21
14615.07927916136
 31
0.0
  0
LINE
  5
13C
330
22
100
AcDbEntity
  8
_0-1_ＧＬ
  6
Continuous
 62
     3
100
AcDbLine
 10
30552.91800943928
 20
14915.07903172154
 30
0.0
 11
30252.91949407822
 21
14615.07927916136
 31
0.0
  0
LINE
  5
13D
330
22
100
AcDbEntity
  8
_0-1_ＧＬ
  6
Continuous
 62
     3
100
AcDbLine
 10
30652.91833935905
 20
14815.07870180178
 30
0.0
 11
30452.91767951952
 21
14615.07927916136
 31
0.0
  0
LINE
  5
13E
330
22
100
AcDbEntity
  8
_0-1_ＧＬ
  6
Continuous
 62
     3
100
AcDbLine
 10
30752.91619488059
 20
14715.07960908112
 30
0.0
 11
30652.91586496083
 21
14615.07927916136
 31
0.0
  0
LINE
  5
13F
330
22
100
AcDbEntity
  8
_0-1_ＧＬ
  6
Continuous
 62
     3
100
AcDbLine
 10
30352.91734959976
 20
14915.07903172154
 30
0.0
 11
30252.91949407822
 21
15015.0793616413
 31
0.0
  0
LINE
  5
140
330
22
100
AcDbEntity
  8
_0-1_ＧＬ
  6
Continuous
 62
     3
100
AcDbLine
 10
30252.91949407822
 20
14815.07870180178
 30
0.0
 11
30052.91883423869
 21
15015.0793616413
 31
0.0
  0
LINE
  5
141
330
22
100
AcDbEntity
  8
_0-1_ＧＬ
  6
Continuous
 62
     3
100
AcDbLine
 10
30152.91916415846
 20
14715.07960908112
 30
0.0
 11
29852.91817439917
 21
15015.0793616413
 31
0.0
  0
LINE
  5
142
330
22
100
AcDbEntity
  8
_0-1_ＧＬ
  6
Continuous
 62
     3
100
AcDbLine
 10
29652.91751455964
 20
15015.0793616413
 30
0.0
 11
29352.91652480034
 21
14715.07960908112
 31
0.0
  0
LINE
  5
143
330
22
100
AcDbEntity
  8
_0-1_ＧＬ
  6
Continuous
 62
     3
100
AcDbLine
 10
29452.91685472012
 20
14815.07870180178
 30
0.0
 11
29252.91619488059
 21
15015.0793616413
 31
0.0
  0
LINE
  5
144
330
22
100
AcDbEntity
  8
_0-1_ＧＬ
  6
Continuous
 62
     3
100
AcDbLine
 10
29552.91718463988
 20
14915.07903172154
 30
0.0
 11
29452.91685472012
 21
15015.0793616413
 31
0.0
  0
LINE
  5
145
330
22
100
AcDbEntity
  8
_0-1_ＧＬ
  6
Continuous
 62
     3
100
AcDbLine
 10
35452.91932911833
 20
15015.0793616413
 30
0.0
 11
35852.9206487974
 21
14615.07927916136
 31
0.0
  0
LINE
  5
146
330
22
100
AcDbEntity
  8
_0-1_ＧＬ
  6
Continuous
 62
     3
100
AcDbLine
 10
35452.91932911833
 20
15015.0793616413
 30
0.0
 11
35052.92048383751
 21
14615.07927916136
 31
0.0
  0
LINE
  5
147
330
22
100
AcDbEntity
  8
_0-1_ＧＬ
  6
Continuous
 62
     3
100
AcDbLine
 10
35052.92048383751
 20
14615.07927916136
 30
0.0
 11
34652.91916415846
 21
15015.0793616413
 31
0.0
  0
LINE
  5
148
330
22
100
AcDbEntity
  8
_0-1_ＧＬ
  6
Continuous
 62
     3
100
AcDbLine
 10
34737.53121150853
 20
14922.57150955093
 30
0.0
 11
34430.03774391986
 21
14615.07927916136
 31
0.0
  0
LINE
  5
149
330
22
100
AcDbEntity
  8
_0-1_ＧＬ
  6
Continuous
 62
     3
100
AcDbLine
 10
34841.14168844056
 20
14822.66273236554
 30
0.0
 11
34633.55699803726
 21
14615.07927916136
 31
0.0
  0
LINE
  5
14A
330
22
100
AcDbEntity
  8
_0-1_ＧＬ
  6
Continuous
 62
     3
100
AcDbLine
 10
34944.74969097433
 20
14722.75395518015
 30
0.0
 11
34837.07625215466
 21
14615.07927916136
 31
0.0
  0
LINE
  5
14B
330
22
100
AcDbEntity
  8
_0-1_ＧＬ
  6
Continuous
 62
     3
100
AcDbLine
 10
35552.91965903811
 20
14915.07903172154
 30
0.0
 11
35252.92114367704
 21
14615.07927916136
 31
0.0
  0
LINE
  5
14C
330
22
100
AcDbEntity
  8
_0-1_ＧＬ
  6
Continuous
 62
     3
100
AcDbLine
 10
35652.91998895787
 20
14815.07870180178
 30
0.0
 11
35452.91932911833
 21
14615.07927916136
 31
0.0
  0
LINE
  5
14D
330
22
100
AcDbEntity
  8
_0-1_ＧＬ
  6
Continuous
 62
     3
100
AcDbLine
 10
35752.91784447941
 20
14715.07960908112
 30
0.0
 11
35652.91751455964
 21
14615.07927916136
 31
0.0
  0
LINE
  5
14E
330
22
100
AcDbEntity
  8
_0-1_ＧＬ
  6
Continuous
 62
     3
100
AcDbLine
 10
35352.91899919858
 20
14915.07903172154
 30
0.0
 11
35252.92114367704
 21
15015.0793616413
 31
0.0
  0
LINE
  5
14F
330
22
100
AcDbEntity
  8
_0-1_ＧＬ
  6
Continuous
 62
     3
100
AcDbLine
 10
35252.92114367704
 20
14815.07870180178
 30
0.0
 11
35052.92048383751
 21
15015.0793616413
 31
0.0
  0
LINE
  5
150
330
22
100
AcDbEntity
  8
_0-1_ＧＬ
  6
Continuous
 62
     3
100
AcDbLine
 10
35152.92081375727
 20
14715.07960908112
 30
0.0
 11
34852.91982399798
 21
15015.0793616413
 31
0.0
  0
LINE
  5
151
330
22
100
AcDbEntity
  8
_0-1_ＧＬ
  6
Continuous
 62
     3
100
AcDbLine
 10
34652.91916415846
 20
15015.0793616413
 30
0.0
 11
34352.91817439916
 21
14715.07960908112
 31
0.0
  0
LINE
  5
152
330
22
100
AcDbEntity
  8
_0-1_ＧＬ
  6
Continuous
 62
     3
100
AcDbLine
 10
34452.91850431893
 20
14815.07870180178
 30
0.0
 11
34252.91784447941
 21
15015.0793616413
 31
0.0
  0
LINE
  5
153
330
22
100
AcDbEntity
  8
_0-1_ＧＬ
  6
Continuous
 62
     3
100
AcDbLine
 10
34552.9188342387
 20
14915.07903172154
 30
0.0
 11
34452.91850431893
 21
15015.0793616413
 31
0.0
  0
LINE
  5
154
330
22
100
AcDbEntity
  8
_0-0_パイプ
  6
CENTER1
 62
     4
100
AcDbLine
 10
27252.91701967999
 20
20123.69719578404
 30
0.0
 11
27252.91701967999
 21
11015.07729964278
 31
0.0
  0
LINE
  5
155
330
22
100
AcDbEntity
  8
_0-3_寸法
  6
Continuous
 62
     4
100
AcDbLine
 10
9252.914545281766
 20
10515.07812444218
 30
0.0
 11
18252.91454528176
 21
10515.07812444218
 31
0.0
  0
LINE
  5
156
330
22
100
AcDbEntity
  8
_0-3_寸法
  6
Continuous
 62
     4
100
AcDbLine
 10
9252.914545281766
 20
11015.07729964278
 30
0.0
 11
9252.914545281766
 21
10515.07812444218
 31
0.0
  0
LINE
  5
157
330
22
100
AcDbEntity
  8
_0-3_寸法
  6
Continuous
 62
     4
100
AcDbLine
 10
18252.91454528176
 20
11015.07729964278
 30
0.0
 11
18252.91454528176
 21
10515.07812444218
 31
0.0
  0
LINE
  5
158
330
22
100
AcDbEntity
  8
_0-3_寸法
  6
Continuous
 62
     4
100
AcDbLine
 10
18252.91454528176
 20
10515.07812444218
 30
0.0
 11
27252.91701967999
 21
10515.07812444218
 31
0.0
  0
LINE
  5
159
330
22
100
AcDbEntity
  8
_0-3_寸法
  6
Continuous
 62
     4
100
AcDbLine
 10
27252.91701967999
 20
11015.07729964278
 30
0.0
 11
27252.91701967999
 21
10515.07812444218
 31
0.0
  0
LINE
  5
15A
330
22
100
AcDbEntity
  8
_0-0_パイプ
  6
Continuous
 62
     7
100
AcDbLine
 10
9102.914050402119
 20
19765.08142363982
 30
0.0
 11
9102.914050402119
 21
19815.07911420148
 31
0.0
  0
LINE
  5
15B
330
22
100
AcDbEntity
  8
_0-0_パイプ
  6
Continuous
 62
     7
100
AcDbLine
 10
9102.914050402119
 20
19815.07911420148
 30
0.0
 11
9402.915040161412
 21
19815.07911420148
 31
0.0
  0
LINE
  5
15C
330
22
100
AcDbEntity
  8
_0-0_パイプ
  6
Continuous
 62
     7
100
AcDbLine
 10
9102.914050402119
 20
19765.08142363982
 30
0.0
 11
9402.915040161412
 21
19765.08142363982
 31
0.0
  0
LINE
  5
15D
330
22
100
AcDbEntity
  8
_0-0_パイプ
  6
Continuous
 62
     7
100
AcDbLine
 10
9402.915040161412
 20
19815.07911420148
 30
0.0
 11
9402.915040161412
 21
19765.08142363982
 31
0.0
  0
LINE
  5
15E
330
22
100
AcDbEntity
  8
_0-0_パイプ
  6
Continuous
 62
     7
100
AcDbLine
 10
9102.914050402119
 20
19715.08373307817
 30
0.0
 11
9102.914050402119
 21
19765.08142363982
 31
0.0
  0
LINE
  5
15F
330
22
100
AcDbEntity
  8
_0-0_パイプ
  6
Continuous
 62
     7
100
AcDbLine
 10
9227.898379213355
 20
19755.08485480536
 30
0.0
 11
9277.898544173238
 21
19755.08485480536
 31
0.0
  0
LINE
  5
160
330
22
100
AcDbEntity
  8
_0-0_パイプ
  6
Continuous
 62
     7
100
AcDbLine
 10
9277.898544173238
 20
19655.0845248856
 30
0.0
 11
9227.898379213355
 21
19655.0845248856
 31
0.0
  0
LINE
  5
161
330
22
100
AcDbEntity
  8
_0-0_パイプ
  6
Continuous
 62
     7
100
AcDbLine
 10
9102.914050402119
 20
19715.08373307817
 30
0.0
 11
9227.898379213355
 21
19715.08373307817
 31
0.0
  0
LINE
  5
162
330
22
100
AcDbEntity
  8
_0-0_パイプ
  6
Continuous
 62
     7
100
AcDbLine
 10
9277.898544173238
 20
19715.08373307817
 30
0.0
 11
9402.915040161412
 21
19715.08373307817
 31
0.0
  0
LINE
  5
163
330
22
100
AcDbEntity
  8
_0-0_パイプ
  6
Continuous
 62
     7
100
AcDbLine
 10
9402.915040161412
 20
19815.07911420148
 30
0.0
 11
9452.155564865805
 21
19823.76425197598
 31
0.0
  0
LINE
  5
164
330
22
100
AcDbEntity
  8
_0-0_パイプ
  6
Continuous
 62
     7
100
AcDbLine
 10
9452.915205121291
 20
19740.08010396077
 30
0.0
 11
9452.915205121291
 21
19840.08043388053
 31
0.0
  0
LINE
  5
165
330
22
100
AcDbEntity
  8
_0-0_パイプ
  6
Continuous
 62
     7
100
AcDbLine
 10
9402.915040161412
 20
19765.08142363982
 30
0.0
 11
9452.155564865805
 21
19756.40123466178
 31
0.0
  0
LINE
  5
166
330
22
100
AcDbEntity
  8
_0-0_パイプ
  6
Continuous
 62
     7
100
AcDbLine
 10
9452.915205121291
 20
19840.08043388053
 30
0.0
 11
9652.915864960821
 21
19840.08043388053
 31
0.0
  0
LINE
  5
167
330
22
100
AcDbEntity
  8
_0-0_パイプ
  6
Continuous
 62
     7
100
AcDbLine
 10
9652.915864960821
 20
19740.08010396077
 30
0.0
 11
9652.915864960821
 21
19840.08043388053
 31
0.0
  0
LINE
  5
168
330
22
100
AcDbEntity
  8
_0-0_パイプ
  6
Continuous
 62
     7
100
AcDbLine
 10
9652.915864960821
 20
19740.08010396077
 30
0.0
 11
9452.915205121291
 21
19740.08010396077
 31
0.0
  0
LINE
  5
169
330
22
100
AcDbEntity
  8
_0-0_パイプ
  6
Continuous
 62
     7
100
AcDbLine
 10
9227.898379213355
 20
19685.08412898188
 30
0.0
 11
9242.920450845531
 21
19685.08412898188
 31
0.0
  0
LINE
  5
16A
330
22
100
AcDbEntity
  8
_0-0_パイプ
  6
Continuous
 62
     7
100
AcDbLine
 10
9262.908639717998
 20
19685.08412898188
 30
0.0
 11
9277.930711350178
 21
19685.08412898188
 31
0.0
  0
LINE
  5
16B
330
22
100
AcDbEntity
  8
ADD_LINE
  6
DOT
 62
     7
100
AcDbLine
 10
9252.914545281766
 20
19595.83258495739
 30
0.0
 11
9252.914545281766
 21
19838.6502317057
 31
0.0
  0
LINE
  5
16C
330
22
100
AcDbEntity
  8
_0-0_パイプ
  6
Continuous
 62
     7
100
AcDbLine
 10
9227.898379213355
 20
19655.0845248856
 30
0.0
 11
9227.898379213355
 21
19755.08485480536
 31
0.0
  0
LINE
  5
16D
330
22
100
AcDbEntity
  8
_0-0_パイプ
  6
Continuous
 62
     7
100
AcDbLine
 10
9277.898544173238
 20
19755.08485480536
 30
0.0
 11
9277.898544173238
 21
19655.0845248856
 31
0.0
  0
LINE
  5
16E
330
22
100
AcDbEntity
  8
_0-0_パイプ
  6
Continuous
 62
     7
100
AcDbLine
 10
9402.915040161412
 20
19765.08142363982
 30
0.0
 11
9402.915040161412
 21
19715.08373307817
 31
0.0
  0
LINE
  5
16F
330
22
100
AcDbEntity
  8
_0-3_寸法
  6
Continuous
 62
     4
100
AcDbLine
 10
5752.915370081176
 20
20015.07977404101
 30
0.0
 11
5752.915370081176
 21
19655.0845248856
 31
0.0
  0
LINE
  5
170
330
22
100
AcDbEntity
  8
_0-3_寸法
  6
Continuous
 62
     4
100
AcDbLine
 10
5752.915370081176
 20
19655.0845248856
 30
0.0
 11
5752.915370081176
 21
17385.08272682289
 31
0.0
  0
LINE
  5
171
330
22
100
AcDbEntity
  8
_0-3_寸法
  6
Continuous
 62
     4
100
AcDbLine
 10
5752.915370081176
 20
17385.08272682289
 30
0.0
 11
5752.915370081176
 21
15115.07845436195
 31
0.0
  0
LINE
  5
172
330
22
100
AcDbEntity
  8
_0-3_寸法
  6
Continuous
 62
     4
100
AcDbLine
 10
6252.914545281766
 20
15115.07845436195
 30
0.0
 11
5752.915370081176
 21
15115.07845436195
 31
0.0
  0
LINE
  5
173
330
22
100
AcDbEntity
  8
_0-3_寸法
  6
Continuous
 62
     4
100
AcDbLine
 10
5752.915370081176
 20
15115.07845436195
 30
0.0
 11
5752.915370081176
 21
15015.0793616413
 31
0.0
  0
LINE
  5
174
330
22
100
AcDbEntity
  8
_0-3_寸法
  6
Continuous
 62
     4
100
AcDbLine
 10
6252.914545281766
 20
15015.0793616413
 30
0.0
 11
5752.915370081176
 21
15015.0793616413
 31
0.0
  0
LINE
  5
175
330
22
100
AcDbEntity
  8
_0-3_寸法
  6
Continuous
 62
     4
100
AcDbLine
 10
5752.915370081176
 20
15015.0793616413
 30
0.0
 11
5752.915370081176
 21
14615.07927916136
 31
0.0
  0
LINE
  5
176
330
22
100
AcDbEntity
  8
_0-3_寸法
  6
Continuous
 62
     4
100
AcDbLine
 10
6252.914545281766
 20
14615.07927916136
 30
0.0
 11
5752.915370081176
 21
14615.07927916136
 31
0.0
  0
LINE
  5
177
330
22
100
AcDbEntity
  8
_0-3_寸法
  6
Continuous
 62
     4
100
AcDbLine
 10
5752.915370081176
 20
14615.07927916136
 30
0.0
 11
5752.915370081176
 21
13015.0789492416
 31
0.0
  0
LINE
  5
178
330
22
100
AcDbEntity
  8
_0-3_寸法
  6
Continuous
 62
     4
100
AcDbLine
 10
5252.916194880583
 20
20015.07977404101
 30
0.0
 11
5252.916194880583
 21
15015.0793616413
 31
0.0
  0
LINE
  5
179
330
22
100
AcDbEntity
  8
_0-3_寸法
  6
Continuous
 62
     4
100
AcDbLine
 10
5752.915370081176
 20
20015.07977404101
 30
0.0
 11
5252.916194880583
 21
20015.07977404101
 31
0.0
  0
LINE
  5
17A
330
22
100
AcDbEntity
  8
_0-3_寸法
  6
Continuous
 62
     4
100
AcDbLine
 10
5752.915370081176
 20
15015.0793616413
 30
0.0
 11
5252.916194880583
 21
15015.0793616413
 31
0.0
  0
LINE
  5
17B
330
22
100
AcDbEntity
  8
_0-3_寸法
  6
Continuous
 62
     4
100
AcDbLine
 10
5252.916194880583
 20
15015.0793616413
 30
0.0
 11
5252.916194880583
 21
13015.0789492416
 31
0.0
  0
LINE
  5
17C
330
22
100
AcDbEntity
  8
_0-3_寸法
  6
Continuous
 62
     4
100
AcDbLine
 10
5752.915370081176
 20
13015.0789492416
 30
0.0
 11
5252.916194880583
 21
13015.0789492416
 31
0.0
  0
LINE
  5
17D
330
22
100
AcDbEntity
  8
_0-3_寸法
  6
Continuous
 62
     4
100
AcDbLine
 10
4752.914545281766
 20
20015.07977404101
 30
0.0
 11
4752.914545281766
 21
13015.0789492416
 31
0.0
  0
LINE
  5
17E
330
22
100
AcDbEntity
  8
_0-3_寸法
  6
Continuous
 62
     4
100
AcDbLine
 10
5252.916194880583
 20
20015.07977404101
 30
0.0
 11
4752.914545281766
 21
20015.07977404101
 31
0.0
  0
LINE
  5
17F
330
22
100
AcDbEntity
  8
_0-3_寸法
  6
Continuous
 62
     4
100
AcDbLine
 10
5252.916194880583
 20
13015.0789492416
 30
0.0
 11
4752.914545281766
 21
13015.0789492416
 31
0.0
  0
LINE
  5
180
330
22
100
AcDbEntity
  8
_0-6_仕上
  6
Continuous
 62
     4
100
AcDbLine
 10
28809.53125109892
 20
19443.70905639954
 30
0.0
 11
28809.53125109892
 21
19543.7093863193
 31
0.0
  0
LINE
  5
181
330
22
100
AcDbEntity
  8
_0-6_仕上
  6
Continuous
 62
     4
100
AcDbLine
 10
30111.58186738903
 20
20915.52937219874
 30
0.0
 11
30293.98708144097
 21
20915.52937219874
 31
0.0
  0
LINE
  5
182
330
22
100
AcDbEntity
  8
_0-6_仕上
  6
Continuous
 62
     4
100
AcDbLine
 10
28809.53125109892
 20
19443.70905639954
 30
0.0
 11
29424.35982478979
 21
20508.62448146816
 31
0.0
  0
LINE
  5
183
330
22
100
AcDbEntity
  8
_0-6_仕上
  6
Continuous
 62
     4
100
AcDbLine
 10
30111.58186738903
 20
20508.62448146816
 30
0.0
 11
29424.35982478979
 21
20508.62448146816
 31
0.0
  0
LINE
  5
184
330
22
100
AcDbEntity
  8
_0-6_仕上
  6
Continuous
 62
     4
100
AcDbLine
 10
9883.952901753472
 20
14515.0789492416
 30
0.0
 11
9883.952901753472
 21
14415.07861932183
 31
0.0
  0
LINE
  5
185
330
22
100
AcDbEntity
  8
_0-6_仕上
  6
Continuous
 62
     4
100
AcDbLine
 10
10283.95669583075
 20
13822.25858065524
 30
0.0
 11
11083.95686079064
 21
13822.25858065524
 31
0.0
  0
LINE
  5
186
330
22
100
AcDbEntity
  8
_0-6_仕上
  6
Continuous
 62
     4
100
AcDbLine
 10
9883.952901753472
 20
14515.0789492416
 30
0.0
 11
10283.95669583075
 21
13822.25858065524
 31
0.0
  0
LINE
  5
187
330
22
100
AcDbEntity
  8
_0-6_仕上
  6
Continuous
 62
     4
100
AcDbLine
 10
36402.91751455964
 20
19765.08389803805
 30
0.0
 11
36402.91751455964
 21
19865.08422795781
 31
0.0
  0
LINE
  5
188
330
22
100
AcDbEntity
  8
_0-6_仕上
  6
Continuous
 62
     4
100
AcDbLine
 10
36802.9188342387
 20
20457.90426662442
 30
0.0
 11
37802.9196590381
 21
20457.90426662442
 31
0.0
  0
LINE
  5
189
330
22
100
AcDbEntity
  8
_0-6_仕上
  6
Continuous
 62
     4
100
AcDbLine
 10
36402.91751455964
 20
19765.08389803805
 30
0.0
 11
36802.9188342387
 21
20457.90426662442
 31
0.0
  0
LINE
  5
18A
330
22
100
AcDbEntity
  8
_0-6_仕上
  6
Continuous
 62
     4
100
AcDbLine
 10
36452.91273072308
 20
17530.08370008619
 30
0.0
 11
36452.91273072308
 21
17630.08403000595
 31
0.0
  0
LINE
  5
18B
330
22
100
AcDbEntity
  8
_0-6_仕上
  6
Continuous
 62
     4
100
AcDbLine
 10
36852.91405040213
 20
18222.90283147344
 30
0.0
 11
37852.91487520153
 21
18222.90283147344
 31
0.0
  0
LINE
  5
18C
330
22
100
AcDbEntity
  8
_0-6_仕上
  6
Continuous
 62
     4
100
AcDbLine
 10
36452.91273072308
 20
17530.08370008619
 30
0.0
 11
36852.91405040213
 21
18222.90283147344
 31
0.0
  0
LINE
  5
18D
330
22
100
AcDbEntity
  8
_0-6_仕上
  6
Continuous
 62
     4
100
AcDbLine
 10
36502.91784447941
 20
15260.07942762525
 30
0.0
 11
36502.91784447941
 21
15360.07975754502
 31
0.0
  0
LINE
  5
18E
330
22
100
AcDbEntity
  8
_0-6_仕上
  6
Continuous
 62
     4
100
AcDbLine
 10
36902.91916415846
 20
15952.89979621161
 30
0.0
 11
37902.91998895787
 21
15952.89979621161
 31
0.0
  0
LINE
  5
18F
330
22
100
AcDbEntity
  8
_0-6_仕上
  6
Continuous
 62
     4
100
AcDbLine
 10
36502.91784447941
 20
15260.07942762525
 30
0.0
 11
36902.91916415846
 21
15952.89979621161
 31
0.0
  0
LINE
  5
190
330
22
100
AcDbEntity
  8
_0-6_仕上
  6
Continuous
 62
     4
100
AcDbLine
 10
18263.20309310693
 20
18529.49438090861
 30
0.0
 11
18663.20317558687
 21
19222.31103789764
 31
0.0
  0
LINE
  5
191
330
22
100
AcDbEntity
  8
_0-6_仕上
  6
Continuous
 62
     4
100
AcDbLine
 10
18263.20309310693
 20
18529.49438090861
 30
0.0
 11
18263.20309310693
 21
18629.49347362927
 31
0.0
  0
LINE
  5
192
330
22
100
AcDbEntity
  8
_0-6_仕上
  6
Continuous
 62
     4
100
AcDbLine
 10
18663.20317558687
 20
19222.31103789764
 30
0.0
 11
18863.2038354264
 21
19222.31103789764
 31
0.0
  0
LINE
  5
193
330
22
100
AcDbEntity
  8
_0-6_仕上
  6
Continuous
 62
     4
100
AcDbLine
 10
18242.06802065656
 20
17830.06984345613
 30
0.0
 11
18642.06810313649
 21
18522.88650044514
 31
0.0
  0
LINE
  5
194
330
22
100
AcDbEntity
  8
_0-6_仕上
  6
Continuous
 62
     4
100
AcDbLine
 10
18242.06802065656
 20
17830.06984345613
 30
0.0
 11
18242.06802065656
 21
17930.07017337589
 31
0.0
  0
LINE
  5
195
330
22
100
AcDbEntity
  8
_0-6_仕上
  6
Continuous
 62
     4
100
AcDbLine
 10
18642.06810313649
 20
18522.88650044514
 30
0.0
 11
18842.06876297602
 21
18522.88650044514
 31
0.0
  0
LINE
  5
196
330
22
100
AcDbEntity
  8
_0-6_仕上
  6
Continuous
 62
     4
100
AcDbLine
 10
9852.837344057105
 20
19778.67824189362
 30
0.0
 11
10252.83866373616
 21
20471.49861047998
 31
0.0
  0
LINE
  5
197
330
22
100
AcDbEntity
  8
_0-6_仕上
  6
Continuous
 62
     4
100
AcDbLine
 10
9852.837344057105
 20
19778.67824189362
 30
0.0
 11
9852.837344057105
 21
19878.67857181339
 31
0.0
  0
LINE
  5
198
330
22
100
AcDbEntity
  8
_0-6_仕上
  6
Continuous
 62
     4
100
AcDbLine
 10
10252.83866373616
 20
20471.49861047998
 30
0.0
 11
12191.90330821462
 21
20471.49861047998
 31
0.0
  0
LINE
  5
199
330
22
100
AcDbEntity
  8
_0-6_仕上
  6
Continuous
 62
     4
100
AcDbLine
 10
12106.82854839621
 20
18317.0252284065
 30
0.0
 11
12506.82986807526
 21
19009.84312259464
 31
0.0
  0
LINE
  5
19A
330
22
100
AcDbEntity
  8
_0-6_仕上
  6
Continuous
 62
     4
100
AcDbLine
 10
12106.82854839621
 20
18317.0252284065
 30
0.0
 11
12106.82854839621
 21
18417.02555832627
 31
0.0
  0
LINE
  5
19B
330
22
100
AcDbEntity
  8
_0-6_仕上
  6
Continuous
 62
     4
100
AcDbLine
 10
12506.82986807526
 20
19009.84312259464
 30
0.0
 11
15514.78258397476
 21
19009.84312259464
 31
0.0
  0
LINE
  5
19C
330
22
100
AcDbEntity
  8
_0-4_ハッチ
  6
Continuous
 62
     5
100
AcDbLine
 10
9252.914545281766
 20
17355.08312272661
 30
0.0
 11
10546.18352226656
 21
15115.07845436195
 31
0.0
  0
LINE
  5
19D
330
22
100
AcDbEntity
  8
_0-4_ハッチ
  6
Continuous
 62
     5
100
AcDbLine
 10
9252.914545281766
 20
15206.58170077242
 30
0.0
 11
10265.07951176192
 21
15206.58170077242
 31
0.0
  0
LINE
  5
19E
330
22
100
AcDbEntity
  8
_0-4_ハッチ
  6
Continuous
 62
     5
100
AcDbLine
 10
9315.081326320619
 20
15115.07845436195
 30
0.0
 11
9315.081326320619
 21
15456.58252557183
 31
0.0
  0
LINE
  5
19F
330
22
100
AcDbEntity
  8
_0-4_ハッチ
  6
Continuous
 62
     5
100
AcDbLine
 10
9415.08165624038
 20
15115.07845436195
 30
0.0
 11
9415.08165624038
 21
15356.58219565207
 31
0.0
  0
LINE
  5
1A0
330
22
100
AcDbEntity
  8
_0-4_ハッチ
  6
Continuous
 62
     5
100
AcDbLine
 10
9515.081986160145
 20
15115.07845436195
 30
0.0
 11
9515.081986160145
 21
15356.58219565207
 31
0.0
  0
LINE
  5
1A1
330
22
100
AcDbEntity
  8
_0-4_ハッチ
  6
Continuous
 62
     5
100
AcDbLine
 10
9615.082316079908
 20
15115.07845436195
 30
0.0
 11
9615.082316079908
 21
15356.58219565207
 31
0.0
  0
LINE
  5
1A2
330
22
100
AcDbEntity
  8
_0-4_ハッチ
  6
Continuous
 62
     5
100
AcDbLine
 10
9715.080171601446
 20
15115.07845436195
 30
0.0
 11
9715.080171601446
 21
15356.58219565207
 31
0.0
  0
LINE
  5
1A3
330
22
100
AcDbEntity
  8
_0-4_ハッチ
  6
Continuous
 62
     5
100
AcDbLine
 10
9815.080501521208
 20
15115.07845436195
 30
0.0
 11
9815.080501521208
 21
15356.58219565207
 31
0.0
  0
LINE
  5
1A4
330
22
100
AcDbEntity
  8
_0-4_ハッチ
  6
Continuous
 62
     5
100
AcDbLine
 10
10265.07951176192
 20
15206.58170077242
 30
0.0
 11
10493.35264573573
 21
15206.58170077242
 31
0.0
  0
LINE
  5
1A5
330
22
100
AcDbEntity
  8
_0-4_ハッチ
  6
Continuous
 62
     5
100
AcDbLine
 10
9252.914545281766
 20
15306.58203069219
 30
0.0
 11
10165.07918184215
 21
15306.58203069219
 31
0.0
  0
LINE
  5
1A6
330
22
100
AcDbEntity
  8
_0-4_ハッチ
  6
Continuous
 62
     5
100
AcDbLine
 10
9915.080831440972
 20
15256.58186573231
 30
0.0
 11
9915.080831440972
 21
15356.58219565207
 31
0.0
  0
LINE
  5
1A7
330
22
100
AcDbEntity
  8
_0-4_ハッチ
  6
Continuous
 62
     5
100
AcDbLine
 10
10015.07868696251
 20
15256.58186573231
 30
0.0
 11
10015.07868696251
 21
15356.58219565207
 31
0.0
  0
LINE
  5
1A8
330
22
100
AcDbEntity
  8
_0-4_ハッチ
  6
Continuous
 62
     5
100
AcDbLine
 10
10115.07901688227
 20
15256.58186573231
 30
0.0
 11
10115.07901688227
 21
15356.58219565207
 31
0.0
  0
LINE
  5
1A9
330
22
100
AcDbEntity
  8
_0-4_ハッチ
  6
Continuous
 62
     5
100
AcDbLine
 10
10165.07918184215
 20
15306.58203069219
 30
0.0
 11
10265.07951176192
 21
15306.58203069219
 31
0.0
  0
LINE
  5
1AA
330
22
100
AcDbEntity
  8
_0-4_ハッチ
  6
Continuous
 62
     5
100
AcDbLine
 10
10215.07934680203
 20
15256.58186573231
 30
0.0
 11
10215.07934680203
 21
15356.58219565207
 31
0.0
  0
LINE
  5
1AB
330
22
100
AcDbEntity
  8
_0-4_ハッチ
  6
Continuous
 62
     5
100
AcDbLine
 10
10315.0796767218
 20
15256.58186573231
 30
0.0
 11
10315.0796767218
 21
15356.58219565207
 31
0.0
  0
LINE
  5
1AC
330
22
100
AcDbEntity
  8
_0-4_ハッチ
  6
Continuous
 62
     5
100
AcDbLine
 10
9252.914545281766
 20
15406.58236061195
 30
0.0
 11
10165.07918184215
 21
15406.58236061195
 31
0.0
  0
LINE
  5
1AD
330
22
100
AcDbEntity
  8
_0-4_ハッチ
  6
Continuous
 62
     5
100
AcDbLine
 10
9415.08165624038
 20
15356.58219565207
 30
0.0
 11
9415.08165624038
 21
15456.58252557183
 31
0.0
  0
LINE
  5
1AE
330
22
100
AcDbEntity
  8
_0-4_ハッチ
  6
Continuous
 62
     5
100
AcDbLine
 10
9515.081986160145
 20
15356.58219565207
 30
0.0
 11
9515.081986160145
 21
15456.58252557183
 31
0.0
  0
LINE
  5
1AF
330
22
100
AcDbEntity
  8
_0-4_ハッチ
  6
Continuous
 62
     5
100
AcDbLine
 10
9615.082316079908
 20
15356.58219565207
 30
0.0
 11
9615.082316079908
 21
15456.58252557183
 31
0.0
  0
LINE
  5
1B0
330
22
100
AcDbEntity
  8
_0-4_ハッチ
  6
Continuous
 62
     5
100
AcDbLine
 10
9715.080171601446
 20
15356.58219565207
 30
0.0
 11
9715.080171601446
 21
15456.58252557183
 31
0.0
  0
LINE
  5
1B1
330
22
100
AcDbEntity
  8
_0-4_ハッチ
  6
Continuous
 62
     5
100
AcDbLine
 10
9815.080501521208
 20
15356.58219565207
 30
0.0
 11
9815.080501521208
 21
15456.58252557183
 31
0.0
  0
LINE
  5
1B2
330
22
100
AcDbEntity
  8
_0-4_ハッチ
  6
Continuous
 62
     5
100
AcDbLine
 10
9915.080831440972
 20
15356.58219565207
 30
0.0
 11
9915.080831440972
 21
15456.58252557183
 31
0.0
  0
LINE
  5
1B3
330
22
100
AcDbEntity
  8
_0-4_ハッチ
  6
Continuous
 62
     5
100
AcDbLine
 10
10015.07868696251
 20
15356.58219565207
 30
0.0
 11
10015.07868696251
 21
15456.58252557183
 31
0.0
  0
LINE
  5
1B4
330
22
100
AcDbEntity
  8
_0-4_ハッチ
  6
Continuous
 62
     5
100
AcDbLine
 10
10115.07901688227
 20
15356.58219565207
 30
0.0
 11
10115.07901688227
 21
15456.58252557183
 31
0.0
  0
LINE
  5
1B5
330
22
100
AcDbEntity
  8
_0-4_ハッチ
  6
Continuous
 62
     5
100
AcDbLine
 10
10165.07918184215
 20
15406.58236061195
 30
0.0
 11
10265.07951176192
 21
15406.58236061195
 31
0.0
  0
LINE
  5
1B6
330
22
100
AcDbEntity
  8
_0-4_ハッチ
  6
Continuous
 62
     5
100
AcDbLine
 10
10215.07934680203
 20
15356.58219565207
 30
0.0
 11
10215.07934680203
 21
15456.58252557183
 31
0.0
  0
LINE
  5
1B7
330
22
100
AcDbEntity
  8
_0-4_ハッチ
  6
Continuous
 62
     5
100
AcDbLine
 10
9252.914545281766
 20
15506.58269053172
 30
0.0
 11
10165.07918184215
 21
15506.58269053172
 31
0.0
  0
LINE
  5
1B8
330
22
100
AcDbEntity
  8
_0-4_ハッチ
  6
Continuous
 62
     5
100
AcDbLine
 10
9315.081326320619
 20
15456.58252557183
 30
0.0
 11
9315.081326320619
 21
15556.5828554916
 31
0.0
  0
LINE
  5
1B9
330
22
100
AcDbEntity
  8
_0-4_ハッチ
  6
Continuous
 62
     5
100
AcDbLine
 10
9415.08165624038
 20
15456.58252557183
 30
0.0
 11
9415.08165624038
 21
15556.5828554916
 31
0.0
  0
LINE
  5
1BA
330
22
100
AcDbEntity
  8
_0-4_ハッチ
  6
Continuous
 62
     5
100
AcDbLine
 10
9515.081986160145
 20
15456.58252557183
 30
0.0
 11
9515.081986160145
 21
15556.5828554916
 31
0.0
  0
LINE
  5
1BB
330
22
100
AcDbEntity
  8
_0-4_ハッチ
  6
Continuous
 62
     5
100
AcDbLine
 10
9615.082316079908
 20
15456.58252557183
 30
0.0
 11
9615.082316079908
 21
15556.5828554916
 31
0.0
  0
LINE
  5
1BC
330
22
100
AcDbEntity
  8
_0-4_ハッチ
  6
Continuous
 62
     5
100
AcDbLine
 10
9715.080171601446
 20
15456.58252557183
 30
0.0
 11
9715.080171601446
 21
15556.5828554916
 31
0.0
  0
LINE
  5
1BD
330
22
100
AcDbEntity
  8
_0-4_ハッチ
  6
Continuous
 62
     5
100
AcDbLine
 10
9815.080501521208
 20
15456.58252557183
 30
0.0
 11
9815.080501521208
 21
15556.5828554916
 31
0.0
  0
LINE
  5
1BE
330
22
100
AcDbEntity
  8
_0-4_ハッチ
  6
Continuous
 62
     5
100
AcDbLine
 10
9915.080831440972
 20
15456.58252557183
 30
0.0
 11
9915.080831440972
 21
15556.5828554916
 31
0.0
  0
LINE
  5
1BF
330
22
100
AcDbEntity
  8
_0-4_ハッチ
  6
Continuous
 62
     5
100
AcDbLine
 10
10015.07868696251
 20
15456.58252557183
 30
0.0
 11
10015.07868696251
 21
15556.5828554916
 31
0.0
  0
LINE
  5
1C0
330
22
100
AcDbEntity
  8
_0-4_ハッチ
  6
Continuous
 62
     5
100
AcDbLine
 10
10115.07901688227
 20
15456.58252557183
 30
0.0
 11
10115.07901688227
 21
15556.5828554916
 31
0.0
  0
LINE
  5
1C1
330
22
100
AcDbEntity
  8
_0-4_ハッチ
  6
Continuous
 62
     5
100
AcDbLine
 10
9252.914545281766
 20
15606.58302045148
 30
0.0
 11
10165.07918184215
 21
15606.58302045148
 31
0.0
  0
LINE
  5
1C2
330
22
100
AcDbEntity
  8
_0-4_ハッチ
  6
Continuous
 62
     5
100
AcDbLine
 10
9315.081326320619
 20
15556.5828554916
 30
0.0
 11
9315.081326320619
 21
15656.58318541136
 31
0.0
  0
LINE
  5
1C3
330
22
100
AcDbEntity
  8
_0-4_ハッチ
  6
Continuous
 62
     5
100
AcDbLine
 10
9415.08165624038
 20
15556.5828554916
 30
0.0
 11
9415.08165624038
 21
15656.58318541136
 31
0.0
  0
LINE
  5
1C4
330
22
100
AcDbEntity
  8
_0-4_ハッチ
  6
Continuous
 62
     5
100
AcDbLine
 10
9515.081986160145
 20
15556.5828554916
 30
0.0
 11
9515.081986160145
 21
15656.58318541136
 31
0.0
  0
LINE
  5
1C5
330
22
100
AcDbEntity
  8
_0-4_ハッチ
  6
Continuous
 62
     5
100
AcDbLine
 10
9615.082316079908
 20
15556.5828554916
 30
0.0
 11
9615.082316079908
 21
15656.58318541136
 31
0.0
  0
LINE
  5
1C6
330
22
100
AcDbEntity
  8
_0-4_ハッチ
  6
Continuous
 62
     5
100
AcDbLine
 10
9715.080171601446
 20
15556.5828554916
 30
0.0
 11
9715.080171601446
 21
15656.58318541136
 31
0.0
  0
LINE
  5
1C7
330
22
100
AcDbEntity
  8
_0-4_ハッチ
  6
Continuous
 62
     5
100
AcDbLine
 10
9815.080501521208
 20
15556.5828554916
 30
0.0
 11
9815.080501521208
 21
15656.58318541136
 31
0.0
  0
LINE
  5
1C8
330
22
100
AcDbEntity
  8
_0-4_ハッチ
  6
Continuous
 62
     5
100
AcDbLine
 10
9915.080831440972
 20
15556.5828554916
 30
0.0
 11
9915.080831440972
 21
15656.58318541136
 31
0.0
  0
LINE
  5
1C9
330
22
100
AcDbEntity
  8
_0-4_ハッチ
  6
Continuous
 62
     5
100
AcDbLine
 10
10015.07868696251
 20
15556.5828554916
 30
0.0
 11
10015.07868696251
 21
15656.58318541136
 31
0.0
  0
LINE
  5
1CA
330
22
100
AcDbEntity
  8
_0-4_ハッチ
  6
Continuous
 62
     5
100
AcDbLine
 10
10115.07901688227
 20
15556.5828554916
 30
0.0
 11
10115.07901688227
 21
15656.58318541136
 31
0.0
  0
LINE
  5
1CB
330
22
100
AcDbEntity
  8
_0-4_ハッチ
  6
Continuous
 62
     5
100
AcDbLine
 10
9252.914545281766
 20
15706.58335037124
 30
0.0
 11
9965.080996400855
 21
15706.58335037124
 31
0.0
  0
LINE
  5
1CC
330
22
100
AcDbEntity
  8
_0-4_ハッチ
  6
Continuous
 62
     5
100
AcDbLine
 10
9315.081326320619
 20
15656.58318541136
 30
0.0
 11
9315.081326320619
 21
15756.58351533113
 31
0.0
  0
LINE
  5
1CD
330
22
100
AcDbEntity
  8
_0-4_ハッチ
  6
Continuous
 62
     5
100
AcDbLine
 10
9415.08165624038
 20
15656.58318541136
 30
0.0
 11
9415.08165624038
 21
15756.58351533113
 31
0.0
  0
LINE
  5
1CE
330
22
100
AcDbEntity
  8
_0-4_ハッチ
  6
Continuous
 62
     5
100
AcDbLine
 10
9515.081986160145
 20
15656.58318541136
 30
0.0
 11
9515.081986160145
 21
15756.58351533113
 31
0.0
  0
LINE
  5
1CF
330
22
100
AcDbEntity
  8
_0-4_ハッチ
  6
Continuous
 62
     5
100
AcDbLine
 10
9615.082316079908
 20
15656.58318541136
 30
0.0
 11
9615.082316079908
 21
15756.58351533113
 31
0.0
  0
LINE
  5
1D0
330
22
100
AcDbEntity
  8
_0-4_ハッチ
  6
Continuous
 62
     5
100
AcDbLine
 10
9715.080171601446
 20
15656.58318541136
 30
0.0
 11
9715.080171601446
 21
15756.58351533113
 31
0.0
  0
LINE
  5
1D1
330
22
100
AcDbEntity
  8
_0-4_ハッチ
  6
Continuous
 62
     5
100
AcDbLine
 10
9815.080501521208
 20
15656.58318541136
 30
0.0
 11
9815.080501521208
 21
15756.58351533113
 31
0.0
  0
LINE
  5
1D2
330
22
100
AcDbEntity
  8
_0-4_ハッチ
  6
Continuous
 62
     5
100
AcDbLine
 10
9915.080831440972
 20
15656.58318541136
 30
0.0
 11
9915.080831440972
 21
15756.58351533113
 31
0.0
  0
LINE
  5
1D3
330
22
100
AcDbEntity
  8
_0-4_ハッチ
  6
Continuous
 62
     5
100
AcDbLine
 10
9965.080996400855
 20
15706.58335037124
 30
0.0
 11
10204.67697665845
 21
15706.58335037124
 31
0.0
  0
LINE
  5
1D4
330
22
100
AcDbEntity
  8
_0-4_ハッチ
  6
Continuous
 62
     5
100
AcDbLine
 10
10015.07868696251
 20
15656.58318541136
 30
0.0
 11
10015.07868696251
 21
15756.58351533113
 31
0.0
  0
LINE
  5
1D5
330
22
100
AcDbEntity
  8
_0-4_ハッチ
  6
Continuous
 62
     5
100
AcDbLine
 10
9252.914545281766
 20
15806.58368029101
 30
0.0
 11
9965.080996400855
 21
15806.58368029101
 31
0.0
  0
LINE
  5
1D6
330
22
100
AcDbEntity
  8
_0-4_ハッチ
  6
Continuous
 62
     5
100
AcDbLine
 10
9315.081326320619
 20
15756.58351533113
 30
0.0
 11
9315.081326320619
 21
15856.58384525089
 31
0.0
  0
LINE
  5
1D7
330
22
100
AcDbEntity
  8
_0-4_ハッチ
  6
Continuous
 62
     5
100
AcDbLine
 10
9415.08165624038
 20
15756.58351533113
 30
0.0
 11
9415.08165624038
 21
15856.58384525089
 31
0.0
  0
LINE
  5
1D8
330
22
100
AcDbEntity
  8
_0-4_ハッチ
  6
Continuous
 62
     5
100
AcDbLine
 10
9515.081986160145
 20
15756.58351533113
 30
0.0
 11
9515.081986160145
 21
15856.58384525089
 31
0.0
  0
LINE
  5
1D9
330
22
100
AcDbEntity
  8
_0-4_ハッチ
  6
Continuous
 62
     5
100
AcDbLine
 10
9615.082316079908
 20
15756.58351533113
 30
0.0
 11
9615.082316079908
 21
15856.58384525089
 31
0.0
  0
LINE
  5
1DA
330
22
100
AcDbEntity
  8
_0-4_ハッチ
  6
Continuous
 62
     5
100
AcDbLine
 10
9715.080171601446
 20
15756.58351533113
 30
0.0
 11
9715.080171601446
 21
15856.58384525089
 31
0.0
  0
LINE
  5
1DB
330
22
100
AcDbEntity
  8
_0-4_ハッチ
  6
Continuous
 62
     5
100
AcDbLine
 10
9815.080501521208
 20
15756.58351533113
 30
0.0
 11
9815.080501521208
 21
15856.58384525089
 31
0.0
  0
LINE
  5
1DC
330
22
100
AcDbEntity
  8
_0-4_ハッチ
  6
Continuous
 62
     5
100
AcDbLine
 10
9915.080831440972
 20
15756.58351533113
 30
0.0
 11
9915.080831440972
 21
15856.58384525089
 31
0.0
  0
LINE
  5
1DD
330
22
100
AcDbEntity
  8
_0-4_ハッチ
  6
Continuous
 62
     5
100
AcDbLine
 10
10015.07868696251
 20
15756.58351533113
 30
0.0
 11
10015.07868696251
 21
15856.58384525089
 31
0.0
  0
LINE
  5
1DE
330
22
100
AcDbEntity
  8
_0-4_ハッチ
  6
Continuous
 62
     5
100
AcDbLine
 10
9252.914545281766
 20
15906.58401021077
 30
0.0
 11
9865.080666481089
 21
15906.58401021077
 31
0.0
  0
LINE
  5
1DF
330
22
100
AcDbEntity
  8
_0-4_ハッチ
  6
Continuous
 62
     5
100
AcDbLine
 10
9315.081326320619
 20
15856.58384525089
 30
0.0
 11
9315.081326320619
 21
15956.58417517065
 31
0.0
  0
LINE
  5
1E0
330
22
100
AcDbEntity
  8
_0-4_ハッチ
  6
Continuous
 62
     5
100
AcDbLine
 10
9415.08165624038
 20
15856.58384525089
 30
0.0
 11
9415.08165624038
 21
15956.58417517065
 31
0.0
  0
LINE
  5
1E1
330
22
100
AcDbEntity
  8
_0-4_ハッチ
  6
Continuous
 62
     5
100
AcDbLine
 10
9515.081986160145
 20
15856.58384525089
 30
0.0
 11
9515.081986160145
 21
15956.58417517065
 31
0.0
  0
LINE
  5
1E2
330
22
100
AcDbEntity
  8
_0-4_ハッチ
  6
Continuous
 62
     5
100
AcDbLine
 10
9615.082316079908
 20
15856.58384525089
 30
0.0
 11
9615.082316079908
 21
15956.58417517065
 31
0.0
  0
LINE
  5
1E3
330
22
100
AcDbEntity
  8
_0-4_ハッチ
  6
Continuous
 62
     5
100
AcDbLine
 10
9715.080171601446
 20
15856.58384525089
 30
0.0
 11
9715.080171601446
 21
15956.58417517065
 31
0.0
  0
LINE
  5
1E4
330
22
100
AcDbEntity
  8
_0-4_ハッチ
  6
Continuous
 62
     5
100
AcDbLine
 10
9815.080501521208
 20
15856.58384525089
 30
0.0
 11
9815.080501521208
 21
15956.58417517065
 31
0.0
  0
LINE
  5
1E5
330
22
100
AcDbEntity
  8
_0-4_ハッチ
  6
Continuous
 62
     5
100
AcDbLine
 10
9865.080666481089
 20
15906.58401021077
 30
0.0
 11
9965.080996400855
 21
15906.58401021077
 31
0.0
  0
LINE
  5
1E6
330
22
100
AcDbEntity
  8
_0-4_ハッチ
  6
Continuous
 62
     5
100
AcDbLine
 10
9915.080831440972
 20
15856.58384525089
 30
0.0
 11
9915.080831440972
 21
15956.58417517065
 31
0.0
  0
LINE
  5
1E7
330
22
100
AcDbEntity
  8
_0-4_ハッチ
  6
Continuous
 62
     5
100
AcDbLine
 10
9252.914545281766
 20
16006.58434013054
 30
0.0
 11
9865.080666481089
 21
16006.58434013054
 31
0.0
  0
LINE
  5
1E8
330
22
100
AcDbEntity
  8
_0-4_ハッチ
  6
Continuous
 62
     5
100
AcDbLine
 10
9315.081326320619
 20
15956.58417517065
 30
0.0
 11
9315.081326320619
 21
16056.58450509041
 31
0.0
  0
LINE
  5
1E9
330
22
100
AcDbEntity
  8
_0-4_ハッチ
  6
Continuous
 62
     5
100
AcDbLine
 10
9415.08165624038
 20
15956.58417517065
 30
0.0
 11
9415.08165624038
 21
16056.58450509041
 31
0.0
  0
LINE
  5
1EA
330
22
100
AcDbEntity
  8
_0-4_ハッチ
  6
Continuous
 62
     5
100
AcDbLine
 10
9515.081986160145
 20
15956.58417517065
 30
0.0
 11
9515.081986160145
 21
16056.58450509041
 31
0.0
  0
LINE
  5
1EB
330
22
100
AcDbEntity
  8
_0-4_ハッチ
  6
Continuous
 62
     5
100
AcDbLine
 10
9615.082316079908
 20
15956.58417517065
 30
0.0
 11
9615.082316079908
 21
16056.58450509041
 31
0.0
  0
LINE
  5
1EC
330
22
100
AcDbEntity
  8
_0-4_ハッチ
  6
Continuous
 62
     5
100
AcDbLine
 10
9715.080171601446
 20
15956.58417517065
 30
0.0
 11
9715.080171601446
 21
16056.58450509041
 31
0.0
  0
LINE
  5
1ED
330
22
100
AcDbEntity
  8
_0-4_ハッチ
  6
Continuous
 62
     5
100
AcDbLine
 10
9815.080501521208
 20
15956.58417517065
 30
0.0
 11
9815.080501521208
 21
16056.58450509041
 31
0.0
  0
LINE
  5
1EE
330
22
100
AcDbEntity
  8
_0-4_ハッチ
  6
Continuous
 62
     5
100
AcDbLine
 10
9252.914545281766
 20
16106.5846700503
 30
0.0
 11
9765.080336561327
 21
16106.5846700503
 31
0.0
  0
LINE
  5
1EF
330
22
100
AcDbEntity
  8
_0-4_ハッチ
  6
Continuous
 62
     5
100
AcDbLine
 10
9315.081326320619
 20
16056.58450509041
 30
0.0
 11
9315.081326320619
 21
16156.58483501018
 31
0.0
  0
LINE
  5
1F0
330
22
100
AcDbEntity
  8
_0-4_ハッチ
  6
Continuous
 62
     5
100
AcDbLine
 10
9415.08165624038
 20
16056.58450509041
 30
0.0
 11
9415.08165624038
 21
16156.58483501018
 31
0.0
  0
LINE
  5
1F1
330
22
100
AcDbEntity
  8
_0-4_ハッチ
  6
Continuous
 62
     5
100
AcDbLine
 10
9515.081986160145
 20
16056.58450509041
 30
0.0
 11
9515.081986160145
 21
16156.58483501018
 31
0.0
  0
LINE
  5
1F2
330
22
100
AcDbEntity
  8
_0-4_ハッチ
  6
Continuous
 62
     5
100
AcDbLine
 10
9615.082316079908
 20
16056.58450509041
 30
0.0
 11
9615.082316079908
 21
16156.58483501018
 31
0.0
  0
LINE
  5
1F3
330
22
100
AcDbEntity
  8
_0-4_ハッチ
  6
Continuous
 62
     5
100
AcDbLine
 10
9715.080171601446
 20
16056.58450509041
 30
0.0
 11
9715.080171601446
 21
16156.58483501018
 31
0.0
  0
LINE
  5
1F4
330
22
100
AcDbEntity
  8
_0-4_ハッチ
  6
Continuous
 62
     5
100
AcDbLine
 10
9815.080501521208
 20
16056.58450509041
 30
0.0
 11
9815.080501521208
 21
16156.58483501018
 31
0.0
  0
LINE
  5
1F5
330
22
100
AcDbEntity
  8
_0-4_ハッチ
  6
Continuous
 62
     5
100
AcDbLine
 10
9765.080336561327
 20
16106.5846700503
 30
0.0
 11
9973.736441396628
 21
16106.5846700503
 31
0.0
  0
LINE
  5
1F6
330
22
100
AcDbEntity
  8
_0-4_ハッチ
  6
Continuous
 62
     5
100
AcDbLine
 10
9915.080831440972
 20
15956.58417517065
 30
0.0
 11
9915.080831440972
 21
16208.17851242783
 31
0.0
  0
LINE
  5
1F7
330
22
100
AcDbEntity
  8
_0-4_ハッチ
  6
Continuous
 62
     5
100
AcDbLine
 10
9252.914545281766
 20
16206.58499997006
 30
0.0
 11
9765.080336561327
 21
16206.58499997006
 31
0.0
  0
LINE
  5
1F8
330
22
100
AcDbEntity
  8
_0-4_ハッチ
  6
Continuous
 62
     5
100
AcDbLine
 10
9315.081326320619
 20
16156.58483501018
 30
0.0
 11
9315.081326320619
 21
16256.58516492994
 31
0.0
  0
LINE
  5
1F9
330
22
100
AcDbEntity
  8
_0-4_ハッチ
  6
Continuous
 62
     5
100
AcDbLine
 10
9415.08165624038
 20
16156.58483501018
 30
0.0
 11
9415.08165624038
 21
16256.58516492994
 31
0.0
  0
LINE
  5
1FA
330
22
100
AcDbEntity
  8
_0-4_ハッチ
  6
Continuous
 62
     5
100
AcDbLine
 10
9515.081986160145
 20
16156.58483501018
 30
0.0
 11
9515.081986160145
 21
16256.58516492994
 31
0.0
  0
LINE
  5
1FB
330
22
100
AcDbEntity
  8
_0-4_ハッチ
  6
Continuous
 62
     5
100
AcDbLine
 10
9615.082316079908
 20
16156.58483501018
 30
0.0
 11
9615.082316079908
 21
16256.58516492994
 31
0.0
  0
LINE
  5
1FC
330
22
100
AcDbEntity
  8
_0-4_ハッチ
  6
Continuous
 62
     5
100
AcDbLine
 10
9715.080171601446
 20
16156.58483501018
 30
0.0
 11
9715.080171601446
 21
16256.58516492994
 31
0.0
  0
LINE
  5
1FD
330
22
100
AcDbEntity
  8
_0-4_ハッチ
  6
Continuous
 62
     5
100
AcDbLine
 10
9252.914545281766
 20
16306.58532988983
 30
0.0
 11
9665.080006641563
 21
16306.58532988983
 31
0.0
  0
LINE
  5
1FE
330
22
100
AcDbEntity
  8
_0-4_ハッチ
  6
Continuous
 62
     5
100
AcDbLine
 10
9315.081326320619
 20
16256.58516492994
 30
0.0
 11
9315.081326320619
 21
16356.5854948497
 31
0.0
  0
LINE
  5
1FF
330
22
100
AcDbEntity
  8
_0-4_ハッチ
  6
Continuous
 62
     5
100
AcDbLine
 10
9415.08165624038
 20
16256.58516492994
 30
0.0
 11
9415.08165624038
 21
16356.5854948497
 31
0.0
  0
LINE
  5
200
330
22
100
AcDbEntity
  8
_0-4_ハッチ
  6
Continuous
 62
     5
100
AcDbLine
 10
9515.081986160145
 20
16256.58516492994
 30
0.0
 11
9515.081986160145
 21
16356.5854948497
 31
0.0
  0
LINE
  5
201
330
22
100
AcDbEntity
  8
_0-4_ハッチ
  6
Continuous
 62
     5
100
AcDbLine
 10
9615.082316079908
 20
16256.58516492994
 30
0.0
 11
9615.082316079908
 21
16356.5854948497
 31
0.0
  0
LINE
  5
202
330
22
100
AcDbEntity
  8
_0-4_ハッチ
  6
Continuous
 62
     5
100
AcDbLine
 10
9252.914545281766
 20
16406.58565980959
 30
0.0
 11
9800.528565552037
 21
16406.58565980959
 31
0.0
  0
LINE
  5
203
330
22
100
AcDbEntity
  8
_0-4_ハッチ
  6
Continuous
 62
     5
100
AcDbLine
 10
9315.081326320619
 20
16356.5854948497
 30
0.0
 11
9315.081326320619
 21
16456.58582476946
 31
0.0
  0
LINE
  5
204
330
22
100
AcDbEntity
  8
_0-4_ハッチ
  6
Continuous
 62
     5
100
AcDbLine
 10
9415.08165624038
 20
16356.5854948497
 30
0.0
 11
9415.08165624038
 21
16456.58582476946
 31
0.0
  0
LINE
  5
205
330
22
100
AcDbEntity
  8
_0-4_ハッチ
  6
Continuous
 62
     5
100
AcDbLine
 10
9515.081986160145
 20
16356.5854948497
 30
0.0
 11
9515.081986160145
 21
16456.58582476946
 31
0.0
  0
LINE
  5
206
330
22
100
AcDbEntity
  8
_0-4_ハッチ
  6
Continuous
 62
     5
100
AcDbLine
 10
9615.082316079908
 20
16356.5854948497
 30
0.0
 11
9615.082316079908
 21
16456.58582476946
 31
0.0
  0
LINE
  5
207
330
22
100
AcDbEntity
  8
_0-4_ハッチ
  6
Continuous
 62
     5
100
AcDbLine
 10
9715.080171601446
 20
16256.58516492994
 30
0.0
 11
9715.080171601446
 21
16554.58807812145
 31
0.0
  0
LINE
  5
208
330
22
100
AcDbEntity
  8
_0-4_ハッチ
  6
Continuous
 62
     5
100
AcDbLine
 10
9252.914545281766
 20
16506.58598972935
 30
0.0
 11
9742.795906134807
 21
16506.58598972935
 31
0.0
  0
LINE
  5
209
330
22
100
AcDbEntity
  8
_0-4_ハッチ
  6
Continuous
 62
     5
100
AcDbLine
 10
9315.081326320619
 20
16456.58582476946
 30
0.0
 11
9315.081326320619
 21
16556.58615468923
 31
0.0
  0
LINE
  5
20A
330
22
100
AcDbEntity
  8
_0-4_ハッチ
  6
Continuous
 62
     5
100
AcDbLine
 10
9415.08165624038
 20
16456.58582476946
 30
0.0
 11
9415.08165624038
 21
16556.58615468923
 31
0.0
  0
LINE
  5
20B
330
22
100
AcDbEntity
  8
_0-4_ハッチ
  6
Continuous
 62
     5
100
AcDbLine
 10
9515.081986160145
 20
16456.58582476946
 30
0.0
 11
9515.081986160145
 21
16556.58615468923
 31
0.0
  0
LINE
  5
20C
330
22
100
AcDbEntity
  8
_0-4_ハッチ
  6
Continuous
 62
     5
100
AcDbLine
 10
9252.914545281766
 20
16606.58631964911
 30
0.0
 11
9685.058297921125
 21
16606.58631964911
 31
0.0
  0
LINE
  5
20D
330
22
100
AcDbEntity
  8
_0-4_ハッチ
  6
Continuous
 62
     5
100
AcDbLine
 10
9315.081326320619
 20
16556.58615468923
 30
0.0
 11
9315.081326320619
 21
16656.586484609
 31
0.0
  0
LINE
  5
20E
330
22
100
AcDbEntity
  8
_0-4_ハッチ
  6
Continuous
 62
     5
100
AcDbLine
 10
9415.08165624038
 20
16556.58615468923
 30
0.0
 11
9415.08165624038
 21
16656.586484609
 31
0.0
  0
LINE
  5
20F
330
22
100
AcDbEntity
  8
_0-4_ハッチ
  6
Continuous
 62
     5
100
AcDbLine
 10
9615.082316079908
 20
16456.58582476946
 30
0.0
 11
9615.082316079908
 21
16727.79224236871
 31
0.0
  0
LINE
  5
210
330
22
100
AcDbEntity
  8
_0-4_ハッチ
  6
Continuous
 62
     5
100
AcDbLine
 10
9252.914545281766
 20
16706.58664956888
 30
0.0
 11
9627.325638503897
 21
16706.58664956888
 31
0.0
  0
LINE
  5
211
330
22
100
AcDbEntity
  8
_0-4_ハッチ
  6
Continuous
 62
     5
100
AcDbLine
 10
9315.081326320619
 20
16656.586484609
 30
0.0
 11
9315.081326320619
 21
16756.58681452876
 31
0.0
  0
LINE
  5
212
330
22
100
AcDbEntity
  8
_0-4_ハッチ
  6
Continuous
 62
     5
100
AcDbLine
 10
9415.08165624038
 20
16656.586484609
 30
0.0
 11
9415.08165624038
 21
16756.58681452876
 31
0.0
  0
LINE
  5
213
330
22
100
AcDbEntity
  8
_0-4_ハッチ
  6
Continuous
 62
     5
100
AcDbLine
 10
9515.081986160145
 20
16556.58615468923
 30
0.0
 11
9515.081986160145
 21
16900.99764381508
 31
0.0
  0
LINE
  5
214
330
22
100
AcDbEntity
  8
_0-4_ハッチ
  6
Continuous
 62
     5
100
AcDbLine
 10
9252.914545281766
 20
16806.58697948864
 30
0.0
 11
9569.588030290214
 21
16806.58697948864
 31
0.0
  0
LINE
  5
215
330
22
100
AcDbEntity
  8
_0-4_ハッチ
  6
Continuous
 62
     5
100
AcDbLine
 10
9315.081326320619
 20
16756.58681452876
 30
0.0
 11
9315.081326320619
 21
16856.58714444852
 31
0.0
  0
LINE
  5
216
330
22
100
AcDbEntity
  8
_0-4_ハッチ
  6
Continuous
 62
     5
100
AcDbLine
 10
9415.08165624038
 20
16756.58681452876
 30
0.0
 11
9415.08165624038
 21
17074.20180806233
 31
0.0
  0
LINE
  5
217
330
22
100
AcDbEntity
  8
_0-4_ハッチ
  6
Continuous
 62
     5
100
AcDbLine
 10
9315.081326320619
 20
16856.58714444852
 30
0.0
 11
9315.081326320619
 21
17247.40597230959
 31
0.0
  0
LINE
  5
218
330
22
100
AcDbEntity
  8
_0-4_ハッチ
  6
Continuous
 62
     5
100
AcDbLine
 10
9915.080831440972
 20
15115.07845436195
 30
0.0
 11
9915.080831440972
 21
15256.58186573231
 31
0.0
  0
LINE
  5
219
330
22
100
AcDbEntity
  8
_0-4_ハッチ
  6
Continuous
 62
     5
100
AcDbLine
 10
10015.07868696251
 20
15115.07845436195
 30
0.0
 11
10015.07868696251
 21
15256.58186573231
 31
0.0
  0
LINE
  5
21A
330
22
100
AcDbEntity
  8
_0-4_ハッチ
  6
Continuous
 62
     5
100
AcDbLine
 10
10115.07901688227
 20
15115.07845436195
 30
0.0
 11
10115.07901688227
 21
15256.58186573231
 31
0.0
  0
LINE
  5
21B
330
22
100
AcDbEntity
  8
_0-4_ハッチ
  6
Continuous
 62
     5
100
AcDbLine
 10
10215.07934680203
 20
15115.07845436195
 30
0.0
 11
10215.07934680203
 21
15256.58186573231
 31
0.0
  0
LINE
  5
21C
330
22
100
AcDbEntity
  8
_0-4_ハッチ
  6
Continuous
 62
     5
100
AcDbLine
 10
10315.0796767218
 20
15115.07845436195
 30
0.0
 11
10315.0796767218
 21
15256.58186573231
 31
0.0
  0
LINE
  5
21D
330
22
100
AcDbEntity
  8
_0-4_ハッチ
  6
Continuous
 62
     5
100
AcDbLine
 10
10265.07951176192
 20
15406.58236061195
 30
0.0
 11
10377.88237810482
 21
15406.58236061195
 31
0.0
  0
LINE
  5
21E
330
22
100
AcDbEntity
  8
_0-4_ハッチ
  6
Continuous
 62
     5
100
AcDbLine
 10
10315.0796767218
 20
15356.58219565207
 30
0.0
 11
10315.0796767218
 21
15515.3606182397
 31
0.0
  0
LINE
  5
21F
330
22
100
AcDbEntity
  8
_0-4_ハッチ
  6
Continuous
 62
     5
100
AcDbLine
 10
10165.07918184215
 20
15506.58269053172
 30
0.0
 11
10320.14724428937
 21
15506.58269053172
 31
0.0
  0
LINE
  5
220
330
22
100
AcDbEntity
  8
_0-4_ハッチ
  6
Continuous
 62
     5
100
AcDbLine
 10
10115.07901688227
 20
15656.58318541136
 30
0.0
 11
10115.07901688227
 21
15861.77018393332
 31
0.0
  0
LINE
  5
221
330
22
100
AcDbEntity
  8
_0-4_ハッチ
  6
Continuous
 62
     5
100
AcDbLine
 10
9965.080996400855
 20
15806.58368029101
 30
0.0
 11
10146.941842843
 21
15806.58368029101
 31
0.0
  0
LINE
  5
222
330
22
100
AcDbEntity
  8
_0-4_ハッチ
  6
Continuous
 62
     5
100
AcDbLine
 10
9965.080996400855
 20
15906.58401021077
 30
0.0
 11
10089.20670902754
 21
15906.58401021077
 31
0.0
  0
LINE
  5
223
330
22
100
AcDbEntity
  8
_0-4_ハッチ
  6
Continuous
 62
     5
100
AcDbLine
 10
10015.07868696251
 20
15856.58384525089
 30
0.0
 11
10015.07868696251
 21
16034.97434818058
 31
0.0
  0
LINE
  5
224
330
22
100
AcDbEntity
  8
_0-4_ハッチ
  6
Continuous
 62
     5
100
AcDbLine
 10
9865.080666481089
 20
16006.58434013054
 30
0.0
 11
10031.47157521209
 21
16006.58434013054
 31
0.0
  0
LINE
  5
225
330
22
100
AcDbEntity
  8
_0-4_ハッチ
  6
Continuous
 62
     5
100
AcDbLine
 10
9765.080336561327
 20
16206.58499997006
 30
0.0
 11
9916.001307581176
 21
16206.58499997006
 31
0.0
  0
LINE
  5
226
330
22
100
AcDbEntity
  8
_0-4_ハッチ
  6
Continuous
 62
     5
100
AcDbLine
 10
9815.080501521208
 20
16156.58483501018
 30
0.0
 11
9815.080501521208
 21
16381.3839138742
 31
0.0
  0
LINE
  5
227
330
22
100
AcDbEntity
  8
_0-4_ハッチ
  6
Continuous
 62
     5
100
AcDbLine
 10
9665.080006641563
 20
16306.58532988983
 30
0.0
 11
9858.26617376572
 21
16306.58532988983
 31
0.0
  0
LINE
  5
228
330
22
100
AcDbEntity
  8
_0-4_ハッチ
  6
Continuous
 62
     5
100
AcDbLine
 10
9252.914545281766
 20
16906.58730940841
 30
0.0
 11
9511.852896474753
 21
16906.58730940841
 31
0.0
  0
LINE
  5
229
330
22
100
AcDbEntity
  8
_0-4_ハッチ
  6
Continuous
 62
     5
100
AcDbLine
 10
10215.07934680203
 20
15456.58252557183
 30
0.0
 11
10215.07934680203
 21
15688.56478248695
 31
0.0
  0
LINE
  5
22A
330
22
100
AcDbEntity
  8
_0-4_ハッチ
  6
Continuous
 62
     5
100
AcDbLine
 10
10415.08000664156
 20
15115.07845436195
 30
0.0
 11
10415.08000664156
 21
15342.15645399244
 31
0.0
  0
LINE
  5
22B
330
22
100
AcDbEntity
  8
_0-4_ハッチ
  6
Continuous
 62
     5
100
AcDbLine
 10
10265.07951176192
 20
15306.58203069219
 30
0.0
 11
10435.61751192028
 21
15306.58203069219
 31
0.0
  0
LINE
  5
22C
330
22
100
AcDbEntity
  8
_0-4_ハッチ
  6
Continuous
 62
     5
100
AcDbLine
 10
9252.914545281766
 20
17006.58763932817
 30
0.0
 11
9454.117762659299
 21
17006.58763932817
 31
0.0
  0
LINE
  5
22D
330
22
100
AcDbEntity
  8
_0-4_ハッチ
  6
Continuous
 62
     5
100
AcDbLine
 10
9252.914545281766
 20
17106.58796924793
 30
0.0
 11
9396.382628843843
 21
17106.58796924793
 31
0.0
  0
LINE
  5
22E
330
22
100
AcDbEntity
  8
_0-4_ハッチ
  6
Continuous
 62
     5
100
AcDbLine
 10
9252.914545281766
 20
17206.5882991677
 30
0.0
 11
9338.647495028387
 21
17206.5882991677
 31
0.0
  0
LINE
  5
22F
330
22
100
AcDbEntity
  8
_0-4_ハッチ
  6
Continuous
 62
     5
100
AcDbLine
 10
30115.08314087932
 20
15556.5828554916
 30
0.0
 11
30115.08314087932
 21
15656.58318541136
 31
0.0
  0
LINE
  5
230
330
22
100
AcDbEntity
  8
_0-4_ハッチ
  6
Continuous
 62
     5
100
AcDbLine
 10
30115.08561527754
 20
15656.58318541136
 30
0.0
 11
30115.08561527754
 21
15756.58351533113
 31
0.0
  0
LINE
  5
231
330
22
100
AcDbEntity
  8
_0-4_ハッチ
  6
Continuous
 62
     5
100
AcDbLine
 10
29965.0851203979
 20
15806.58368029101
 30
0.0
 11
30065.08545031767
 21
15806.58368029101
 31
0.0
  0
LINE
  5
232
330
22
100
AcDbEntity
  8
_0-4_ハッチ
  6
Continuous
 62
     5
100
AcDbLine
 10
30015.08528535778
 20
15756.58351533113
 30
0.0
 11
30015.08528535778
 21
15856.58384525089
 31
0.0
  0
LINE
  5
233
330
22
100
AcDbEntity
  8
_0-4_ハッチ
  6
Continuous
 62
     5
100
AcDbLine
 10
30115.08561527754
 20
15756.58351533113
 30
0.0
 11
30115.08561527754
 21
15856.58384525089
 31
0.0
  0
LINE
  5
234
330
22
100
AcDbEntity
  8
_0-4_ハッチ
  6
Continuous
 62
     5
100
AcDbLine
 10
29915.08495543802
 20
15856.58384525089
 30
0.0
 11
29915.08495543802
 21
15956.58417517065
 31
0.0
  0
LINE
  5
235
330
22
100
AcDbEntity
  8
_0-4_ハッチ
  6
Continuous
 62
     5
100
AcDbLine
 10
29965.0851203979
 20
15906.58401021077
 30
0.0
 11
30065.08545031767
 21
15906.58401021077
 31
0.0
  0
LINE
  5
236
330
22
100
AcDbEntity
  8
_0-4_ハッチ
  6
Continuous
 62
     5
100
AcDbLine
 10
30015.08528535778
 20
15856.58384525089
 30
0.0
 11
30015.08528535778
 21
15956.58417517065
 31
0.0
  0
LINE
  5
237
330
22
100
AcDbEntity
  8
_0-4_ハッチ
  6
Continuous
 62
     5
100
AcDbLine
 10
30115.08561527754
 20
15856.58384525089
 30
0.0
 11
30115.08561527754
 21
15956.58417517065
 31
0.0
  0
LINE
  5
238
330
22
100
AcDbEntity
  8
_0-4_ハッチ
  6
Continuous
 62
     5
100
AcDbLine
 10
29865.08479047813
 20
16006.58434013054
 30
0.0
 11
29965.0851203979
 21
16006.58434013054
 31
0.0
  0
LINE
  5
239
330
22
100
AcDbEntity
  8
_0-4_ハッチ
  6
Continuous
 62
     5
100
AcDbLine
 10
29915.08495543802
 20
15956.58417517065
 30
0.0
 11
29915.08495543802
 21
16056.58450509041
 31
0.0
  0
LINE
  5
23A
330
22
100
AcDbEntity
  8
_0-4_ハッチ
  6
Continuous
 62
     5
100
AcDbLine
 10
29965.0851203979
 20
16006.58434013054
 30
0.0
 11
30065.08545031767
 21
16006.58434013054
 31
0.0
  0
LINE
  5
23B
330
22
100
AcDbEntity
  8
_0-4_ハッチ
  6
Continuous
 62
     5
100
AcDbLine
 10
30015.08528535778
 20
15956.58417517065
 30
0.0
 11
30015.08528535778
 21
16056.58450509041
 31
0.0
  0
LINE
  5
23C
330
22
100
AcDbEntity
  8
_0-4_ハッチ
  6
Continuous
 62
     5
100
AcDbLine
 10
30115.08561527754
 20
15956.58417517065
 30
0.0
 11
30115.08561527754
 21
16056.58450509041
 31
0.0
  0
LINE
  5
23D
330
22
100
AcDbEntity
  8
_0-4_ハッチ
  6
Continuous
 62
     5
100
AcDbLine
 10
29815.08462551825
 20
16056.58450509041
 30
0.0
 11
29815.08462551825
 21
16156.58483501018
 31
0.0
  0
LINE
  5
23E
330
22
100
AcDbEntity
  8
_0-4_ハッチ
  6
Continuous
 62
     5
100
AcDbLine
 10
29865.08479047813
 20
16106.5846700503
 30
0.0
 11
29965.0851203979
 21
16106.5846700503
 31
0.0
  0
LINE
  5
23F
330
22
100
AcDbEntity
  8
_0-4_ハッチ
  6
Continuous
 62
     5
100
AcDbLine
 10
29915.08495543802
 20
16056.58450509041
 30
0.0
 11
29915.08495543802
 21
16156.58483501018
 31
0.0
  0
LINE
  5
240
330
22
100
AcDbEntity
  8
_0-4_ハッチ
  6
Continuous
 62
     5
100
AcDbLine
 10
29965.0851203979
 20
16106.5846700503
 30
0.0
 11
30065.08545031767
 21
16106.5846700503
 31
0.0
  0
LINE
  5
241
330
22
100
AcDbEntity
  8
_0-4_ハッチ
  6
Continuous
 62
     5
100
AcDbLine
 10
30015.08528535778
 20
16056.58450509041
 30
0.0
 11
30015.08528535778
 21
16156.58483501018
 31
0.0
  0
LINE
  5
242
330
22
100
AcDbEntity
  8
_0-4_ハッチ
  6
Continuous
 62
     5
100
AcDbLine
 10
30115.08561527754
 20
16056.58450509041
 30
0.0
 11
30115.08561527754
 21
16156.58483501018
 31
0.0
  0
LINE
  5
243
330
22
100
AcDbEntity
  8
_0-4_ハッチ
  6
Continuous
 62
     5
100
AcDbLine
 10
29715.08429559849
 20
16046.63123822492
 30
0.0
 11
29715.08429559849
 21
16356.5854948497
 31
0.0
  0
LINE
  5
244
330
22
100
AcDbEntity
  8
_0-4_ハッチ
  6
Continuous
 62
     5
100
AcDbLine
 10
29765.08446055838
 20
16206.58499997006
 30
0.0
 11
29865.08479047813
 21
16206.58499997006
 31
0.0
  0
LINE
  5
245
330
22
100
AcDbEntity
  8
_0-4_ハッチ
  6
Continuous
 62
     5
100
AcDbLine
 10
29815.08462551825
 20
16156.58483501018
 30
0.0
 11
29815.08462551825
 21
16256.58516492994
 31
0.0
  0
LINE
  5
246
330
22
100
AcDbEntity
  8
_0-4_ハッチ
  6
Continuous
 62
     5
100
AcDbLine
 10
29865.08479047813
 20
16206.58499997006
 30
0.0
 11
29965.0851203979
 21
16206.58499997006
 31
0.0
  0
LINE
  5
247
330
22
100
AcDbEntity
  8
_0-4_ハッチ
  6
Continuous
 62
     5
100
AcDbLine
 10
29915.08495543802
 20
16156.58483501018
 30
0.0
 11
29915.08495543802
 21
16256.58516492994
 31
0.0
  0
LINE
  5
248
330
22
100
AcDbEntity
  8
_0-4_ハッチ
  6
Continuous
 62
     5
100
AcDbLine
 10
29965.0851203979
 20
16206.58499997006
 30
0.0
 11
30065.08545031767
 21
16206.58499997006
 31
0.0
  0
LINE
  5
249
330
22
100
AcDbEntity
  8
_0-4_ハッチ
  6
Continuous
 62
     5
100
AcDbLine
 10
30015.08528535778
 20
16156.58483501018
 30
0.0
 11
30015.08528535778
 21
16256.58516492994
 31
0.0
  0
LINE
  5
24A
330
22
100
AcDbEntity
  8
_0-4_ハッチ
  6
Continuous
 62
     5
100
AcDbLine
 10
30115.08561527754
 20
16156.58483501018
 30
0.0
 11
30115.08561527754
 21
16256.58516492994
 31
0.0
  0
LINE
  5
24B
330
22
100
AcDbEntity
  8
_0-4_ハッチ
  6
Continuous
 62
     5
100
AcDbLine
 10
29665.08413063861
 20
16306.58532988983
 30
0.0
 11
29765.08446055838
 21
16306.58532988983
 31
0.0
  0
LINE
  5
24C
330
22
100
AcDbEntity
  8
_0-4_ハッチ
  6
Continuous
 62
     5
100
AcDbLine
 10
29765.08446055838
 20
16306.58532988983
 30
0.0
 11
29865.08479047813
 21
16306.58532988983
 31
0.0
  0
LINE
  5
24D
330
22
100
AcDbEntity
  8
_0-4_ハッチ
  6
Continuous
 62
     5
100
AcDbLine
 10
29815.08462551825
 20
16256.58516492994
 30
0.0
 11
29815.08462551825
 21
16356.5854948497
 31
0.0
  0
LINE
  5
24E
330
22
100
AcDbEntity
  8
_0-4_ハッチ
  6
Continuous
 62
     5
100
AcDbLine
 10
29865.08479047813
 20
16306.58532988983
 30
0.0
 11
29965.0851203979
 21
16306.58532988983
 31
0.0
  0
LINE
  5
24F
330
22
100
AcDbEntity
  8
_0-4_ハッチ
  6
Continuous
 62
     5
100
AcDbLine
 10
29915.08495543802
 20
16256.58516492994
 30
0.0
 11
29915.08495543802
 21
16356.5854948497
 31
0.0
  0
LINE
  5
250
330
22
100
AcDbEntity
  8
_0-4_ハッチ
  6
Continuous
 62
     5
100
AcDbLine
 10
29965.0851203979
 20
16306.58532988983
 30
0.0
 11
30065.08545031767
 21
16306.58532988983
 31
0.0
  0
LINE
  5
251
330
22
100
AcDbEntity
  8
_0-4_ハッチ
  6
Continuous
 62
     5
100
AcDbLine
 10
30015.08528535778
 20
16256.58516492994
 30
0.0
 11
30015.08528535778
 21
16356.5854948497
 31
0.0
  0
LINE
  5
252
330
22
100
AcDbEntity
  8
_0-4_ハッチ
  6
Continuous
 62
     5
100
AcDbLine
 10
30115.08561527754
 20
16256.58516492994
 30
0.0
 11
30115.08561527754
 21
16356.5854948497
 31
0.0
  0
LINE
  5
253
330
22
100
AcDbEntity
  8
_0-4_ハッチ
  6
Continuous
 62
     5
100
AcDbLine
 10
29615.08396567873
 20
16356.5854948497
 30
0.0
 11
29615.08396567873
 21
16456.58582476946
 31
0.0
  0
LINE
  5
254
330
22
100
AcDbEntity
  8
_0-4_ハッチ
  6
Continuous
 62
     5
100
AcDbLine
 10
29665.08413063861
 20
16406.58565980959
 30
0.0
 11
29765.08446055838
 21
16406.58565980959
 31
0.0
  0
LINE
  5
255
330
22
100
AcDbEntity
  8
_0-4_ハッチ
  6
Continuous
 62
     5
100
AcDbLine
 10
29715.08429559849
 20
16356.5854948497
 30
0.0
 11
29715.08429559849
 21
16456.58582476946
 31
0.0
  0
LINE
  5
256
330
22
100
AcDbEntity
  8
_0-4_ハッチ
  6
Continuous
 62
     5
100
AcDbLine
 10
29765.08446055838
 20
16406.58565980959
 30
0.0
 11
29865.08479047813
 21
16406.58565980959
 31
0.0
  0
LINE
  5
257
330
22
100
AcDbEntity
  8
_0-4_ハッチ
  6
Continuous
 62
     5
100
AcDbLine
 10
29815.08462551825
 20
16356.5854948497
 30
0.0
 11
29815.08462551825
 21
16456.58582476946
 31
0.0
  0
LINE
  5
258
330
22
100
AcDbEntity
  8
_0-4_ハッチ
  6
Continuous
 62
     5
100
AcDbLine
 10
29865.08479047813
 20
16406.58565980959
 30
0.0
 11
29965.0851203979
 21
16406.58565980959
 31
0.0
  0
LINE
  5
259
330
22
100
AcDbEntity
  8
_0-4_ハッチ
  6
Continuous
 62
     5
100
AcDbLine
 10
29915.08495543802
 20
16356.5854948497
 30
0.0
 11
29915.08495543802
 21
16456.58582476946
 31
0.0
  0
LINE
  5
25A
330
22
100
AcDbEntity
  8
_0-4_ハッチ
  6
Continuous
 62
     5
100
AcDbLine
 10
29965.0851203979
 20
16406.58565980959
 30
0.0
 11
30065.08545031767
 21
16406.58565980959
 31
0.0
  0
LINE
  5
25B
330
22
100
AcDbEntity
  8
_0-4_ハッチ
  6
Continuous
 62
     5
100
AcDbLine
 10
30015.08528535778
 20
16356.5854948497
 30
0.0
 11
30015.08528535778
 21
16456.58582476946
 31
0.0
  0
LINE
  5
25C
330
22
100
AcDbEntity
  8
_0-4_ハッチ
  6
Continuous
 62
     5
100
AcDbLine
 10
30115.08561527754
 20
16356.5854948497
 30
0.0
 11
30115.08561527754
 21
16456.58582476946
 31
0.0
  0
LINE
  5
25D
330
22
100
AcDbEntity
  8
_0-4_ハッチ
  6
Continuous
 62
     5
100
AcDbLine
 10
29565.08380071884
 20
16506.58598972935
 30
0.0
 11
29665.08413063861
 21
16506.58598972935
 31
0.0
  0
LINE
  5
25E
330
22
100
AcDbEntity
  8
_0-4_ハッチ
  6
Continuous
 62
     5
100
AcDbLine
 10
29615.08396567873
 20
16456.58582476946
 30
0.0
 11
29615.08396567873
 21
16556.58615468923
 31
0.0
  0
LINE
  5
25F
330
22
100
AcDbEntity
  8
_0-4_ハッチ
  6
Continuous
 62
     5
100
AcDbLine
 10
29665.08413063861
 20
16506.58598972935
 30
0.0
 11
29765.08446055838
 21
16506.58598972935
 31
0.0
  0
LINE
  5
260
330
22
100
AcDbEntity
  8
_0-4_ハッチ
  6
Continuous
 62
     5
100
AcDbLine
 10
29715.08429559849
 20
16456.58582476946
 30
0.0
 11
29715.08429559849
 21
16556.58615468923
 31
0.0
  0
LINE
  5
261
330
22
100
AcDbEntity
  8
_0-4_ハッチ
  6
Continuous
 62
     5
100
AcDbLine
 10
29765.08446055838
 20
16506.58598972935
 30
0.0
 11
29865.08479047813
 21
16506.58598972935
 31
0.0
  0
LINE
  5
262
330
22
100
AcDbEntity
  8
_0-4_ハッチ
  6
Continuous
 62
     5
100
AcDbLine
 10
29815.08462551825
 20
16456.58582476946
 30
0.0
 11
29815.08462551825
 21
16556.58615468923
 31
0.0
  0
LINE
  5
263
330
22
100
AcDbEntity
  8
_0-4_ハッチ
  6
Continuous
 62
     5
100
AcDbLine
 10
29865.08479047813
 20
16506.58598972935
 30
0.0
 11
29965.0851203979
 21
16506.58598972935
 31
0.0
  0
LINE
  5
264
330
22
100
AcDbEntity
  8
_0-4_ハッチ
  6
Continuous
 62
     5
100
AcDbLine
 10
29915.08495543802
 20
16456.58582476946
 30
0.0
 11
29915.08495543802
 21
16556.58615468923
 31
0.0
  0
LINE
  5
265
330
22
100
AcDbEntity
  8
_0-4_ハッチ
  6
Continuous
 62
     5
100
AcDbLine
 10
29965.0851203979
 20
16506.58598972935
 30
0.0
 11
30065.08545031767
 21
16506.58598972935
 31
0.0
  0
LINE
  5
266
330
22
100
AcDbEntity
  8
_0-4_ハッチ
  6
Continuous
 62
     5
100
AcDbLine
 10
30015.08528535778
 20
16456.58582476946
 30
0.0
 11
30015.08528535778
 21
16556.58615468923
 31
0.0
  0
LINE
  5
267
330
22
100
AcDbEntity
  8
_0-4_ハッチ
  6
Continuous
 62
     5
100
AcDbLine
 10
30115.08561527754
 20
16456.58582476946
 30
0.0
 11
30115.08561527754
 21
16556.58615468923
 31
0.0
  0
LINE
  5
268
330
22
100
AcDbEntity
  8
_0-4_ハッチ
  6
Continuous
 62
     5
100
AcDbLine
 10
29515.08363575896
 20
16556.58615468923
 30
0.0
 11
29515.08363575896
 21
16656.586484609
 31
0.0
  0
LINE
  5
269
330
22
100
AcDbEntity
  8
_0-4_ハッチ
  6
Continuous
 62
     5
100
AcDbLine
 10
29565.08380071884
 20
16606.58631964911
 30
0.0
 11
29665.08413063861
 21
16606.58631964911
 31
0.0
  0
LINE
  5
26A
330
22
100
AcDbEntity
  8
_0-4_ハッチ
  6
Continuous
 62
     5
100
AcDbLine
 10
29615.08396567873
 20
16556.58615468923
 30
0.0
 11
29615.08396567873
 21
16656.586484609
 31
0.0
  0
LINE
  5
26B
330
22
100
AcDbEntity
  8
_0-4_ハッチ
  6
Continuous
 62
     5
100
AcDbLine
 10
29665.08413063861
 20
16606.58631964911
 30
0.0
 11
29765.08446055838
 21
16606.58631964911
 31
0.0
  0
LINE
  5
26C
330
22
100
AcDbEntity
  8
_0-4_ハッチ
  6
Continuous
 62
     5
100
AcDbLine
 10
29715.08429559849
 20
16556.58615468923
 30
0.0
 11
29715.08429559849
 21
16656.586484609
 31
0.0
  0
LINE
  5
26D
330
22
100
AcDbEntity
  8
_0-4_ハッチ
  6
Continuous
 62
     5
100
AcDbLine
 10
29765.08446055838
 20
16606.58631964911
 30
0.0
 11
29865.08479047813
 21
16606.58631964911
 31
0.0
  0
LINE
  5
26E
330
22
100
AcDbEntity
  8
_0-4_ハッチ
  6
Continuous
 62
     5
100
AcDbLine
 10
29815.08462551825
 20
16556.58615468923
 30
0.0
 11
29815.08462551825
 21
16656.586484609
 31
0.0
  0
LINE
  5
26F
330
22
100
AcDbEntity
  8
_0-4_ハッチ
  6
Continuous
 62
     5
100
AcDbLine
 10
29865.08479047813
 20
16606.58631964911
 30
0.0
 11
29965.0851203979
 21
16606.58631964911
 31
0.0
  0
LINE
  5
270
330
22
100
AcDbEntity
  8
_0-4_ハッチ
  6
Continuous
 62
     5
100
AcDbLine
 10
29915.08495543802
 20
16556.58615468923
 30
0.0
 11
29915.08495543802
 21
16656.586484609
 31
0.0
  0
LINE
  5
271
330
22
100
AcDbEntity
  8
_0-4_ハッチ
  6
Continuous
 62
     5
100
AcDbLine
 10
29965.0851203979
 20
16606.58631964911
 30
0.0
 11
30065.08545031767
 21
16606.58631964911
 31
0.0
  0
LINE
  5
272
330
22
100
AcDbEntity
  8
_0-4_ハッチ
  6
Continuous
 62
     5
100
AcDbLine
 10
30015.08528535778
 20
16556.58615468923
 30
0.0
 11
30015.08528535778
 21
16656.586484609
 31
0.0
  0
LINE
  5
273
330
22
100
AcDbEntity
  8
_0-4_ハッチ
  6
Continuous
 62
     5
100
AcDbLine
 10
30115.08561527754
 20
16556.58615468923
 30
0.0
 11
30115.08561527754
 21
16656.586484609
 31
0.0
  0
LINE
  5
274
330
22
100
AcDbEntity
  8
_0-4_ハッチ
  6
Continuous
 62
     5
100
AcDbLine
 10
29465.08347079909
 20
16706.58664956888
 30
0.0
 11
29565.08380071884
 21
16706.58664956888
 31
0.0
  0
LINE
  5
275
330
22
100
AcDbEntity
  8
_0-4_ハッチ
  6
Continuous
 62
     5
100
AcDbLine
 10
29515.08363575896
 20
16656.586484609
 30
0.0
 11
29515.08363575896
 21
16756.58681452876
 31
0.0
  0
LINE
  5
276
330
22
100
AcDbEntity
  8
_0-4_ハッチ
  6
Continuous
 62
     5
100
AcDbLine
 10
29565.08380071884
 20
16706.58664956888
 30
0.0
 11
29665.08413063861
 21
16706.58664956888
 31
0.0
  0
LINE
  5
277
330
22
100
AcDbEntity
  8
_0-4_ハッチ
  6
Continuous
 62
     5
100
AcDbLine
 10
29615.08396567873
 20
16656.586484609
 30
0.0
 11
29615.08396567873
 21
16756.58681452876
 31
0.0
  0
LINE
  5
278
330
22
100
AcDbEntity
  8
_0-4_ハッチ
  6
Continuous
 62
     5
100
AcDbLine
 10
29665.08413063861
 20
16706.58664956888
 30
0.0
 11
29765.08446055838
 21
16706.58664956888
 31
0.0
  0
LINE
  5
279
330
22
100
AcDbEntity
  8
_0-4_ハッチ
  6
Continuous
 62
     5
100
AcDbLine
 10
29715.08429559849
 20
16656.586484609
 30
0.0
 11
29715.08429559849
 21
16756.58681452876
 31
0.0
  0
LINE
  5
27A
330
22
100
AcDbEntity
  8
_0-4_ハッチ
  6
Continuous
 62
     5
100
AcDbLine
 10
29765.08446055838
 20
16706.58664956888
 30
0.0
 11
29865.08479047813
 21
16706.58664956888
 31
0.0
  0
LINE
  5
27B
330
22
100
AcDbEntity
  8
_0-4_ハッチ
  6
Continuous
 62
     5
100
AcDbLine
 10
29815.08462551825
 20
16656.586484609
 30
0.0
 11
29815.08462551825
 21
16756.58681452876
 31
0.0
  0
LINE
  5
27C
330
22
100
AcDbEntity
  8
_0-4_ハッチ
  6
Continuous
 62
     5
100
AcDbLine
 10
29865.08479047813
 20
16706.58664956888
 30
0.0
 11
29965.0851203979
 21
16706.58664956888
 31
0.0
  0
LINE
  5
27D
330
22
100
AcDbEntity
  8
_0-4_ハッチ
  6
Continuous
 62
     5
100
AcDbLine
 10
29915.08495543802
 20
16656.586484609
 30
0.0
 11
29915.08495543802
 21
16756.58681452876
 31
0.0
  0
LINE
  5
27E
330
22
100
AcDbEntity
  8
_0-4_ハッチ
  6
Continuous
 62
     5
100
AcDbLine
 10
29965.0851203979
 20
16706.58664956888
 30
0.0
 11
30065.08545031767
 21
16706.58664956888
 31
0.0
  0
LINE
  5
27F
330
22
100
AcDbEntity
  8
_0-4_ハッチ
  6
Continuous
 62
     5
100
AcDbLine
 10
30015.08528535778
 20
16656.586484609
 30
0.0
 11
30015.08528535778
 21
16756.58681452876
 31
0.0
  0
LINE
  5
280
330
22
100
AcDbEntity
  8
_0-4_ハッチ
  6
Continuous
 62
     5
100
AcDbLine
 10
30115.08561527754
 20
16656.586484609
 30
0.0
 11
30115.08561527754
 21
16756.58681452876
 31
0.0
  0
LINE
  5
281
330
22
100
AcDbEntity
  8
_0-4_ハッチ
  6
Continuous
 62
     5
100
AcDbLine
 10
29415.0833058392
 20
16756.58681452876
 30
0.0
 11
29415.0833058392
 21
16856.58714444852
 31
0.0
  0
LINE
  5
282
330
22
100
AcDbEntity
  8
_0-4_ハッチ
  6
Continuous
 62
     5
100
AcDbLine
 10
29465.08347079909
 20
16806.58697948864
 30
0.0
 11
29565.08380071884
 21
16806.58697948864
 31
0.0
  0
LINE
  5
283
330
22
100
AcDbEntity
  8
_0-4_ハッチ
  6
Continuous
 62
     5
100
AcDbLine
 10
29515.08363575896
 20
16756.58681452876
 30
0.0
 11
29515.08363575896
 21
16856.58714444852
 31
0.0
  0
LINE
  5
284
330
22
100
AcDbEntity
  8
_0-4_ハッチ
  6
Continuous
 62
     5
100
AcDbLine
 10
29565.08380071884
 20
16806.58697948864
 30
0.0
 11
29665.08413063861
 21
16806.58697948864
 31
0.0
  0
LINE
  5
285
330
22
100
AcDbEntity
  8
_0-4_ハッチ
  6
Continuous
 62
     5
100
AcDbLine
 10
29615.08396567873
 20
16756.58681452876
 30
0.0
 11
29615.08396567873
 21
16856.58714444852
 31
0.0
  0
LINE
  5
286
330
22
100
AcDbEntity
  8
_0-4_ハッチ
  6
Continuous
 62
     5
100
AcDbLine
 10
29665.08413063861
 20
16806.58697948864
 30
0.0
 11
29765.08446055838
 21
16806.58697948864
 31
0.0
  0
LINE
  5
287
330
22
100
AcDbEntity
  8
_0-4_ハッチ
  6
Continuous
 62
     5
100
AcDbLine
 10
29715.08429559849
 20
16756.58681452876
 30
0.0
 11
29715.08429559849
 21
16856.58714444852
 31
0.0
  0
LINE
  5
288
330
22
100
AcDbEntity
  8
_0-4_ハッチ
  6
Continuous
 62
     5
100
AcDbLine
 10
29765.08446055838
 20
16806.58697948864
 30
0.0
 11
29865.08479047813
 21
16806.58697948864
 31
0.0
  0
LINE
  5
289
330
22
100
AcDbEntity
  8
_0-4_ハッチ
  6
Continuous
 62
     5
100
AcDbLine
 10
29815.08462551825
 20
16756.58681452876
 30
0.0
 11
29815.08462551825
 21
16856.58714444852
 31
0.0
  0
LINE
  5
28A
330
22
100
AcDbEntity
  8
_0-4_ハッチ
  6
Continuous
 62
     5
100
AcDbLine
 10
29865.08479047813
 20
16806.58697948864
 30
0.0
 11
29965.0851203979
 21
16806.58697948864
 31
0.0
  0
LINE
  5
28B
330
22
100
AcDbEntity
  8
_0-4_ハッチ
  6
Continuous
 62
     5
100
AcDbLine
 10
29915.08495543802
 20
16756.58681452876
 30
0.0
 11
29915.08495543802
 21
16856.58714444852
 31
0.0
  0
LINE
  5
28C
330
22
100
AcDbEntity
  8
_0-4_ハッチ
  6
Continuous
 62
     5
100
AcDbLine
 10
29965.0851203979
 20
16806.58697948864
 30
0.0
 11
30065.08545031767
 21
16806.58697948864
 31
0.0
  0
LINE
  5
28D
330
22
100
AcDbEntity
  8
_0-4_ハッチ
  6
Continuous
 62
     5
100
AcDbLine
 10
30015.08528535778
 20
16756.58681452876
 30
0.0
 11
30015.08528535778
 21
16856.58714444852
 31
0.0
  0
LINE
  5
28E
330
22
100
AcDbEntity
  8
_0-4_ハッチ
  6
Continuous
 62
     5
100
AcDbLine
 10
30115.08561527754
 20
16756.58681452876
 30
0.0
 11
30115.08561527754
 21
16856.58714444852
 31
0.0
  0
LINE
  5
28F
330
22
100
AcDbEntity
  8
_0-4_ハッチ
  6
Continuous
 62
     5
100
AcDbLine
 10
29315.08297591944
 20
16739.4540812095
 30
0.0
 11
29315.08297591944
 21
17056.58780428805
 31
0.0
  0
LINE
  5
290
330
22
100
AcDbEntity
  8
_0-4_ハッチ
  6
Continuous
 62
     5
100
AcDbLine
 10
29365.08314087932
 20
16906.58730940841
 30
0.0
 11
29465.08347079909
 21
16906.58730940841
 31
0.0
  0
LINE
  5
291
330
22
100
AcDbEntity
  8
_0-4_ハッチ
  6
Continuous
 62
     5
100
AcDbLine
 10
29415.0833058392
 20
16856.58714444852
 30
0.0
 11
29415.0833058392
 21
16956.58747436828
 31
0.0
  0
LINE
  5
292
330
22
100
AcDbEntity
  8
_0-4_ハッチ
  6
Continuous
 62
     5
100
AcDbLine
 10
29465.08347079909
 20
16906.58730940841
 30
0.0
 11
29565.08380071884
 21
16906.58730940841
 31
0.0
  0
LINE
  5
293
330
22
100
AcDbEntity
  8
_0-4_ハッチ
  6
Continuous
 62
     5
100
AcDbLine
 10
29515.08363575896
 20
16856.58714444852
 30
0.0
 11
29515.08363575896
 21
16956.58747436828
 31
0.0
  0
LINE
  5
294
330
22
100
AcDbEntity
  8
_0-4_ハッチ
  6
Continuous
 62
     5
100
AcDbLine
 10
29565.08380071884
 20
16906.58730940841
 30
0.0
 11
29665.08413063861
 21
16906.58730940841
 31
0.0
  0
LINE
  5
295
330
22
100
AcDbEntity
  8
_0-4_ハッチ
  6
Continuous
 62
     5
100
AcDbLine
 10
29615.08396567873
 20
16856.58714444852
 30
0.0
 11
29615.08396567873
 21
16956.58747436828
 31
0.0
  0
LINE
  5
296
330
22
100
AcDbEntity
  8
_0-4_ハッチ
  6
Continuous
 62
     5
100
AcDbLine
 10
29665.08413063861
 20
16906.58730940841
 30
0.0
 11
29765.08446055838
 21
16906.58730940841
 31
0.0
  0
LINE
  5
297
330
22
100
AcDbEntity
  8
_0-4_ハッチ
  6
Continuous
 62
     5
100
AcDbLine
 10
29715.08429559849
 20
16856.58714444852
 30
0.0
 11
29715.08429559849
 21
16956.58747436828
 31
0.0
  0
LINE
  5
298
330
22
100
AcDbEntity
  8
_0-4_ハッチ
  6
Continuous
 62
     5
100
AcDbLine
 10
29765.08446055838
 20
16906.58730940841
 30
0.0
 11
29865.08479047813
 21
16906.58730940841
 31
0.0
  0
LINE
  5
299
330
22
100
AcDbEntity
  8
_0-4_ハッチ
  6
Continuous
 62
     5
100
AcDbLine
 10
29815.08462551825
 20
16856.58714444852
 30
0.0
 11
29815.08462551825
 21
16956.58747436828
 31
0.0
  0
LINE
  5
29A
330
22
100
AcDbEntity
  8
_0-4_ハッチ
  6
Continuous
 62
     5
100
AcDbLine
 10
29865.08479047813
 20
16906.58730940841
 30
0.0
 11
29965.0851203979
 21
16906.58730940841
 31
0.0
  0
LINE
  5
29B
330
22
100
AcDbEntity
  8
_0-4_ハッチ
  6
Continuous
 62
     5
100
AcDbLine
 10
29915.08495543802
 20
16856.58714444852
 30
0.0
 11
29915.08495543802
 21
16956.58747436828
 31
0.0
  0
LINE
  5
29C
330
22
100
AcDbEntity
  8
_0-4_ハッチ
  6
Continuous
 62
     5
100
AcDbLine
 10
29965.0851203979
 20
16906.58730940841
 30
0.0
 11
30065.08545031767
 21
16906.58730940841
 31
0.0
  0
LINE
  5
29D
330
22
100
AcDbEntity
  8
_0-4_ハッチ
  6
Continuous
 62
     5
100
AcDbLine
 10
30015.08528535778
 20
16856.58714444852
 30
0.0
 11
30015.08528535778
 21
16956.58747436828
 31
0.0
  0
LINE
  5
29E
330
22
100
AcDbEntity
  8
_0-4_ハッチ
  6
Continuous
 62
     5
100
AcDbLine
 10
30115.08561527754
 20
16856.58714444852
 30
0.0
 11
30115.08561527754
 21
16956.58747436828
 31
0.0
  0
LINE
  5
29F
330
22
100
AcDbEntity
  8
_0-4_ハッチ
  6
Continuous
 62
     5
100
AcDbLine
 10
29265.08281095956
 20
17006.58763932817
 30
0.0
 11
29365.08314087932
 21
17006.58763932817
 31
0.0
  0
LINE
  5
2A0
330
22
100
AcDbEntity
  8
_0-4_ハッチ
  6
Continuous
 62
     5
100
AcDbLine
 10
29365.08314087932
 20
17006.58763932817
 30
0.0
 11
29465.08347079909
 21
17006.58763932817
 31
0.0
  0
LINE
  5
2A1
330
22
100
AcDbEntity
  8
_0-4_ハッチ
  6
Continuous
 62
     5
100
AcDbLine
 10
29415.0833058392
 20
16956.58747436828
 30
0.0
 11
29415.0833058392
 21
17056.58780428805
 31
0.0
  0
LINE
  5
2A2
330
22
100
AcDbEntity
  8
_0-4_ハッチ
  6
Continuous
 62
     5
100
AcDbLine
 10
29465.08347079909
 20
17006.58763932817
 30
0.0
 11
29565.08380071884
 21
17006.58763932817
 31
0.0
  0
LINE
  5
2A3
330
22
100
AcDbEntity
  8
_0-4_ハッチ
  6
Continuous
 62
     5
100
AcDbLine
 10
29515.08363575896
 20
16956.58747436828
 30
0.0
 11
29515.08363575896
 21
17056.58780428805
 31
0.0
  0
LINE
  5
2A4
330
22
100
AcDbEntity
  8
_0-4_ハッチ
  6
Continuous
 62
     5
100
AcDbLine
 10
29565.08380071884
 20
17006.58763932817
 30
0.0
 11
29665.08413063861
 21
17006.58763932817
 31
0.0
  0
LINE
  5
2A5
330
22
100
AcDbEntity
  8
_0-4_ハッチ
  6
Continuous
 62
     5
100
AcDbLine
 10
29615.08396567873
 20
16956.58747436828
 30
0.0
 11
29615.08396567873
 21
17056.58780428805
 31
0.0
  0
LINE
  5
2A6
330
22
100
AcDbEntity
  8
_0-4_ハッチ
  6
Continuous
 62
     5
100
AcDbLine
 10
29665.08413063861
 20
17006.58763932817
 30
0.0
 11
29765.08446055838
 21
17006.58763932817
 31
0.0
  0
LINE
  5
2A7
330
22
100
AcDbEntity
  8
_0-4_ハッチ
  6
Continuous
 62
     5
100
AcDbLine
 10
29715.08429559849
 20
16956.58747436828
 30
0.0
 11
29715.08429559849
 21
17056.58780428805
 31
0.0
  0
LINE
  5
2A8
330
22
100
AcDbEntity
  8
_0-4_ハッチ
  6
Continuous
 62
     5
100
AcDbLine
 10
29765.08446055838
 20
17006.58763932817
 30
0.0
 11
29865.08479047813
 21
17006.58763932817
 31
0.0
  0
LINE
  5
2A9
330
22
100
AcDbEntity
  8
_0-4_ハッチ
  6
Continuous
 62
     5
100
AcDbLine
 10
29815.08462551825
 20
16956.58747436828
 30
0.0
 11
29815.08462551825
 21
17056.58780428805
 31
0.0
  0
LINE
  5
2AA
330
22
100
AcDbEntity
  8
_0-4_ハッチ
  6
Continuous
 62
     5
100
AcDbLine
 10
29865.08479047813
 20
17006.58763932817
 30
0.0
 11
29965.0851203979
 21
17006.58763932817
 31
0.0
  0
LINE
  5
2AB
330
22
100
AcDbEntity
  8
_0-4_ハッチ
  6
Continuous
 62
     5
100
AcDbLine
 10
29915.08495543802
 20
16956.58747436828
 30
0.0
 11
29915.08495543802
 21
17056.58780428805
 31
0.0
  0
LINE
  5
2AC
330
22
100
AcDbEntity
  8
_0-4_ハッチ
  6
Continuous
 62
     5
100
AcDbLine
 10
29965.0851203979
 20
17006.58763932817
 30
0.0
 11
30065.08545031767
 21
17006.58763932817
 31
0.0
  0
LINE
  5
2AD
330
22
100
AcDbEntity
  8
_0-4_ハッチ
  6
Continuous
 62
     5
100
AcDbLine
 10
30015.08528535778
 20
16956.58747436828
 30
0.0
 11
30015.08528535778
 21
17056.58780428805
 31
0.0
  0
LINE
  5
2AE
330
22
100
AcDbEntity
  8
_0-4_ハッチ
  6
Continuous
 62
     5
100
AcDbLine
 10
30115.08561527754
 20
16956.58747436828
 30
0.0
 11
30115.08561527754
 21
17056.58780428805
 31
0.0
  0
LINE
  5
2AF
330
22
100
AcDbEntity
  8
_0-4_ハッチ
  6
Continuous
 62
     5
100
AcDbLine
 10
29215.0851203979
 20
17056.58780428805
 30
0.0
 11
29215.0851203979
 21
17156.58813420781
 31
0.0
  0
LINE
  5
2B0
330
22
100
AcDbEntity
  8
_0-4_ハッチ
  6
Continuous
 62
     5
100
AcDbLine
 10
29265.08528535778
 20
17106.58796924793
 30
0.0
 11
29365.08561527754
 21
17106.58796924793
 31
0.0
  0
LINE
  5
2B1
330
22
100
AcDbEntity
  8
_0-4_ハッチ
  6
Continuous
 62
     5
100
AcDbLine
 10
29315.08545031767
 20
17056.58780428805
 30
0.0
 11
29315.08545031767
 21
17156.58813420781
 31
0.0
  0
LINE
  5
2B2
330
22
100
AcDbEntity
  8
_0-4_ハッチ
  6
Continuous
 62
     5
100
AcDbLine
 10
29365.08561527754
 20
17106.58796924793
 30
0.0
 11
29465.08594519731
 21
17106.58796924793
 31
0.0
  0
LINE
  5
2B3
330
22
100
AcDbEntity
  8
_0-4_ハッチ
  6
Continuous
 62
     5
100
AcDbLine
 10
29415.08578023743
 20
17056.58780428805
 30
0.0
 11
29415.08578023743
 21
17156.58813420781
 31
0.0
  0
LINE
  5
2B4
330
22
100
AcDbEntity
  8
_0-4_ハッチ
  6
Continuous
 62
     5
100
AcDbLine
 10
29465.08594519731
 20
17106.58796924793
 30
0.0
 11
29565.08627511707
 21
17106.58796924793
 31
0.0
  0
LINE
  5
2B5
330
22
100
AcDbEntity
  8
_0-4_ハッチ
  6
Continuous
 62
     5
100
AcDbLine
 10
29515.08611015718
 20
17056.58780428805
 30
0.0
 11
29515.08611015718
 21
17156.58813420781
 31
0.0
  0
LINE
  5
2B6
330
22
100
AcDbEntity
  8
_0-4_ハッチ
  6
Continuous
 62
     5
100
AcDbLine
 10
29565.08627511707
 20
17106.58796924793
 30
0.0
 11
29665.08660503683
 21
17106.58796924793
 31
0.0
  0
LINE
  5
2B7
330
22
100
AcDbEntity
  8
_0-4_ハッチ
  6
Continuous
 62
     5
100
AcDbLine
 10
29615.08644007695
 20
17056.58780428805
 30
0.0
 11
29615.08644007695
 21
17156.58813420781
 31
0.0
  0
LINE
  5
2B8
330
22
100
AcDbEntity
  8
_0-4_ハッチ
  6
Continuous
 62
     5
100
AcDbLine
 10
29665.08660503683
 20
17106.58796924793
 30
0.0
 11
29765.0869349566
 21
17106.58796924793
 31
0.0
  0
LINE
  5
2B9
330
22
100
AcDbEntity
  8
_0-4_ハッチ
  6
Continuous
 62
     5
100
AcDbLine
 10
29715.08676999672
 20
17056.58780428805
 30
0.0
 11
29715.08676999672
 21
17156.58813420781
 31
0.0
  0
LINE
  5
2BA
330
22
100
AcDbEntity
  8
_0-4_ハッチ
  6
Continuous
 62
     5
100
AcDbLine
 10
29765.0869349566
 20
17106.58796924793
 30
0.0
 11
29865.08726487636
 21
17106.58796924793
 31
0.0
  0
LINE
  5
2BB
330
22
100
AcDbEntity
  8
_0-4_ハッチ
  6
Continuous
 62
     5
100
AcDbLine
 10
29815.08709991648
 20
17056.58780428805
 30
0.0
 11
29815.08709991648
 21
17156.58813420781
 31
0.0
  0
LINE
  5
2BC
330
22
100
AcDbEntity
  8
_0-4_ハッチ
  6
Continuous
 62
     5
100
AcDbLine
 10
29865.08726487636
 20
17106.58796924793
 30
0.0
 11
29965.08759479612
 21
17106.58796924793
 31
0.0
  0
LINE
  5
2BD
330
22
100
AcDbEntity
  8
_0-4_ハッチ
  6
Continuous
 62
     5
100
AcDbLine
 10
29915.08742983624
 20
17056.58780428805
 30
0.0
 11
29915.08742983624
 21
17156.58813420781
 31
0.0
  0
LINE
  5
2BE
330
22
100
AcDbEntity
  8
_0-4_ハッチ
  6
Continuous
 62
     5
100
AcDbLine
 10
29965.08759479612
 20
17106.58796924793
 30
0.0
 11
30065.08792471588
 21
17106.58796924793
 31
0.0
  0
LINE
  5
2BF
330
22
100
AcDbEntity
  8
_0-4_ハッチ
  6
Continuous
 62
     5
100
AcDbLine
 10
30015.08775975601
 20
17056.58780428805
 30
0.0
 11
30015.08775975601
 21
17156.58813420781
 31
0.0
  0
LINE
  5
2C0
330
22
100
AcDbEntity
  8
_0-4_ハッチ
  6
Continuous
 62
     5
100
AcDbLine
 10
30115.08808967577
 20
17056.58780428805
 30
0.0
 11
30115.08808967577
 21
17156.58813420781
 31
0.0
  0
LINE
  5
2C1
330
22
100
AcDbEntity
  8
_0-4_ハッチ
  6
Continuous
 62
     5
100
AcDbLine
 10
29165.08495543802
 20
17206.5882991677
 30
0.0
 11
29265.08528535778
 21
17206.5882991677
 31
0.0
  0
LINE
  5
2C2
330
22
100
AcDbEntity
  8
_0-4_ハッチ
  6
Continuous
 62
     5
100
AcDbLine
 10
29215.0851203979
 20
17156.58813420781
 30
0.0
 11
29215.0851203979
 21
17256.58846412758
 31
0.0
  0
LINE
  5
2C3
330
22
100
AcDbEntity
  8
_0-4_ハッチ
  6
Continuous
 62
     5
100
AcDbLine
 10
29265.08528535778
 20
17206.5882991677
 30
0.0
 11
29365.08561527754
 21
17206.5882991677
 31
0.0
  0
LINE
  5
2C4
330
22
100
AcDbEntity
  8
_0-4_ハッチ
  6
Continuous
 62
     5
100
AcDbLine
 10
29315.08545031767
 20
17156.58813420781
 30
0.0
 11
29315.08545031767
 21
17256.58846412758
 31
0.0
  0
LINE
  5
2C5
330
22
100
AcDbEntity
  8
_0-4_ハッチ
  6
Continuous
 62
     5
100
AcDbLine
 10
29365.08561527754
 20
17206.5882991677
 30
0.0
 11
29465.08594519731
 21
17206.5882991677
 31
0.0
  0
LINE
  5
2C6
330
22
100
AcDbEntity
  8
_0-4_ハッチ
  6
Continuous
 62
     5
100
AcDbLine
 10
29415.08578023743
 20
17156.58813420781
 30
0.0
 11
29415.08578023743
 21
17256.58846412758
 31
0.0
  0
LINE
  5
2C7
330
22
100
AcDbEntity
  8
_0-4_ハッチ
  6
Continuous
 62
     5
100
AcDbLine
 10
29465.08594519731
 20
17206.5882991677
 30
0.0
 11
29565.08627511707
 21
17206.5882991677
 31
0.0
  0
LINE
  5
2C8
330
22
100
AcDbEntity
  8
_0-4_ハッチ
  6
Continuous
 62
     5
100
AcDbLine
 10
29515.08611015718
 20
17156.58813420781
 30
0.0
 11
29515.08611015718
 21
17256.58846412758
 31
0.0
  0
LINE
  5
2C9
330
22
100
AcDbEntity
  8
_0-4_ハッチ
  6
Continuous
 62
     5
100
AcDbLine
 10
29565.08627511707
 20
17206.5882991677
 30
0.0
 11
29665.08660503683
 21
17206.5882991677
 31
0.0
  0
LINE
  5
2CA
330
22
100
AcDbEntity
  8
_0-4_ハッチ
  6
Continuous
 62
     5
100
AcDbLine
 10
29615.08644007695
 20
17156.58813420781
 30
0.0
 11
29615.08644007695
 21
17256.58846412758
 31
0.0
  0
LINE
  5
2CB
330
22
100
AcDbEntity
  8
_0-4_ハッチ
  6
Continuous
 62
     5
100
AcDbLine
 10
29665.08660503683
 20
17206.5882991677
 30
0.0
 11
29765.0869349566
 21
17206.5882991677
 31
0.0
  0
LINE
  5
2CC
330
22
100
AcDbEntity
  8
_0-4_ハッチ
  6
Continuous
 62
     5
100
AcDbLine
 10
29715.08676999672
 20
17156.58813420781
 30
0.0
 11
29715.08676999672
 21
17256.58846412758
 31
0.0
  0
LINE
  5
2CD
330
22
100
AcDbEntity
  8
_0-4_ハッチ
  6
Continuous
 62
     5
100
AcDbLine
 10
29765.0869349566
 20
17206.5882991677
 30
0.0
 11
29865.08726487636
 21
17206.5882991677
 31
0.0
  0
LINE
  5
2CE
330
22
100
AcDbEntity
  8
_0-4_ハッチ
  6
Continuous
 62
     5
100
AcDbLine
 10
29815.08709991648
 20
17156.58813420781
 30
0.0
 11
29815.08709991648
 21
17256.58846412758
 31
0.0
  0
LINE
  5
2CF
330
22
100
AcDbEntity
  8
_0-4_ハッチ
  6
Continuous
 62
     5
100
AcDbLine
 10
29865.08726487636
 20
17206.5882991677
 30
0.0
 11
29965.08759479612
 21
17206.5882991677
 31
0.0
  0
LINE
  5
2D0
330
22
100
AcDbEntity
  8
_0-4_ハッチ
  6
Continuous
 62
     5
100
AcDbLine
 10
29915.08742983624
 20
17156.58813420781
 30
0.0
 11
29915.08742983624
 21
17256.58846412758
 31
0.0
  0
LINE
  5
2D1
330
22
100
AcDbEntity
  8
_0-4_ハッチ
  6
Continuous
 62
     5
100
AcDbLine
 10
29965.08759479612
 20
17206.5882991677
 30
0.0
 11
30065.08792471588
 21
17206.5882991677
 31
0.0
  0
LINE
  5
2D2
330
22
100
AcDbEntity
  8
_0-4_ハッチ
  6
Continuous
 62
     5
100
AcDbLine
 10
30015.08775975601
 20
17156.58813420781
 30
0.0
 11
30015.08775975601
 21
17256.58846412758
 31
0.0
  0
LINE
  5
2D3
330
22
100
AcDbEntity
  8
_0-4_ハッチ
  6
Continuous
 62
     5
100
AcDbLine
 10
30115.08808967577
 20
17156.58813420781
 30
0.0
 11
30115.08808967577
 21
17256.58846412758
 31
0.0
  0
LINE
  5
2D4
330
22
100
AcDbEntity
  8
_0-4_ハッチ
  6
Continuous
 62
     5
100
AcDbLine
 10
29115.08479047813
 20
17256.58846412758
 30
0.0
 11
29115.08479047813
 21
17356.58879404734
 31
0.0
  0
LINE
  5
2D5
330
22
100
AcDbEntity
  8
_0-4_ハッチ
  6
Continuous
 62
     5
100
AcDbLine
 10
29165.08495543802
 20
17306.58862908746
 30
0.0
 11
29265.08528535778
 21
17306.58862908746
 31
0.0
  0
LINE
  5
2D6
330
22
100
AcDbEntity
  8
_0-4_ハッチ
  6
Continuous
 62
     5
100
AcDbLine
 10
29215.0851203979
 20
17256.58846412758
 30
0.0
 11
29215.0851203979
 21
17356.58879404734
 31
0.0
  0
LINE
  5
2D7
330
22
100
AcDbEntity
  8
_0-4_ハッチ
  6
Continuous
 62
     5
100
AcDbLine
 10
29265.08528535778
 20
17306.58862908746
 30
0.0
 11
29365.08561527754
 21
17306.58862908746
 31
0.0
  0
LINE
  5
2D8
330
22
100
AcDbEntity
  8
_0-4_ハッチ
  6
Continuous
 62
     5
100
AcDbLine
 10
29315.08545031767
 20
17256.58846412758
 30
0.0
 11
29315.08545031767
 21
17356.58879404734
 31
0.0
  0
LINE
  5
2D9
330
22
100
AcDbEntity
  8
_0-4_ハッチ
  6
Continuous
 62
     5
100
AcDbLine
 10
29365.08561527754
 20
17306.58862908746
 30
0.0
 11
29465.08594519731
 21
17306.58862908746
 31
0.0
  0
LINE
  5
2DA
330
22
100
AcDbEntity
  8
_0-4_ハッチ
  6
Continuous
 62
     5
100
AcDbLine
 10
29415.08578023743
 20
17256.58846412758
 30
0.0
 11
29415.08578023743
 21
17356.58879404734
 31
0.0
  0
LINE
  5
2DB
330
22
100
AcDbEntity
  8
_0-4_ハッチ
  6
Continuous
 62
     5
100
AcDbLine
 10
29465.08594519731
 20
17306.58862908746
 30
0.0
 11
29565.08627511707
 21
17306.58862908746
 31
0.0
  0
LINE
  5
2DC
330
22
100
AcDbEntity
  8
_0-4_ハッチ
  6
Continuous
 62
     5
100
AcDbLine
 10
29515.08611015718
 20
17256.58846412758
 30
0.0
 11
29515.08611015718
 21
17356.58879404734
 31
0.0
  0
LINE
  5
2DD
330
22
100
AcDbEntity
  8
_0-4_ハッチ
  6
Continuous
 62
     5
100
AcDbLine
 10
29565.08627511707
 20
17306.58862908746
 30
0.0
 11
29665.08660503683
 21
17306.58862908746
 31
0.0
  0
LINE
  5
2DE
330
22
100
AcDbEntity
  8
_0-4_ハッチ
  6
Continuous
 62
     5
100
AcDbLine
 10
29615.08644007695
 20
17256.58846412758
 30
0.0
 11
29615.08644007695
 21
17356.58879404734
 31
0.0
  0
LINE
  5
2DF
330
22
100
AcDbEntity
  8
_0-4_ハッチ
  6
Continuous
 62
     5
100
AcDbLine
 10
29665.08660503683
 20
17306.58862908746
 30
0.0
 11
29765.0869349566
 21
17306.58862908746
 31
0.0
  0
LINE
  5
2E0
330
22
100
AcDbEntity
  8
_0-4_ハッチ
  6
Continuous
 62
     5
100
AcDbLine
 10
29715.08676999672
 20
17256.58846412758
 30
0.0
 11
29715.08676999672
 21
17356.58879404734
 31
0.0
  0
LINE
  5
2E1
330
22
100
AcDbEntity
  8
_0-4_ハッチ
  6
Continuous
 62
     5
100
AcDbLine
 10
29765.0869349566
 20
17306.58862908746
 30
0.0
 11
29865.08726487636
 21
17306.58862908746
 31
0.0
  0
LINE
  5
2E2
330
22
100
AcDbEntity
  8
_0-4_ハッチ
  6
Continuous
 62
     5
100
AcDbLine
 10
29815.08709991648
 20
17256.58846412758
 30
0.0
 11
29815.08709991648
 21
17356.58879404734
 31
0.0
  0
LINE
  5
2E3
330
22
100
AcDbEntity
  8
_0-4_ハッチ
  6
Continuous
 62
     5
100
AcDbLine
 10
29865.08726487636
 20
17306.58862908746
 30
0.0
 11
29965.08759479612
 21
17306.58862908746
 31
0.0
  0
LINE
  5
2E4
330
22
100
AcDbEntity
  8
_0-4_ハッチ
  6
Continuous
 62
     5
100
AcDbLine
 10
29915.08742983624
 20
17256.58846412758
 30
0.0
 11
29915.08742983624
 21
17356.58879404734
 31
0.0
  0
LINE
  5
2E5
330
22
100
AcDbEntity
  8
_0-4_ハッチ
  6
Continuous
 62
     5
100
AcDbLine
 10
29965.08759479612
 20
17306.58862908746
 30
0.0
 11
30065.08792471588
 21
17306.58862908746
 31
0.0
  0
LINE
  5
2E6
330
22
100
AcDbEntity
  8
_0-4_ハッチ
  6
Continuous
 62
     5
100
AcDbLine
 10
30015.08775975601
 20
17256.58846412758
 30
0.0
 11
30015.08775975601
 21
17356.58879404734
 31
0.0
  0
LINE
  5
2E7
330
22
100
AcDbEntity
  8
_0-4_ハッチ
  6
Continuous
 62
     5
100
AcDbLine
 10
30115.08808967577
 20
17256.58846412758
 30
0.0
 11
30115.08808967577
 21
17356.58879404734
 31
0.0
  0
LINE
  5
2E8
330
22
100
AcDbEntity
  8
_0-4_ハッチ
  6
Continuous
 62
     5
100
AcDbLine
 10
29065.08462551825
 20
17406.58895900723
 30
0.0
 11
29165.08495543802
 21
17406.58895900723
 31
0.0
  0
LINE
  5
2E9
330
22
100
AcDbEntity
  8
_0-4_ハッチ
  6
Continuous
 62
     5
100
AcDbLine
 10
29115.08479047813
 20
17356.58879404734
 30
0.0
 11
29115.08479047813
 21
17456.5891239671
 31
0.0
  0
LINE
  5
2EA
330
22
100
AcDbEntity
  8
_0-4_ハッチ
  6
Continuous
 62
     5
100
AcDbLine
 10
29165.08495543802
 20
17406.58895900723
 30
0.0
 11
29265.08528535778
 21
17406.58895900723
 31
0.0
  0
LINE
  5
2EB
330
22
100
AcDbEntity
  8
_0-4_ハッチ
  6
Continuous
 62
     5
100
AcDbLine
 10
29215.0851203979
 20
17356.58879404734
 30
0.0
 11
29215.0851203979
 21
17456.5891239671
 31
0.0
  0
LINE
  5
2EC
330
22
100
AcDbEntity
  8
_0-4_ハッチ
  6
Continuous
 62
     5
100
AcDbLine
 10
29265.08528535778
 20
17406.58895900723
 30
0.0
 11
29365.08561527754
 21
17406.58895900723
 31
0.0
  0
LINE
  5
2ED
330
22
100
AcDbEntity
  8
_0-4_ハッチ
  6
Continuous
 62
     5
100
AcDbLine
 10
29315.08545031767
 20
17356.58879404734
 30
0.0
 11
29315.08545031767
 21
17456.5891239671
 31
0.0
  0
LINE
  5
2EE
330
22
100
AcDbEntity
  8
_0-4_ハッチ
  6
Continuous
 62
     5
100
AcDbLine
 10
29365.08561527754
 20
17406.58895900723
 30
0.0
 11
29465.08594519731
 21
17406.58895900723
 31
0.0
  0
LINE
  5
2EF
330
22
100
AcDbEntity
  8
_0-4_ハッチ
  6
Continuous
 62
     5
100
AcDbLine
 10
29415.08578023743
 20
17356.58879404734
 30
0.0
 11
29415.08578023743
 21
17456.5891239671
 31
0.0
  0
LINE
  5
2F0
330
22
100
AcDbEntity
  8
_0-4_ハッチ
  6
Continuous
 62
     5
100
AcDbLine
 10
29465.08594519731
 20
17406.58895900723
 30
0.0
 11
29565.08627511707
 21
17406.58895900723
 31
0.0
  0
LINE
  5
2F1
330
22
100
AcDbEntity
  8
_0-4_ハッチ
  6
Continuous
 62
     5
100
AcDbLine
 10
29515.08611015718
 20
17356.58879404734
 30
0.0
 11
29515.08611015718
 21
17456.5891239671
 31
0.0
  0
LINE
  5
2F2
330
22
100
AcDbEntity
  8
_0-4_ハッチ
  6
Continuous
 62
     5
100
AcDbLine
 10
29565.08627511707
 20
17406.58895900723
 30
0.0
 11
29665.08660503683
 21
17406.58895900723
 31
0.0
  0
LINE
  5
2F3
330
22
100
AcDbEntity
  8
_0-4_ハッチ
  6
Continuous
 62
     5
100
AcDbLine
 10
29615.08644007695
 20
17356.58879404734
 30
0.0
 11
29615.08644007695
 21
17456.5891239671
 31
0.0
  0
LINE
  5
2F4
330
22
100
AcDbEntity
  8
_0-4_ハッチ
  6
Continuous
 62
     5
100
AcDbLine
 10
29665.08660503683
 20
17406.58895900723
 30
0.0
 11
29765.0869349566
 21
17406.58895900723
 31
0.0
  0
LINE
  5
2F5
330
22
100
AcDbEntity
  8
_0-4_ハッチ
  6
Continuous
 62
     5
100
AcDbLine
 10
29715.08676999672
 20
17356.58879404734
 30
0.0
 11
29715.08676999672
 21
17456.5891239671
 31
0.0
  0
LINE
  5
2F6
330
22
100
AcDbEntity
  8
_0-4_ハッチ
  6
Continuous
 62
     5
100
AcDbLine
 10
29765.0869349566
 20
17406.58895900723
 30
0.0
 11
29865.08726487636
 21
17406.58895900723
 31
0.0
  0
LINE
  5
2F7
330
22
100
AcDbEntity
  8
_0-4_ハッチ
  6
Continuous
 62
     5
100
AcDbLine
 10
29815.08709991648
 20
17356.58879404734
 30
0.0
 11
29815.08709991648
 21
17456.5891239671
 31
0.0
  0
LINE
  5
2F8
330
22
100
AcDbEntity
  8
_0-4_ハッチ
  6
Continuous
 62
     5
100
AcDbLine
 10
29865.08726487636
 20
17406.58895900723
 30
0.0
 11
29965.08759479612
 21
17406.58895900723
 31
0.0
  0
LINE
  5
2F9
330
22
100
AcDbEntity
  8
_0-4_ハッチ
  6
Continuous
 62
     5
100
AcDbLine
 10
29915.08742983624
 20
17356.58879404734
 30
0.0
 11
29915.08742983624
 21
17456.5891239671
 31
0.0
  0
LINE
  5
2FA
330
22
100
AcDbEntity
  8
_0-4_ハッチ
  6
Continuous
 62
     5
100
AcDbLine
 10
29965.08759479612
 20
17406.58895900723
 30
0.0
 11
30065.08792471588
 21
17406.58895900723
 31
0.0
  0
LINE
  5
2FB
330
22
100
AcDbEntity
  8
_0-4_ハッチ
  6
Continuous
 62
     5
100
AcDbLine
 10
30015.08775975601
 20
17356.58879404734
 30
0.0
 11
30015.08775975601
 21
17456.5891239671
 31
0.0
  0
LINE
  5
2FC
330
22
100
AcDbEntity
  8
_0-4_ハッチ
  6
Continuous
 62
     5
100
AcDbLine
 10
30115.08808967577
 20
17356.58879404734
 30
0.0
 11
30115.08808967577
 21
17456.5891239671
 31
0.0
  0
LINE
  5
2FD
330
22
100
AcDbEntity
  8
_0-4_ハッチ
  6
Continuous
 62
     5
100
AcDbLine
 10
28872.17806539368
 20
17506.58928892699
 30
0.0
 11
29165.08495543802
 21
17506.58928892699
 31
0.0
  0
LINE
  5
2FE
330
22
100
AcDbEntity
  8
_0-4_ハッチ
  6
Continuous
 62
     5
100
AcDbLine
 10
29015.08446055837
 20
17456.5891239671
 30
0.0
 11
29015.08446055837
 21
17556.58945388687
 31
0.0
  0
LINE
  5
2FF
330
22
100
AcDbEntity
  8
_0-4_ハッチ
  6
Continuous
 62
     5
100
AcDbLine
 10
29115.08479047813
 20
17456.5891239671
 30
0.0
 11
29115.08479047813
 21
17556.58945388687
 31
0.0
  0
LINE
  5
300
330
22
100
AcDbEntity
  8
_0-4_ハッチ
  6
Continuous
 62
     5
100
AcDbLine
 10
29165.08495543802
 20
17506.58928892699
 30
0.0
 11
29265.08528535778
 21
17506.58928892699
 31
0.0
  0
LINE
  5
301
330
22
100
AcDbEntity
  8
_0-4_ハッチ
  6
Continuous
 62
     5
100
AcDbLine
 10
29215.0851203979
 20
17456.5891239671
 30
0.0
 11
29215.0851203979
 21
17556.58945388687
 31
0.0
  0
LINE
  5
302
330
22
100
AcDbEntity
  8
_0-4_ハッチ
  6
Continuous
 62
     5
100
AcDbLine
 10
29265.08528535778
 20
17506.58928892699
 30
0.0
 11
29365.08561527754
 21
17506.58928892699
 31
0.0
  0
LINE
  5
303
330
22
100
AcDbEntity
  8
_0-4_ハッチ
  6
Continuous
 62
     5
100
AcDbLine
 10
29315.08545031767
 20
17456.5891239671
 30
0.0
 11
29315.08545031767
 21
17556.58945388687
 31
0.0
  0
LINE
  5
304
330
22
100
AcDbEntity
  8
_0-4_ハッチ
  6
Continuous
 62
     5
100
AcDbLine
 10
29365.08561527754
 20
17506.58928892699
 30
0.0
 11
29465.08594519731
 21
17506.58928892699
 31
0.0
  0
LINE
  5
305
330
22
100
AcDbEntity
  8
_0-4_ハッチ
  6
Continuous
 62
     5
100
AcDbLine
 10
29415.08578023743
 20
17456.5891239671
 30
0.0
 11
29415.08578023743
 21
17556.58945388687
 31
0.0
  0
LINE
  5
306
330
22
100
AcDbEntity
  8
_0-4_ハッチ
  6
Continuous
 62
     5
100
AcDbLine
 10
29465.08594519731
 20
17506.58928892699
 30
0.0
 11
29565.08627511707
 21
17506.58928892699
 31
0.0
  0
LINE
  5
307
330
22
100
AcDbEntity
  8
_0-4_ハッチ
  6
Continuous
 62
     5
100
AcDbLine
 10
29515.08611015718
 20
17456.5891239671
 30
0.0
 11
29515.08611015718
 21
17556.58945388687
 31
0.0
  0
LINE
  5
308
330
22
100
AcDbEntity
  8
_0-4_ハッチ
  6
Continuous
 62
     5
100
AcDbLine
 10
29565.08627511707
 20
17506.58928892699
 30
0.0
 11
29665.08660503683
 21
17506.58928892699
 31
0.0
  0
LINE
  5
309
330
22
100
AcDbEntity
  8
_0-4_ハッチ
  6
Continuous
 62
     5
100
AcDbLine
 10
29615.08644007695
 20
17456.5891239671
 30
0.0
 11
29615.08644007695
 21
17556.58945388687
 31
0.0
  0
LINE
  5
30A
330
22
100
AcDbEntity
  8
_0-4_ハッチ
  6
Continuous
 62
     5
100
AcDbLine
 10
29665.08660503683
 20
17506.58928892699
 30
0.0
 11
29765.0869349566
 21
17506.58928892699
 31
0.0
  0
LINE
  5
30B
330
22
100
AcDbEntity
  8
_0-4_ハッチ
  6
Continuous
 62
     5
100
AcDbLine
 10
29715.08676999672
 20
17456.5891239671
 30
0.0
 11
29715.08676999672
 21
17556.58945388687
 31
0.0
  0
LINE
  5
30C
330
22
100
AcDbEntity
  8
_0-4_ハッチ
  6
Continuous
 62
     5
100
AcDbLine
 10
29765.0869349566
 20
17506.58928892699
 30
0.0
 11
29865.08726487636
 21
17506.58928892699
 31
0.0
  0
LINE
  5
30D
330
22
100
AcDbEntity
  8
_0-4_ハッチ
  6
Continuous
 62
     5
100
AcDbLine
 10
29815.08709991648
 20
17456.5891239671
 30
0.0
 11
29815.08709991648
 21
17556.58945388687
 31
0.0
  0
LINE
  5
30E
330
22
100
AcDbEntity
  8
_0-4_ハッチ
  6
Continuous
 62
     5
100
AcDbLine
 10
29865.08726487636
 20
17506.58928892699
 30
0.0
 11
29965.08759479612
 21
17506.58928892699
 31
0.0
  0
LINE
  5
30F
330
22
100
AcDbEntity
  8
_0-4_ハッチ
  6
Continuous
 62
     5
100
AcDbLine
 10
29915.08742983624
 20
17456.5891239671
 30
0.0
 11
29915.08742983624
 21
17556.58945388687
 31
0.0
  0
LINE
  5
310
330
22
100
AcDbEntity
  8
_0-4_ハッチ
  6
Continuous
 62
     5
100
AcDbLine
 10
29965.08759479612
 20
17506.58928892699
 30
0.0
 11
30065.08792471588
 21
17506.58928892699
 31
0.0
  0
LINE
  5
311
330
22
100
AcDbEntity
  8
_0-4_ハッチ
  6
Continuous
 62
     5
100
AcDbLine
 10
30015.08775975601
 20
17456.5891239671
 30
0.0
 11
30015.08775975601
 21
17556.58945388687
 31
0.0
  0
LINE
  5
312
330
22
100
AcDbEntity
  8
_0-4_ハッチ
  6
Continuous
 62
     5
100
AcDbLine
 10
30115.08808967577
 20
17456.5891239671
 30
0.0
 11
30115.08808967577
 21
17556.58945388687
 31
0.0
  0
LINE
  5
313
330
22
100
AcDbEntity
  8
_0-4_ハッチ
  6
Continuous
 62
     5
100
AcDbLine
 10
28965.08429559849
 20
17606.58961884675
 30
0.0
 11
29065.08462551825
 21
17606.58961884675
 31
0.0
  0
LINE
  5
314
330
22
100
AcDbEntity
  8
_0-4_ハッチ
  6
Continuous
 62
     5
100
AcDbLine
 10
29015.08446055837
 20
17556.58945388687
 30
0.0
 11
29015.08446055837
 21
17656.58978380663
 31
0.0
  0
LINE
  5
315
330
22
100
AcDbEntity
  8
_0-4_ハッチ
  6
Continuous
 62
     5
100
AcDbLine
 10
29065.08462551825
 20
17606.58961884675
 30
0.0
 11
29165.08495543802
 21
17606.58961884675
 31
0.0
  0
LINE
  5
316
330
22
100
AcDbEntity
  8
_0-4_ハッチ
  6
Continuous
 62
     5
100
AcDbLine
 10
29115.08479047813
 20
17556.58945388687
 30
0.0
 11
29115.08479047813
 21
17656.58978380663
 31
0.0
  0
LINE
  5
317
330
22
100
AcDbEntity
  8
_0-4_ハッチ
  6
Continuous
 62
     5
100
AcDbLine
 10
29165.08495543802
 20
17606.58961884675
 30
0.0
 11
29265.08528535778
 21
17606.58961884675
 31
0.0
  0
LINE
  5
318
330
22
100
AcDbEntity
  8
_0-4_ハッチ
  6
Continuous
 62
     5
100
AcDbLine
 10
29215.0851203979
 20
17556.58945388687
 30
0.0
 11
29215.0851203979
 21
17656.58978380663
 31
0.0
  0
LINE
  5
319
330
22
100
AcDbEntity
  8
_0-4_ハッチ
  6
Continuous
 62
     5
100
AcDbLine
 10
29265.08528535778
 20
17606.58961884675
 30
0.0
 11
29365.08561527754
 21
17606.58961884675
 31
0.0
  0
LINE
  5
31A
330
22
100
AcDbEntity
  8
_0-4_ハッチ
  6
Continuous
 62
     5
100
AcDbLine
 10
29315.08545031767
 20
17556.58945388687
 30
0.0
 11
29315.08545031767
 21
17656.58978380663
 31
0.0
  0
LINE
  5
31B
330
22
100
AcDbEntity
  8
_0-4_ハッチ
  6
Continuous
 62
     5
100
AcDbLine
 10
29365.08561527754
 20
17606.58961884675
 30
0.0
 11
29465.08594519731
 21
17606.58961884675
 31
0.0
  0
LINE
  5
31C
330
22
100
AcDbEntity
  8
_0-4_ハッチ
  6
Continuous
 62
     5
100
AcDbLine
 10
29415.08578023743
 20
17556.58945388687
 30
0.0
 11
29415.08578023743
 21
17656.58978380663
 31
0.0
  0
LINE
  5
31D
330
22
100
AcDbEntity
  8
_0-4_ハッチ
  6
Continuous
 62
     5
100
AcDbLine
 10
29465.08594519731
 20
17606.58961884675
 30
0.0
 11
29565.08627511707
 21
17606.58961884675
 31
0.0
  0
LINE
  5
31E
330
22
100
AcDbEntity
  8
_0-4_ハッチ
  6
Continuous
 62
     5
100
AcDbLine
 10
29515.08611015718
 20
17556.58945388687
 30
0.0
 11
29515.08611015718
 21
17656.58978380663
 31
0.0
  0
LINE
  5
31F
330
22
100
AcDbEntity
  8
_0-4_ハッチ
  6
Continuous
 62
     5
100
AcDbLine
 10
29565.08627511707
 20
17606.58961884675
 30
0.0
 11
29665.08660503683
 21
17606.58961884675
 31
0.0
  0
LINE
  5
320
330
22
100
AcDbEntity
  8
_0-4_ハッチ
  6
Continuous
 62
     5
100
AcDbLine
 10
29615.08644007695
 20
17556.58945388687
 30
0.0
 11
29615.08644007695
 21
17656.58978380663
 31
0.0
  0
LINE
  5
321
330
22
100
AcDbEntity
  8
_0-4_ハッチ
  6
Continuous
 62
     5
100
AcDbLine
 10
29665.08660503683
 20
17606.58961884675
 30
0.0
 11
29765.0869349566
 21
17606.58961884675
 31
0.0
  0
LINE
  5
322
330
22
100
AcDbEntity
  8
_0-4_ハッチ
  6
Continuous
 62
     5
100
AcDbLine
 10
29715.08676999672
 20
17556.58945388687
 30
0.0
 11
29715.08676999672
 21
17656.58978380663
 31
0.0
  0
LINE
  5
323
330
22
100
AcDbEntity
  8
_0-4_ハッチ
  6
Continuous
 62
     5
100
AcDbLine
 10
29765.0869349566
 20
17606.58961884675
 30
0.0
 11
29865.08726487636
 21
17606.58961884675
 31
0.0
  0
LINE
  5
324
330
22
100
AcDbEntity
  8
_0-4_ハッチ
  6
Continuous
 62
     5
100
AcDbLine
 10
29815.08709991648
 20
17556.58945388687
 30
0.0
 11
29815.08709991648
 21
17656.58978380663
 31
0.0
  0
LINE
  5
325
330
22
100
AcDbEntity
  8
_0-4_ハッチ
  6
Continuous
 62
     5
100
AcDbLine
 10
29865.08726487636
 20
17606.58961884675
 30
0.0
 11
29965.08759479612
 21
17606.58961884675
 31
0.0
  0
LINE
  5
326
330
22
100
AcDbEntity
  8
_0-4_ハッチ
  6
Continuous
 62
     5
100
AcDbLine
 10
29915.08742983624
 20
17556.58945388687
 30
0.0
 11
29915.08742983624
 21
17656.58978380663
 31
0.0
  0
LINE
  5
327
330
22
100
AcDbEntity
  8
_0-4_ハッチ
  6
Continuous
 62
     5
100
AcDbLine
 10
29965.08759479612
 20
17606.58961884675
 30
0.0
 11
30065.08792471588
 21
17606.58961884675
 31
0.0
  0
LINE
  5
328
330
22
100
AcDbEntity
  8
_0-4_ハッチ
  6
Continuous
 62
     5
100
AcDbLine
 10
30015.08775975601
 20
17556.58945388687
 30
0.0
 11
30015.08775975601
 21
17656.58978380663
 31
0.0
  0
LINE
  5
329
330
22
100
AcDbEntity
  8
_0-4_ハッチ
  6
Continuous
 62
     5
100
AcDbLine
 10
30115.08808967577
 20
17556.58945388687
 30
0.0
 11
30115.08808967577
 21
17656.58978380663
 31
0.0
  0
LINE
  5
32A
330
22
100
AcDbEntity
  8
_0-4_ハッチ
  6
Continuous
 62
     5
100
AcDbLine
 10
28865.08396567873
 20
17706.58994876651
 30
0.0
 11
28965.08429559849
 21
17706.58994876651
 31
0.0
  0
LINE
  5
32B
330
22
100
AcDbEntity
  8
_0-4_ハッチ
  6
Continuous
 62
     5
100
AcDbLine
 10
28915.0841306386
 20
17656.58978380663
 30
0.0
 11
28915.0841306386
 21
17756.59011372639
 31
0.0
  0
LINE
  5
32C
330
22
100
AcDbEntity
  8
_0-4_ハッチ
  6
Continuous
 62
     5
100
AcDbLine
 10
28965.08429559849
 20
17706.58994876651
 30
0.0
 11
29065.08462551825
 21
17706.58994876651
 31
0.0
  0
LINE
  5
32D
330
22
100
AcDbEntity
  8
_0-4_ハッチ
  6
Continuous
 62
     5
100
AcDbLine
 10
29015.08446055837
 20
17656.58978380663
 30
0.0
 11
29015.08446055837
 21
17756.59011372639
 31
0.0
  0
LINE
  5
32E
330
22
100
AcDbEntity
  8
_0-4_ハッチ
  6
Continuous
 62
     5
100
AcDbLine
 10
29065.08462551825
 20
17706.58994876651
 30
0.0
 11
29165.08495543802
 21
17706.58994876651
 31
0.0
  0
LINE
  5
32F
330
22
100
AcDbEntity
  8
_0-4_ハッチ
  6
Continuous
 62
     5
100
AcDbLine
 10
29115.08479047813
 20
17656.58978380663
 30
0.0
 11
29115.08479047813
 21
17756.59011372639
 31
0.0
  0
LINE
  5
330
330
22
100
AcDbEntity
  8
_0-4_ハッチ
  6
Continuous
 62
     5
100
AcDbLine
 10
29165.08495543802
 20
17706.58994876651
 30
0.0
 11
29265.08528535778
 21
17706.58994876651
 31
0.0
  0
LINE
  5
331
330
22
100
AcDbEntity
  8
_0-4_ハッチ
  6
Continuous
 62
     5
100
AcDbLine
 10
29215.0851203979
 20
17656.58978380663
 30
0.0
 11
29215.0851203979
 21
17756.59011372639
 31
0.0
  0
LINE
  5
332
330
22
100
AcDbEntity
  8
_0-4_ハッチ
  6
Continuous
 62
     5
100
AcDbLine
 10
29265.08528535778
 20
17706.58994876651
 30
0.0
 11
29365.08561527754
 21
17706.58994876651
 31
0.0
  0
LINE
  5
333
330
22
100
AcDbEntity
  8
_0-4_ハッチ
  6
Continuous
 62
     5
100
AcDbLine
 10
29315.08545031767
 20
17656.58978380663
 30
0.0
 11
29315.08545031767
 21
17756.59011372639
 31
0.0
  0
LINE
  5
334
330
22
100
AcDbEntity
  8
_0-4_ハッチ
  6
Continuous
 62
     5
100
AcDbLine
 10
29365.08561527754
 20
17706.58994876651
 30
0.0
 11
29465.08594519731
 21
17706.58994876651
 31
0.0
  0
LINE
  5
335
330
22
100
AcDbEntity
  8
_0-4_ハッチ
  6
Continuous
 62
     5
100
AcDbLine
 10
29415.08578023743
 20
17656.58978380663
 30
0.0
 11
29415.08578023743
 21
17756.59011372639
 31
0.0
  0
LINE
  5
336
330
22
100
AcDbEntity
  8
_0-4_ハッチ
  6
Continuous
 62
     5
100
AcDbLine
 10
29465.08594519731
 20
17706.58994876651
 30
0.0
 11
29565.08627511707
 21
17706.58994876651
 31
0.0
  0
LINE
  5
337
330
22
100
AcDbEntity
  8
_0-4_ハッチ
  6
Continuous
 62
     5
100
AcDbLine
 10
29515.08611015718
 20
17656.58978380663
 30
0.0
 11
29515.08611015718
 21
17756.59011372639
 31
0.0
  0
LINE
  5
338
330
22
100
AcDbEntity
  8
_0-4_ハッチ
  6
Continuous
 62
     5
100
AcDbLine
 10
29565.08627511707
 20
17706.58994876651
 30
0.0
 11
29665.08660503683
 21
17706.58994876651
 31
0.0
  0
LINE
  5
339
330
22
100
AcDbEntity
  8
_0-4_ハッチ
  6
Continuous
 62
     5
100
AcDbLine
 10
29615.08644007695
 20
17656.58978380663
 30
0.0
 11
29615.08644007695
 21
17756.59011372639
 31
0.0
  0
LINE
  5
33A
330
22
100
AcDbEntity
  8
_0-4_ハッチ
  6
Continuous
 62
     5
100
AcDbLine
 10
29665.08660503683
 20
17706.58994876651
 30
0.0
 11
29765.0869349566
 21
17706.58994876651
 31
0.0
  0
LINE
  5
33B
330
22
100
AcDbEntity
  8
_0-4_ハッチ
  6
Continuous
 62
     5
100
AcDbLine
 10
29715.08676999672
 20
17656.58978380663
 30
0.0
 11
29715.08676999672
 21
17756.59011372639
 31
0.0
  0
LINE
  5
33C
330
22
100
AcDbEntity
  8
_0-4_ハッチ
  6
Continuous
 62
     5
100
AcDbLine
 10
29765.0869349566
 20
17706.58994876651
 30
0.0
 11
29865.08726487636
 21
17706.58994876651
 31
0.0
  0
LINE
  5
33D
330
22
100
AcDbEntity
  8
_0-4_ハッチ
  6
Continuous
 62
     5
100
AcDbLine
 10
29815.08709991648
 20
17656.58978380663
 30
0.0
 11
29815.08709991648
 21
17756.59011372639
 31
0.0
  0
LINE
  5
33E
330
22
100
AcDbEntity
  8
_0-4_ハッチ
  6
Continuous
 62
     5
100
AcDbLine
 10
29865.08726487636
 20
17706.58994876651
 30
0.0
 11
29965.08759479612
 21
17706.58994876651
 31
0.0
  0
LINE
  5
33F
330
22
100
AcDbEntity
  8
_0-4_ハッチ
  6
Continuous
 62
     5
100
AcDbLine
 10
29915.08742983624
 20
17656.58978380663
 30
0.0
 11
29915.08742983624
 21
17756.59011372639
 31
0.0
  0
LINE
  5
340
330
22
100
AcDbEntity
  8
_0-4_ハッチ
  6
Continuous
 62
     5
100
AcDbLine
 10
29965.08759479612
 20
17706.58994876651
 30
0.0
 11
30065.08792471588
 21
17706.58994876651
 31
0.0
  0
LINE
  5
341
330
22
100
AcDbEntity
  8
_0-4_ハッチ
  6
Continuous
 62
     5
100
AcDbLine
 10
30015.08775975601
 20
17656.58978380663
 30
0.0
 11
30015.08775975601
 21
17756.59011372639
 31
0.0
  0
LINE
  5
342
330
22
100
AcDbEntity
  8
_0-4_ハッチ
  6
Continuous
 62
     5
100
AcDbLine
 10
30115.08808967577
 20
17656.58978380663
 30
0.0
 11
30115.08808967577
 21
17756.59011372639
 31
0.0
  0
LINE
  5
343
330
22
100
AcDbEntity
  8
_0-4_ハッチ
  6
Continuous
 62
     5
100
AcDbLine
 10
28815.08380071884
 20
17756.59011372639
 30
0.0
 11
28815.08380071884
 21
17856.59044364616
 31
0.0
  0
LINE
  5
344
330
22
100
AcDbEntity
  8
_0-4_ハッチ
  6
Continuous
 62
     5
100
AcDbLine
 10
28865.08396567873
 20
17806.59027868628
 30
0.0
 11
28965.08429559849
 21
17806.59027868628
 31
0.0
  0
LINE
  5
345
330
22
100
AcDbEntity
  8
_0-4_ハッチ
  6
Continuous
 62
     5
100
AcDbLine
 10
28915.0841306386
 20
17756.59011372639
 30
0.0
 11
28915.0841306386
 21
17856.59044364616
 31
0.0
  0
LINE
  5
346
330
22
100
AcDbEntity
  8
_0-4_ハッチ
  6
Continuous
 62
     5
100
AcDbLine
 10
28965.08429559849
 20
17806.59027868628
 30
0.0
 11
29065.08462551825
 21
17806.59027868628
 31
0.0
  0
LINE
  5
347
330
22
100
AcDbEntity
  8
_0-4_ハッチ
  6
Continuous
 62
     5
100
AcDbLine
 10
29015.08446055837
 20
17756.59011372639
 30
0.0
 11
29015.08446055837
 21
17856.59044364616
 31
0.0
  0
LINE
  5
348
330
22
100
AcDbEntity
  8
_0-4_ハッチ
  6
Continuous
 62
     5
100
AcDbLine
 10
29065.08462551825
 20
17806.59027868628
 30
0.0
 11
29165.08495543802
 21
17806.59027868628
 31
0.0
  0
LINE
  5
349
330
22
100
AcDbEntity
  8
_0-4_ハッチ
  6
Continuous
 62
     5
100
AcDbLine
 10
29115.08479047813
 20
17756.59011372639
 30
0.0
 11
29115.08479047813
 21
17856.59044364616
 31
0.0
  0
LINE
  5
34A
330
22
100
AcDbEntity
  8
_0-4_ハッチ
  6
Continuous
 62
     5
100
AcDbLine
 10
29165.08495543802
 20
17806.59027868628
 30
0.0
 11
29265.08528535778
 21
17806.59027868628
 31
0.0
  0
LINE
  5
34B
330
22
100
AcDbEntity
  8
_0-4_ハッチ
  6
Continuous
 62
     5
100
AcDbLine
 10
29215.0851203979
 20
17756.59011372639
 30
0.0
 11
29215.0851203979
 21
17856.59044364616
 31
0.0
  0
LINE
  5
34C
330
22
100
AcDbEntity
  8
_0-4_ハッチ
  6
Continuous
 62
     5
100
AcDbLine
 10
29265.08528535778
 20
17806.59027868628
 30
0.0
 11
29365.08561527754
 21
17806.59027868628
 31
0.0
  0
LINE
  5
34D
330
22
100
AcDbEntity
  8
_0-4_ハッチ
  6
Continuous
 62
     5
100
AcDbLine
 10
29315.08545031767
 20
17756.59011372639
 30
0.0
 11
29315.08545031767
 21
17856.59044364616
 31
0.0
  0
LINE
  5
34E
330
22
100
AcDbEntity
  8
_0-4_ハッチ
  6
Continuous
 62
     5
100
AcDbLine
 10
29365.08561527754
 20
17806.59027868628
 30
0.0
 11
29465.08594519731
 21
17806.59027868628
 31
0.0
  0
LINE
  5
34F
330
22
100
AcDbEntity
  8
_0-4_ハッチ
  6
Continuous
 62
     5
100
AcDbLine
 10
29415.08578023743
 20
17756.59011372639
 30
0.0
 11
29415.08578023743
 21
17856.59044364616
 31
0.0
  0
LINE
  5
350
330
22
100
AcDbEntity
  8
_0-4_ハッチ
  6
Continuous
 62
     5
100
AcDbLine
 10
29465.08594519731
 20
17806.59027868628
 30
0.0
 11
29565.08627511707
 21
17806.59027868628
 31
0.0
  0
LINE
  5
351
330
22
100
AcDbEntity
  8
_0-4_ハッチ
  6
Continuous
 62
     5
100
AcDbLine
 10
29515.08611015718
 20
17756.59011372639
 30
0.0
 11
29515.08611015718
 21
17856.59044364616
 31
0.0
  0
LINE
  5
352
330
22
100
AcDbEntity
  8
_0-4_ハッチ
  6
Continuous
 62
     5
100
AcDbLine
 10
29565.08627511707
 20
17806.59027868628
 30
0.0
 11
29665.08660503683
 21
17806.59027868628
 31
0.0
  0
LINE
  5
353
330
22
100
AcDbEntity
  8
_0-4_ハッチ
  6
Continuous
 62
     5
100
AcDbLine
 10
29615.08644007695
 20
17756.59011372639
 30
0.0
 11
29615.08644007695
 21
17856.59044364616
 31
0.0
  0
LINE
  5
354
330
22
100
AcDbEntity
  8
_0-4_ハッチ
  6
Continuous
 62
     5
100
AcDbLine
 10
29665.08660503683
 20
17806.59027868628
 30
0.0
 11
29765.0869349566
 21
17806.59027868628
 31
0.0
  0
LINE
  5
355
330
22
100
AcDbEntity
  8
_0-4_ハッチ
  6
Continuous
 62
     5
100
AcDbLine
 10
29715.08676999672
 20
17756.59011372639
 30
0.0
 11
29715.08676999672
 21
17856.59044364616
 31
0.0
  0
LINE
  5
356
330
22
100
AcDbEntity
  8
_0-4_ハッチ
  6
Continuous
 62
     5
100
AcDbLine
 10
29765.0869349566
 20
17806.59027868628
 30
0.0
 11
29865.08726487636
 21
17806.59027868628
 31
0.0
  0
LINE
  5
357
330
22
100
AcDbEntity
  8
_0-4_ハッチ
  6
Continuous
 62
     5
100
AcDbLine
 10
29815.08709991648
 20
17756.59011372639
 30
0.0
 11
29815.08709991648
 21
17856.59044364616
 31
0.0
  0
LINE
  5
358
330
22
100
AcDbEntity
  8
_0-4_ハッチ
  6
Continuous
 62
     5
100
AcDbLine
 10
29865.08726487636
 20
17806.59027868628
 30
0.0
 11
29965.08759479612
 21
17806.59027868628
 31
0.0
  0
LINE
  5
359
330
22
100
AcDbEntity
  8
_0-4_ハッチ
  6
Continuous
 62
     5
100
AcDbLine
 10
29915.08742983624
 20
17756.59011372639
 30
0.0
 11
29915.08742983624
 21
17856.59044364616
 31
0.0
  0
LINE
  5
35A
330
22
100
AcDbEntity
  8
_0-4_ハッチ
  6
Continuous
 62
     5
100
AcDbLine
 10
29965.08759479612
 20
17806.59027868628
 30
0.0
 11
30065.08792471588
 21
17806.59027868628
 31
0.0
  0
LINE
  5
35B
330
22
100
AcDbEntity
  8
_0-4_ハッチ
  6
Continuous
 62
     5
100
AcDbLine
 10
30015.08775975601
 20
17756.59011372639
 30
0.0
 11
30015.08775975601
 21
17856.59044364616
 31
0.0
  0
LINE
  5
35C
330
22
100
AcDbEntity
  8
_0-4_ハッチ
  6
Continuous
 62
     5
100
AcDbLine
 10
30115.08808967577
 20
17756.59011372639
 30
0.0
 11
30115.08808967577
 21
17856.59044364616
 31
0.0
  0
LINE
  5
35D
330
22
100
AcDbEntity
  8
_0-4_ハッチ
  6
Continuous
 62
     5
100
AcDbLine
 10
28765.08363575896
 20
17906.59060860604
 30
0.0
 11
28865.08396567873
 21
17906.59060860604
 31
0.0
  0
LINE
  5
35E
330
22
100
AcDbEntity
  8
_0-4_ハッチ
  6
Continuous
 62
     5
100
AcDbLine
 10
28815.08380071884
 20
17856.59044364616
 30
0.0
 11
28815.08380071884
 21
17956.59077356592
 31
0.0
  0
LINE
  5
35F
330
22
100
AcDbEntity
  8
_0-4_ハッチ
  6
Continuous
 62
     5
100
AcDbLine
 10
28865.08396567873
 20
17906.59060860604
 30
0.0
 11
28965.08429559849
 21
17906.59060860604
 31
0.0
  0
LINE
  5
360
330
22
100
AcDbEntity
  8
_0-4_ハッチ
  6
Continuous
 62
     5
100
AcDbLine
 10
28915.0841306386
 20
17856.59044364616
 30
0.0
 11
28915.0841306386
 21
17956.59077356592
 31
0.0
  0
LINE
  5
361
330
22
100
AcDbEntity
  8
_0-4_ハッチ
  6
Continuous
 62
     5
100
AcDbLine
 10
28965.08429559849
 20
17906.59060860604
 30
0.0
 11
29065.08462551825
 21
17906.59060860604
 31
0.0
  0
LINE
  5
362
330
22
100
AcDbEntity
  8
_0-4_ハッチ
  6
Continuous
 62
     5
100
AcDbLine
 10
29015.08446055837
 20
17856.59044364616
 30
0.0
 11
29015.08446055837
 21
17956.59077356592
 31
0.0
  0
LINE
  5
363
330
22
100
AcDbEntity
  8
_0-4_ハッチ
  6
Continuous
 62
     5
100
AcDbLine
 10
29065.08462551825
 20
17906.59060860604
 30
0.0
 11
29165.08495543802
 21
17906.59060860604
 31
0.0
  0
LINE
  5
364
330
22
100
AcDbEntity
  8
_0-4_ハッチ
  6
Continuous
 62
     5
100
AcDbLine
 10
29115.08479047813
 20
17856.59044364616
 30
0.0
 11
29115.08479047813
 21
17956.59077356592
 31
0.0
  0
LINE
  5
365
330
22
100
AcDbEntity
  8
_0-4_ハッチ
  6
Continuous
 62
     5
100
AcDbLine
 10
29165.08495543802
 20
17906.59060860604
 30
0.0
 11
29265.08528535778
 21
17906.59060860604
 31
0.0
  0
LINE
  5
366
330
22
100
AcDbEntity
  8
_0-4_ハッチ
  6
Continuous
 62
     5
100
AcDbLine
 10
29215.0851203979
 20
17856.59044364616
 30
0.0
 11
29215.0851203979
 21
17956.59077356592
 31
0.0
  0
LINE
  5
367
330
22
100
AcDbEntity
  8
_0-4_ハッチ
  6
Continuous
 62
     5
100
AcDbLine
 10
29265.08528535778
 20
17906.59060860604
 30
0.0
 11
29365.08561527754
 21
17906.59060860604
 31
0.0
  0
LINE
  5
368
330
22
100
AcDbEntity
  8
_0-4_ハッチ
  6
Continuous
 62
     5
100
AcDbLine
 10
29315.08545031767
 20
17856.59044364616
 30
0.0
 11
29315.08545031767
 21
17956.59077356592
 31
0.0
  0
LINE
  5
369
330
22
100
AcDbEntity
  8
_0-4_ハッチ
  6
Continuous
 62
     5
100
AcDbLine
 10
29365.08561527754
 20
17906.59060860604
 30
0.0
 11
29465.08594519731
 21
17906.59060860604
 31
0.0
  0
LINE
  5
36A
330
22
100
AcDbEntity
  8
_0-4_ハッチ
  6
Continuous
 62
     5
100
AcDbLine
 10
29415.08578023743
 20
17856.59044364616
 30
0.0
 11
29415.08578023743
 21
17956.59077356592
 31
0.0
  0
LINE
  5
36B
330
22
100
AcDbEntity
  8
_0-4_ハッチ
  6
Continuous
 62
     5
100
AcDbLine
 10
29465.08594519731
 20
17906.59060860604
 30
0.0
 11
29565.08627511707
 21
17906.59060860604
 31
0.0
  0
LINE
  5
36C
330
22
100
AcDbEntity
  8
_0-4_ハッチ
  6
Continuous
 62
     5
100
AcDbLine
 10
29515.08611015718
 20
17856.59044364616
 30
0.0
 11
29515.08611015718
 21
17956.59077356592
 31
0.0
  0
LINE
  5
36D
330
22
100
AcDbEntity
  8
_0-4_ハッチ
  6
Continuous
 62
     5
100
AcDbLine
 10
29565.08627511707
 20
17906.59060860604
 30
0.0
 11
29665.08660503683
 21
17906.59060860604
 31
0.0
  0
LINE
  5
36E
330
22
100
AcDbEntity
  8
_0-4_ハッチ
  6
Continuous
 62
     5
100
AcDbLine
 10
29615.08644007695
 20
17856.59044364616
 30
0.0
 11
29615.08644007695
 21
17956.59077356592
 31
0.0
  0
LINE
  5
36F
330
22
100
AcDbEntity
  8
_0-4_ハッチ
  6
Continuous
 62
     5
100
AcDbLine
 10
29665.08660503683
 20
17906.59060860604
 30
0.0
 11
29765.0869349566
 21
17906.59060860604
 31
0.0
  0
LINE
  5
370
330
22
100
AcDbEntity
  8
_0-4_ハッチ
  6
Continuous
 62
     5
100
AcDbLine
 10
29715.08676999672
 20
17856.59044364616
 30
0.0
 11
29715.08676999672
 21
17956.59077356592
 31
0.0
  0
LINE
  5
371
330
22
100
AcDbEntity
  8
_0-4_ハッチ
  6
Continuous
 62
     5
100
AcDbLine
 10
29765.0869349566
 20
17906.59060860604
 30
0.0
 11
29865.08726487636
 21
17906.59060860604
 31
0.0
  0
LINE
  5
372
330
22
100
AcDbEntity
  8
_0-4_ハッチ
  6
Continuous
 62
     5
100
AcDbLine
 10
29815.08709991648
 20
17856.59044364616
 30
0.0
 11
29815.08709991648
 21
17956.59077356592
 31
0.0
  0
LINE
  5
373
330
22
100
AcDbEntity
  8
_0-4_ハッチ
  6
Continuous
 62
     5
100
AcDbLine
 10
29865.08726487636
 20
17906.59060860604
 30
0.0
 11
29965.08759479612
 21
17906.59060860604
 31
0.0
  0
LINE
  5
374
330
22
100
AcDbEntity
  8
_0-4_ハッチ
  6
Continuous
 62
     5
100
AcDbLine
 10
29915.08742983624
 20
17856.59044364616
 30
0.0
 11
29915.08742983624
 21
17956.59077356592
 31
0.0
  0
LINE
  5
375
330
22
100
AcDbEntity
  8
_0-4_ハッチ
  6
Continuous
 62
     5
100
AcDbLine
 10
29965.08759479612
 20
17906.59060860604
 30
0.0
 11
30065.08792471588
 21
17906.59060860604
 31
0.0
  0
LINE
  5
376
330
22
100
AcDbEntity
  8
_0-4_ハッチ
  6
Continuous
 62
     5
100
AcDbLine
 10
30015.08775975601
 20
17856.59044364616
 30
0.0
 11
30015.08775975601
 21
17956.59077356592
 31
0.0
  0
LINE
  5
377
330
22
100
AcDbEntity
  8
_0-4_ハッチ
  6
Continuous
 62
     5
100
AcDbLine
 10
30115.08808967577
 20
17856.59044364616
 30
0.0
 11
30115.08808967577
 21
17956.59077356592
 31
0.0
  0
LINE
  5
378
330
22
100
AcDbEntity
  8
_0-4_ハッチ
  6
Continuous
 62
     5
100
AcDbLine
 10
28715.08347079908
 20
17956.59077356592
 30
0.0
 11
28715.08347079908
 21
18056.59110348569
 31
0.0
  0
LINE
  5
379
330
22
100
AcDbEntity
  8
_0-4_ハッチ
  6
Continuous
 62
     5
100
AcDbLine
 10
28765.08363575896
 20
18006.5909385258
 30
0.0
 11
28865.08396567873
 21
18006.5909385258
 31
0.0
  0
LINE
  5
37A
330
22
100
AcDbEntity
  8
_0-4_ハッチ
  6
Continuous
 62
     5
100
AcDbLine
 10
28815.08380071884
 20
17956.59077356592
 30
0.0
 11
28815.08380071884
 21
18056.59110348569
 31
0.0
  0
LINE
  5
37B
330
22
100
AcDbEntity
  8
_0-4_ハッチ
  6
Continuous
 62
     5
100
AcDbLine
 10
28865.08396567873
 20
18006.5909385258
 30
0.0
 11
28965.08429559849
 21
18006.5909385258
 31
0.0
  0
LINE
  5
37C
330
22
100
AcDbEntity
  8
_0-4_ハッチ
  6
Continuous
 62
     5
100
AcDbLine
 10
28915.0841306386
 20
17956.59077356592
 30
0.0
 11
28915.0841306386
 21
18056.59110348569
 31
0.0
  0
LINE
  5
37D
330
22
100
AcDbEntity
  8
_0-4_ハッチ
  6
Continuous
 62
     5
100
AcDbLine
 10
28965.08429559849
 20
18006.5909385258
 30
0.0
 11
29065.08462551825
 21
18006.5909385258
 31
0.0
  0
LINE
  5
37E
330
22
100
AcDbEntity
  8
_0-4_ハッチ
  6
Continuous
 62
     5
100
AcDbLine
 10
29015.08446055837
 20
17956.59077356592
 30
0.0
 11
29015.08446055837
 21
18056.59110348569
 31
0.0
  0
LINE
  5
37F
330
22
100
AcDbEntity
  8
_0-4_ハッチ
  6
Continuous
 62
     5
100
AcDbLine
 10
29065.08462551825
 20
18006.5909385258
 30
0.0
 11
29165.08495543802
 21
18006.5909385258
 31
0.0
  0
LINE
  5
380
330
22
100
AcDbEntity
  8
_0-4_ハッチ
  6
Continuous
 62
     5
100
AcDbLine
 10
29115.08479047813
 20
17956.59077356592
 30
0.0
 11
29115.08479047813
 21
18056.59110348569
 31
0.0
  0
LINE
  5
381
330
22
100
AcDbEntity
  8
_0-4_ハッチ
  6
Continuous
 62
     5
100
AcDbLine
 10
29165.08495543802
 20
18006.5909385258
 30
0.0
 11
29265.08528535778
 21
18006.5909385258
 31
0.0
  0
LINE
  5
382
330
22
100
AcDbEntity
  8
_0-4_ハッチ
  6
Continuous
 62
     5
100
AcDbLine
 10
29215.0851203979
 20
17956.59077356592
 30
0.0
 11
29215.0851203979
 21
18056.59110348569
 31
0.0
  0
LINE
  5
383
330
22
100
AcDbEntity
  8
_0-4_ハッチ
  6
Continuous
 62
     5
100
AcDbLine
 10
29265.08528535778
 20
18006.5909385258
 30
0.0
 11
29365.08561527754
 21
18006.5909385258
 31
0.0
  0
LINE
  5
384
330
22
100
AcDbEntity
  8
_0-4_ハッチ
  6
Continuous
 62
     5
100
AcDbLine
 10
29315.08545031767
 20
17956.59077356592
 30
0.0
 11
29315.08545031767
 21
18056.59110348569
 31
0.0
  0
LINE
  5
385
330
22
100
AcDbEntity
  8
_0-4_ハッチ
  6
Continuous
 62
     5
100
AcDbLine
 10
29365.08561527754
 20
18006.5909385258
 30
0.0
 11
29465.08594519731
 21
18006.5909385258
 31
0.0
  0
LINE
  5
386
330
22
100
AcDbEntity
  8
_0-4_ハッチ
  6
Continuous
 62
     5
100
AcDbLine
 10
29415.08578023743
 20
17956.59077356592
 30
0.0
 11
29415.08578023743
 21
18056.59110348569
 31
0.0
  0
LINE
  5
387
330
22
100
AcDbEntity
  8
_0-4_ハッチ
  6
Continuous
 62
     5
100
AcDbLine
 10
29465.08594519731
 20
18006.5909385258
 30
0.0
 11
29565.08627511707
 21
18006.5909385258
 31
0.0
  0
LINE
  5
388
330
22
100
AcDbEntity
  8
_0-4_ハッチ
  6
Continuous
 62
     5
100
AcDbLine
 10
29515.08611015718
 20
17956.59077356592
 30
0.0
 11
29515.08611015718
 21
18056.59110348569
 31
0.0
  0
LINE
  5
389
330
22
100
AcDbEntity
  8
_0-4_ハッチ
  6
Continuous
 62
     5
100
AcDbLine
 10
29565.08627511707
 20
18006.5909385258
 30
0.0
 11
29665.08660503683
 21
18006.5909385258
 31
0.0
  0
LINE
  5
38A
330
22
100
AcDbEntity
  8
_0-4_ハッチ
  6
Continuous
 62
     5
100
AcDbLine
 10
29615.08644007695
 20
17956.59077356592
 30
0.0
 11
29615.08644007695
 21
18056.59110348569
 31
0.0
  0
LINE
  5
38B
330
22
100
AcDbEntity
  8
_0-4_ハッチ
  6
Continuous
 62
     5
100
AcDbLine
 10
29665.08660503683
 20
18006.5909385258
 30
0.0
 11
29765.0869349566
 21
18006.5909385258
 31
0.0
  0
LINE
  5
38C
330
22
100
AcDbEntity
  8
_0-4_ハッチ
  6
Continuous
 62
     5
100
AcDbLine
 10
29715.08676999672
 20
17956.59077356592
 30
0.0
 11
29715.08676999672
 21
18056.59110348569
 31
0.0
  0
LINE
  5
38D
330
22
100
AcDbEntity
  8
_0-4_ハッチ
  6
Continuous
 62
     5
100
AcDbLine
 10
29765.0869349566
 20
18006.5909385258
 30
0.0
 11
29865.08726487636
 21
18006.5909385258
 31
0.0
  0
LINE
  5
38E
330
22
100
AcDbEntity
  8
_0-4_ハッチ
  6
Continuous
 62
     5
100
AcDbLine
 10
29815.08709991648
 20
17956.59077356592
 30
0.0
 11
29815.08709991648
 21
18056.59110348569
 31
0.0
  0
LINE
  5
38F
330
22
100
AcDbEntity
  8
_0-4_ハッチ
  6
Continuous
 62
     5
100
AcDbLine
 10
29865.08726487636
 20
18006.5909385258
 30
0.0
 11
29965.08759479612
 21
18006.5909385258
 31
0.0
  0
LINE
  5
390
330
22
100
AcDbEntity
  8
_0-4_ハッチ
  6
Continuous
 62
     5
100
AcDbLine
 10
29915.08742983624
 20
17956.59077356592
 30
0.0
 11
29915.08742983624
 21
18056.59110348569
 31
0.0
  0
LINE
  5
391
330
22
100
AcDbEntity
  8
_0-4_ハッチ
  6
Continuous
 62
     5
100
AcDbLine
 10
29965.08759479612
 20
18006.5909385258
 30
0.0
 11
30065.08792471588
 21
18006.5909385258
 31
0.0
  0
LINE
  5
392
330
22
100
AcDbEntity
  8
_0-4_ハッチ
  6
Continuous
 62
     5
100
AcDbLine
 10
28665.0833058392
 20
18106.59126844557
 30
0.0
 11
28765.08363575896
 21
18106.59126844557
 31
0.0
  0
LINE
  5
393
330
22
100
AcDbEntity
  8
_0-4_ハッチ
  6
Continuous
 62
     5
100
AcDbLine
 10
28715.08347079908
 20
18056.59110348569
 30
0.0
 11
28715.08347079908
 21
18156.59143340545
 31
0.0
  0
LINE
  5
394
330
22
100
AcDbEntity
  8
_0-4_ハッチ
  6
Continuous
 62
     5
100
AcDbLine
 10
28765.08363575896
 20
18106.59126844557
 30
0.0
 11
28865.08396567873
 21
18106.59126844557
 31
0.0
  0
LINE
  5
395
330
22
100
AcDbEntity
  8
_0-4_ハッチ
  6
Continuous
 62
     5
100
AcDbLine
 10
28815.08380071884
 20
18056.59110348569
 30
0.0
 11
28815.08380071884
 21
18156.59143340545
 31
0.0
  0
LINE
  5
396
330
22
100
AcDbEntity
  8
_0-4_ハッチ
  6
Continuous
 62
     5
100
AcDbLine
 10
28865.08396567873
 20
18106.59126844557
 30
0.0
 11
28965.08429559849
 21
18106.59126844557
 31
0.0
  0
LINE
  5
397
330
22
100
AcDbEntity
  8
_0-4_ハッチ
  6
Continuous
 62
     5
100
AcDbLine
 10
28915.0841306386
 20
18056.59110348569
 30
0.0
 11
28915.0841306386
 21
18156.59143340545
 31
0.0
  0
LINE
  5
398
330
22
100
AcDbEntity
  8
_0-4_ハッチ
  6
Continuous
 62
     5
100
AcDbLine
 10
28965.08429559849
 20
18106.59126844557
 30
0.0
 11
29065.08462551825
 21
18106.59126844557
 31
0.0
  0
LINE
  5
399
330
22
100
AcDbEntity
  8
_0-4_ハッチ
  6
Continuous
 62
     5
100
AcDbLine
 10
29015.08446055837
 20
18056.59110348569
 30
0.0
 11
29015.08446055837
 21
18156.59143340545
 31
0.0
  0
LINE
  5
39A
330
22
100
AcDbEntity
  8
_0-4_ハッチ
  6
Continuous
 62
     5
100
AcDbLine
 10
29065.08462551825
 20
18106.59126844557
 30
0.0
 11
29165.08495543802
 21
18106.59126844557
 31
0.0
  0
LINE
  5
39B
330
22
100
AcDbEntity
  8
_0-4_ハッチ
  6
Continuous
 62
     5
100
AcDbLine
 10
29115.08479047813
 20
18056.59110348569
 30
0.0
 11
29115.08479047813
 21
18156.59143340545
 31
0.0
  0
LINE
  5
39C
330
22
100
AcDbEntity
  8
_0-4_ハッチ
  6
Continuous
 62
     5
100
AcDbLine
 10
29165.08495543802
 20
18106.59126844557
 30
0.0
 11
29265.08528535778
 21
18106.59126844557
 31
0.0
  0
LINE
  5
39D
330
22
100
AcDbEntity
  8
_0-4_ハッチ
  6
Continuous
 62
     5
100
AcDbLine
 10
29215.0851203979
 20
18056.59110348569
 30
0.0
 11
29215.0851203979
 21
18156.59143340545
 31
0.0
  0
LINE
  5
39E
330
22
100
AcDbEntity
  8
_0-4_ハッチ
  6
Continuous
 62
     5
100
AcDbLine
 10
29265.08528535778
 20
18106.59126844557
 30
0.0
 11
29365.08561527754
 21
18106.59126844557
 31
0.0
  0
LINE
  5
39F
330
22
100
AcDbEntity
  8
_0-4_ハッチ
  6
Continuous
 62
     5
100
AcDbLine
 10
29315.08545031767
 20
18056.59110348569
 30
0.0
 11
29315.08545031767
 21
18156.59143340545
 31
0.0
  0
LINE
  5
3A0
330
22
100
AcDbEntity
  8
_0-4_ハッチ
  6
Continuous
 62
     5
100
AcDbLine
 10
29365.08561527754
 20
18106.59126844557
 30
0.0
 11
29465.08594519731
 21
18106.59126844557
 31
0.0
  0
LINE
  5
3A1
330
22
100
AcDbEntity
  8
_0-4_ハッチ
  6
Continuous
 62
     5
100
AcDbLine
 10
29415.08578023743
 20
18056.59110348569
 30
0.0
 11
29415.08578023743
 21
18156.59143340545
 31
0.0
  0
LINE
  5
3A2
330
22
100
AcDbEntity
  8
_0-4_ハッチ
  6
Continuous
 62
     5
100
AcDbLine
 10
29465.08594519731
 20
18106.59126844557
 30
0.0
 11
29565.08627511707
 21
18106.59126844557
 31
0.0
  0
LINE
  5
3A3
330
22
100
AcDbEntity
  8
_0-4_ハッチ
  6
Continuous
 62
     5
100
AcDbLine
 10
29515.08611015718
 20
18056.59110348569
 30
0.0
 11
29515.08611015718
 21
18156.59143340545
 31
0.0
  0
LINE
  5
3A4
330
22
100
AcDbEntity
  8
_0-4_ハッチ
  6
Continuous
 62
     5
100
AcDbLine
 10
29565.08627511707
 20
18106.59126844557
 30
0.0
 11
29665.08660503683
 21
18106.59126844557
 31
0.0
  0
LINE
  5
3A5
330
22
100
AcDbEntity
  8
_0-4_ハッチ
  6
Continuous
 62
     5
100
AcDbLine
 10
29615.08644007695
 20
18056.59110348569
 30
0.0
 11
29615.08644007695
 21
18156.59143340545
 31
0.0
  0
LINE
  5
3A6
330
22
100
AcDbEntity
  8
_0-4_ハッチ
  6
Continuous
 62
     5
100
AcDbLine
 10
29665.08660503683
 20
18106.59126844557
 30
0.0
 11
29765.0869349566
 21
18106.59126844557
 31
0.0
  0
LINE
  5
3A7
330
22
100
AcDbEntity
  8
_0-4_ハッチ
  6
Continuous
 62
     5
100
AcDbLine
 10
29715.08676999672
 20
18056.59110348569
 30
0.0
 11
29715.08676999672
 21
18156.59143340545
 31
0.0
  0
LINE
  5
3A8
330
22
100
AcDbEntity
  8
_0-4_ハッチ
  6
Continuous
 62
     5
100
AcDbLine
 10
29765.0869349566
 20
18106.59126844557
 30
0.0
 11
29865.08726487636
 21
18106.59126844557
 31
0.0
  0
LINE
  5
3A9
330
22
100
AcDbEntity
  8
_0-4_ハッチ
  6
Continuous
 62
     5
100
AcDbLine
 10
29815.08709991648
 20
18056.59110348569
 30
0.0
 11
29815.08709991648
 21
18156.59143340545
 31
0.0
  0
LINE
  5
3AA
330
22
100
AcDbEntity
  8
_0-4_ハッチ
  6
Continuous
 62
     5
100
AcDbLine
 10
29865.08726487636
 20
18106.59126844557
 30
0.0
 11
29965.08759479612
 21
18106.59126844557
 31
0.0
  0
LINE
  5
3AB
330
22
100
AcDbEntity
  8
_0-4_ハッチ
  6
Continuous
 62
     5
100
AcDbLine
 10
29965.08759479612
 20
18106.59126844557
 30
0.0
 11
30065.08792471588
 21
18106.59126844557
 31
0.0
  0
LINE
  5
3AC
330
22
100
AcDbEntity
  8
_0-4_ハッチ
  6
Continuous
 62
     5
100
AcDbLine
 10
30015.08775975601
 20
17956.59077356592
 30
0.0
 11
30015.08775975601
 21
19655.0845248856
 31
0.0
  0
LINE
  5
3AD
330
22
100
AcDbEntity
  8
_0-4_ハッチ
  6
Continuous
 62
     5
100
AcDbLine
 10
30115.08808967577
 20
17956.59077356592
 30
0.0
 11
30115.08808967577
 21
19655.0845248856
 31
0.0
  0
LINE
  5
3AE
330
22
100
AcDbEntity
  8
_0-4_ハッチ
  6
Continuous
 62
     5
100
AcDbLine
 10
28615.08314087932
 20
18156.59143340545
 30
0.0
 11
28615.08314087932
 21
18256.59176332521
 31
0.0
  0
LINE
  5
3AF
330
22
100
AcDbEntity
  8
_0-4_ハッチ
  6
Continuous
 62
     5
100
AcDbLine
 10
28665.0833058392
 20
18206.59159836533
 30
0.0
 11
28765.08363575896
 21
18206.59159836533
 31
0.0
  0
LINE
  5
3B0
330
22
100
AcDbEntity
  8
_0-4_ハッチ
  6
Continuous
 62
     5
100
AcDbLine
 10
28715.08347079908
 20
18156.59143340545
 30
0.0
 11
28715.08347079908
 21
18256.59176332521
 31
0.0
  0
LINE
  5
3B1
330
22
100
AcDbEntity
  8
_0-4_ハッチ
  6
Continuous
 62
     5
100
AcDbLine
 10
28765.08363575896
 20
18206.59159836533
 30
0.0
 11
28865.08396567873
 21
18206.59159836533
 31
0.0
  0
LINE
  5
3B2
330
22
100
AcDbEntity
  8
_0-4_ハッチ
  6
Continuous
 62
     5
100
AcDbLine
 10
28815.08380071884
 20
18156.59143340545
 30
0.0
 11
28815.08380071884
 21
18256.59176332521
 31
0.0
  0
LINE
  5
3B3
330
22
100
AcDbEntity
  8
_0-4_ハッチ
  6
Continuous
 62
     5
100
AcDbLine
 10
28865.08396567873
 20
18206.59159836533
 30
0.0
 11
28965.08429559849
 21
18206.59159836533
 31
0.0
  0
LINE
  5
3B4
330
22
100
AcDbEntity
  8
_0-4_ハッチ
  6
Continuous
 62
     5
100
AcDbLine
 10
28915.0841306386
 20
18156.59143340545
 30
0.0
 11
28915.0841306386
 21
18256.59176332521
 31
0.0
  0
LINE
  5
3B5
330
22
100
AcDbEntity
  8
_0-4_ハッチ
  6
Continuous
 62
     5
100
AcDbLine
 10
28965.08429559849
 20
18206.59159836533
 30
0.0
 11
29065.08462551825
 21
18206.59159836533
 31
0.0
  0
LINE
  5
3B6
330
22
100
AcDbEntity
  8
_0-4_ハッチ
  6
Continuous
 62
     5
100
AcDbLine
 10
29015.08446055837
 20
18156.59143340545
 30
0.0
 11
29015.08446055837
 21
18256.59176332521
 31
0.0
  0
LINE
  5
3B7
330
22
100
AcDbEntity
  8
_0-4_ハッチ
  6
Continuous
 62
     5
100
AcDbLine
 10
29065.08462551825
 20
18206.59159836533
 30
0.0
 11
29165.08495543802
 21
18206.59159836533
 31
0.0
  0
LINE
  5
3B8
330
22
100
AcDbEntity
  8
_0-4_ハッチ
  6
Continuous
 62
     5
100
AcDbLine
 10
29115.08479047813
 20
18156.59143340545
 30
0.0
 11
29115.08479047813
 21
18256.59176332521
 31
0.0
  0
LINE
  5
3B9
330
22
100
AcDbEntity
  8
_0-4_ハッチ
  6
Continuous
 62
     5
100
AcDbLine
 10
29165.08495543802
 20
18206.59159836533
 30
0.0
 11
29265.08528535778
 21
18206.59159836533
 31
0.0
  0
LINE
  5
3BA
330
22
100
AcDbEntity
  8
_0-4_ハッチ
  6
Continuous
 62
     5
100
AcDbLine
 10
29215.0851203979
 20
18156.59143340545
 30
0.0
 11
29215.0851203979
 21
18256.59176332521
 31
0.0
  0
LINE
  5
3BB
330
22
100
AcDbEntity
  8
_0-4_ハッチ
  6
Continuous
 62
     5
100
AcDbLine
 10
29265.08528535778
 20
18206.59159836533
 30
0.0
 11
29365.08561527754
 21
18206.59159836533
 31
0.0
  0
LINE
  5
3BC
330
22
100
AcDbEntity
  8
_0-4_ハッチ
  6
Continuous
 62
     5
100
AcDbLine
 10
29315.08545031767
 20
18156.59143340545
 30
0.0
 11
29315.08545031767
 21
18256.59176332521
 31
0.0
  0
LINE
  5
3BD
330
22
100
AcDbEntity
  8
_0-4_ハッチ
  6
Continuous
 62
     5
100
AcDbLine
 10
29365.08561527754
 20
18206.59159836533
 30
0.0
 11
29465.08594519731
 21
18206.59159836533
 31
0.0
  0
LINE
  5
3BE
330
22
100
AcDbEntity
  8
_0-4_ハッチ
  6
Continuous
 62
     5
100
AcDbLine
 10
29415.08578023743
 20
18156.59143340545
 30
0.0
 11
29415.08578023743
 21
18256.59176332521
 31
0.0
  0
LINE
  5
3BF
330
22
100
AcDbEntity
  8
_0-4_ハッチ
  6
Continuous
 62
     5
100
AcDbLine
 10
29465.08594519731
 20
18206.59159836533
 30
0.0
 11
29565.08627511707
 21
18206.59159836533
 31
0.0
  0
LINE
  5
3C0
330
22
100
AcDbEntity
  8
_0-4_ハッチ
  6
Continuous
 62
     5
100
AcDbLine
 10
29515.08611015718
 20
18156.59143340545
 30
0.0
 11
29515.08611015718
 21
18256.59176332521
 31
0.0
  0
LINE
  5
3C1
330
22
100
AcDbEntity
  8
_0-4_ハッチ
  6
Continuous
 62
     5
100
AcDbLine
 10
29565.08627511707
 20
18206.59159836533
 30
0.0
 11
29665.08660503683
 21
18206.59159836533
 31
0.0
  0
LINE
  5
3C2
330
22
100
AcDbEntity
  8
_0-4_ハッチ
  6
Continuous
 62
     5
100
AcDbLine
 10
29615.08644007695
 20
18156.59143340545
 30
0.0
 11
29615.08644007695
 21
18256.59176332521
 31
0.0
  0
LINE
  5
3C3
330
22
100
AcDbEntity
  8
_0-4_ハッチ
  6
Continuous
 62
     5
100
AcDbLine
 10
29665.08660503683
 20
18206.59159836533
 30
0.0
 11
29765.0869349566
 21
18206.59159836533
 31
0.0
  0
LINE
  5
3C4
330
22
100
AcDbEntity
  8
_0-4_ハッチ
  6
Continuous
 62
     5
100
AcDbLine
 10
29765.0869349566
 20
18206.59159836533
 30
0.0
 11
29865.08726487636
 21
18206.59159836533
 31
0.0
  0
LINE
  5
3C5
330
22
100
AcDbEntity
  8
_0-4_ハッチ
  6
Continuous
 62
     5
100
AcDbLine
 10
29865.08726487636
 20
18206.59159836533
 30
0.0
 11
29965.08759479612
 21
18206.59159836533
 31
0.0
  0
LINE
  5
3C6
330
22
100
AcDbEntity
  8
_0-4_ハッチ
  6
Continuous
 62
     5
100
AcDbLine
 10
29915.08742983624
 20
18056.59110348569
 30
0.0
 11
29915.08742983624
 21
19655.0845248856
 31
0.0
  0
LINE
  5
3C7
330
22
100
AcDbEntity
  8
_0-4_ハッチ
  6
Continuous
 62
     5
100
AcDbLine
 10
29965.08759479612
 20
18206.59159836533
 30
0.0
 11
30065.08792471588
 21
18206.59159836533
 31
0.0
  0
LINE
  5
3C8
330
22
100
AcDbEntity
  8
_0-4_ハッチ
  6
Continuous
 62
     5
100
AcDbLine
 10
28565.08545031767
 20
18306.59192828509
 30
0.0
 11
28665.08578023743
 21
18306.59192828509
 31
0.0
  0
LINE
  5
3C9
330
22
100
AcDbEntity
  8
_0-4_ハッチ
  6
Continuous
 62
     5
100
AcDbLine
 10
28615.08561527754
 20
18256.59176332521
 30
0.0
 11
28615.08561527754
 21
18356.59209324498
 31
0.0
  0
LINE
  5
3CA
330
22
100
AcDbEntity
  8
_0-4_ハッチ
  6
Continuous
 62
     5
100
AcDbLine
 10
28665.08578023743
 20
18306.59192828509
 30
0.0
 11
28765.08611015718
 21
18306.59192828509
 31
0.0
  0
LINE
  5
3CB
330
22
100
AcDbEntity
  8
_0-4_ハッチ
  6
Continuous
 62
     5
100
AcDbLine
 10
28715.08594519731
 20
18256.59176332521
 30
0.0
 11
28715.08594519731
 21
18356.59209324498
 31
0.0
  0
LINE
  5
3CC
330
22
100
AcDbEntity
  8
_0-4_ハッチ
  6
Continuous
 62
     5
100
AcDbLine
 10
28765.08611015718
 20
18306.59192828509
 30
0.0
 11
28865.08644007695
 21
18306.59192828509
 31
0.0
  0
LINE
  5
3CD
330
22
100
AcDbEntity
  8
_0-4_ハッチ
  6
Continuous
 62
     5
100
AcDbLine
 10
28815.08627511707
 20
18256.59176332521
 30
0.0
 11
28815.08627511707
 21
18356.59209324498
 31
0.0
  0
LINE
  5
3CE
330
22
100
AcDbEntity
  8
_0-4_ハッチ
  6
Continuous
 62
     5
100
AcDbLine
 10
28865.08644007695
 20
18306.59192828509
 30
0.0
 11
28965.08676999672
 21
18306.59192828509
 31
0.0
  0
LINE
  5
3CF
330
22
100
AcDbEntity
  8
_0-4_ハッチ
  6
Continuous
 62
     5
100
AcDbLine
 10
28915.08660503684
 20
18256.59176332521
 30
0.0
 11
28915.08660503684
 21
18356.59209324498
 31
0.0
  0
LINE
  5
3D0
330
22
100
AcDbEntity
  8
_0-4_ハッチ
  6
Continuous
 62
     5
100
AcDbLine
 10
28965.08676999672
 20
18306.59192828509
 30
0.0
 11
29065.08709991648
 21
18306.59192828509
 31
0.0
  0
LINE
  5
3D1
330
22
100
AcDbEntity
  8
_0-4_ハッチ
  6
Continuous
 62
     5
100
AcDbLine
 10
29015.0869349566
 20
18256.59176332521
 30
0.0
 11
29015.0869349566
 21
18356.59209324498
 31
0.0
  0
LINE
  5
3D2
330
22
100
AcDbEntity
  8
_0-4_ハッチ
  6
Continuous
 62
     5
100
AcDbLine
 10
29065.08709991648
 20
18306.59192828509
 30
0.0
 11
29165.08742983624
 21
18306.59192828509
 31
0.0
  0
LINE
  5
3D3
330
22
100
AcDbEntity
  8
_0-4_ハッチ
  6
Continuous
 62
     5
100
AcDbLine
 10
29115.08726487636
 20
18256.59176332521
 30
0.0
 11
29115.08726487636
 21
18356.59209324498
 31
0.0
  0
LINE
  5
3D4
330
22
100
AcDbEntity
  8
_0-4_ハッチ
  6
Continuous
 62
     5
100
AcDbLine
 10
29165.08742983624
 20
18306.59192828509
 30
0.0
 11
29265.08775975601
 21
18306.59192828509
 31
0.0
  0
LINE
  5
3D5
330
22
100
AcDbEntity
  8
_0-4_ハッチ
  6
Continuous
 62
     5
100
AcDbLine
 10
29215.08759479612
 20
18256.59176332521
 30
0.0
 11
29215.08759479612
 21
18356.59209324498
 31
0.0
  0
LINE
  5
3D6
330
22
100
AcDbEntity
  8
_0-4_ハッチ
  6
Continuous
 62
     5
100
AcDbLine
 10
29265.08775975601
 20
18306.59192828509
 30
0.0
 11
29365.08808967577
 21
18306.59192828509
 31
0.0
  0
LINE
  5
3D7
330
22
100
AcDbEntity
  8
_0-4_ハッチ
  6
Continuous
 62
     5
100
AcDbLine
 10
29315.08792471589
 20
18256.59176332521
 30
0.0
 11
29315.08792471589
 21
18356.59209324498
 31
0.0
  0
LINE
  5
3D8
330
22
100
AcDbEntity
  8
_0-4_ハッチ
  6
Continuous
 62
     5
100
AcDbLine
 10
29365.08808967577
 20
18306.59192828509
 30
0.0
 11
29465.08841959553
 21
18306.59192828509
 31
0.0
  0
LINE
  5
3D9
330
22
100
AcDbEntity
  8
_0-4_ハッチ
  6
Continuous
 62
     5
100
AcDbLine
 10
29415.08825463566
 20
18256.59176332521
 30
0.0
 11
29415.08825463566
 21
18356.59209324498
 31
0.0
  0
LINE
  5
3DA
330
22
100
AcDbEntity
  8
_0-4_ハッチ
  6
Continuous
 62
     5
100
AcDbLine
 10
29465.08841959553
 20
18306.59192828509
 30
0.0
 11
29565.08874951531
 21
18306.59192828509
 31
0.0
  0
LINE
  5
3DB
330
22
100
AcDbEntity
  8
_0-4_ハッチ
  6
Continuous
 62
     5
100
AcDbLine
 10
29515.08858455542
 20
18256.59176332521
 30
0.0
 11
29515.08858455542
 21
18356.59209324498
 31
0.0
  0
LINE
  5
3DC
330
22
100
AcDbEntity
  8
_0-4_ハッチ
  6
Continuous
 62
     5
100
AcDbLine
 10
29565.08874951531
 20
18306.59192828509
 30
0.0
 11
29665.08907943506
 21
18306.59192828509
 31
0.0
  0
LINE
  5
3DD
330
22
100
AcDbEntity
  8
_0-4_ハッチ
  6
Continuous
 62
     5
100
AcDbLine
 10
29665.08907943506
 20
18306.59192828509
 30
0.0
 11
29765.08940935482
 21
18306.59192828509
 31
0.0
  0
LINE
  5
3DE
330
22
100
AcDbEntity
  8
_0-4_ハッチ
  6
Continuous
 62
     5
100
AcDbLine
 10
29715.08924439494
 20
18256.59176332521
 30
0.0
 11
29715.08924439494
 21
18356.59209324498
 31
0.0
  0
LINE
  5
3DF
330
22
100
AcDbEntity
  8
_0-4_ハッチ
  6
Continuous
 62
     5
100
AcDbLine
 10
29765.08940935482
 20
18306.59192828509
 30
0.0
 11
29865.08973927459
 21
18306.59192828509
 31
0.0
  0
LINE
  5
3E0
330
22
100
AcDbEntity
  8
_0-4_ハッチ
  6
Continuous
 62
     5
100
AcDbLine
 10
29815.08957431471
 20
18256.59176332521
 30
0.0
 11
29815.08957431471
 21
18356.59209324498
 31
0.0
  0
LINE
  5
3E1
330
22
100
AcDbEntity
  8
_0-4_ハッチ
  6
Continuous
 62
     5
100
AcDbLine
 10
29865.08973927459
 20
18306.59192828509
 30
0.0
 11
29965.09006919436
 21
18306.59192828509
 31
0.0
  0
LINE
  5
3E2
330
22
100
AcDbEntity
  8
_0-4_ハッチ
  6
Continuous
 62
     5
100
AcDbLine
 10
29915.08990423447
 20
18256.59176332521
 30
0.0
 11
29915.08990423447
 21
18356.59209324498
 31
0.0
  0
LINE
  5
3E3
330
22
100
AcDbEntity
  8
_0-4_ハッチ
  6
Continuous
 62
     5
100
AcDbLine
 10
29965.09006919436
 20
18306.59192828509
 30
0.0
 11
30065.09039911412
 21
18306.59192828509
 31
0.0
  0
LINE
  5
3E4
330
22
100
AcDbEntity
  8
_0-4_ハッチ
  6
Continuous
 62
     5
100
AcDbLine
 10
30015.09023415423
 20
18256.59176332521
 30
0.0
 11
30015.09023415423
 21
18356.59209324498
 31
0.0
  0
LINE
  5
3E5
330
22
100
AcDbEntity
  8
_0-4_ハッチ
  6
Continuous
 62
     5
100
AcDbLine
 10
30115.090564074
 20
18256.59176332521
 30
0.0
 11
30115.090564074
 21
18356.59209324498
 31
0.0
  0
LINE
  5
3E6
330
22
100
AcDbEntity
  8
_0-4_ハッチ
  6
Continuous
 62
     5
100
AcDbLine
 10
28465.0851203979
 20
18406.59225820486
 30
0.0
 11
28565.08545031767
 21
18406.59225820486
 31
0.0
  0
LINE
  5
3E7
330
22
100
AcDbEntity
  8
_0-4_ハッチ
  6
Continuous
 62
     5
100
AcDbLine
 10
28515.08528535778
 20
18356.59209324498
 30
0.0
 11
28515.08528535778
 21
18456.59242316474
 31
0.0
  0
LINE
  5
3E8
330
22
100
AcDbEntity
  8
_0-4_ハッチ
  6
Continuous
 62
     5
100
AcDbLine
 10
28565.08545031767
 20
18406.59225820486
 30
0.0
 11
28665.08578023743
 21
18406.59225820486
 31
0.0
  0
LINE
  5
3E9
330
22
100
AcDbEntity
  8
_0-4_ハッチ
  6
Continuous
 62
     5
100
AcDbLine
 10
28615.08561527754
 20
18356.59209324498
 30
0.0
 11
28615.08561527754
 21
18456.59242316474
 31
0.0
  0
LINE
  5
3EA
330
22
100
AcDbEntity
  8
_0-4_ハッチ
  6
Continuous
 62
     5
100
AcDbLine
 10
28665.08578023743
 20
18406.59225820486
 30
0.0
 11
28765.08611015718
 21
18406.59225820486
 31
0.0
  0
LINE
  5
3EB
330
22
100
AcDbEntity
  8
_0-4_ハッチ
  6
Continuous
 62
     5
100
AcDbLine
 10
28715.08594519731
 20
18356.59209324498
 30
0.0
 11
28715.08594519731
 21
18456.59242316474
 31
0.0
  0
LINE
  5
3EC
330
22
100
AcDbEntity
  8
_0-4_ハッチ
  6
Continuous
 62
     5
100
AcDbLine
 10
28765.08611015718
 20
18406.59225820486
 30
0.0
 11
28865.08644007695
 21
18406.59225820486
 31
0.0
  0
LINE
  5
3ED
330
22
100
AcDbEntity
  8
_0-4_ハッチ
  6
Continuous
 62
     5
100
AcDbLine
 10
28815.08627511707
 20
18356.59209324498
 30
0.0
 11
28815.08627511707
 21
18456.59242316474
 31
0.0
  0
LINE
  5
3EE
330
22
100
AcDbEntity
  8
_0-4_ハッチ
  6
Continuous
 62
     5
100
AcDbLine
 10
28865.08644007695
 20
18406.59225820486
 30
0.0
 11
28965.08676999672
 21
18406.59225820486
 31
0.0
  0
LINE
  5
3EF
330
22
100
AcDbEntity
  8
_0-4_ハッチ
  6
Continuous
 62
     5
100
AcDbLine
 10
28915.08660503684
 20
18356.59209324498
 30
0.0
 11
28915.08660503684
 21
18456.59242316474
 31
0.0
  0
LINE
  5
3F0
330
22
100
AcDbEntity
  8
_0-4_ハッチ
  6
Continuous
 62
     5
100
AcDbLine
 10
28965.08676999672
 20
18406.59225820486
 30
0.0
 11
29065.08709991648
 21
18406.59225820486
 31
0.0
  0
LINE
  5
3F1
330
22
100
AcDbEntity
  8
_0-4_ハッチ
  6
Continuous
 62
     5
100
AcDbLine
 10
29015.0869349566
 20
18356.59209324498
 30
0.0
 11
29015.0869349566
 21
18456.59242316474
 31
0.0
  0
LINE
  5
3F2
330
22
100
AcDbEntity
  8
_0-4_ハッチ
  6
Continuous
 62
     5
100
AcDbLine
 10
29065.08709991648
 20
18406.59225820486
 30
0.0
 11
29165.08742983624
 21
18406.59225820486
 31
0.0
  0
LINE
  5
3F3
330
22
100
AcDbEntity
  8
_0-4_ハッチ
  6
Continuous
 62
     5
100
AcDbLine
 10
29115.08726487636
 20
18356.59209324498
 30
0.0
 11
29115.08726487636
 21
18456.59242316474
 31
0.0
  0
LINE
  5
3F4
330
22
100
AcDbEntity
  8
_0-4_ハッチ
  6
Continuous
 62
     5
100
AcDbLine
 10
29165.08742983624
 20
18406.59225820486
 30
0.0
 11
29265.08775975601
 21
18406.59225820486
 31
0.0
  0
LINE
  5
3F5
330
22
100
AcDbEntity
  8
_0-4_ハッチ
  6
Continuous
 62
     5
100
AcDbLine
 10
29215.08759479612
 20
18356.59209324498
 30
0.0
 11
29215.08759479612
 21
18456.59242316474
 31
0.0
  0
LINE
  5
3F6
330
22
100
AcDbEntity
  8
_0-4_ハッチ
  6
Continuous
 62
     5
100
AcDbLine
 10
29265.08775975601
 20
18406.59225820486
 30
0.0
 11
29365.08808967577
 21
18406.59225820486
 31
0.0
  0
LINE
  5
3F7
330
22
100
AcDbEntity
  8
_0-4_ハッチ
  6
Continuous
 62
     5
100
AcDbLine
 10
29315.08792471589
 20
18356.59209324498
 30
0.0
 11
29315.08792471589
 21
18456.59242316474
 31
0.0
  0
LINE
  5
3F8
330
22
100
AcDbEntity
  8
_0-4_ハッチ
  6
Continuous
 62
     5
100
AcDbLine
 10
29365.08808967577
 20
18406.59225820486
 30
0.0
 11
29465.08841959553
 21
18406.59225820486
 31
0.0
  0
LINE
  5
3F9
330
22
100
AcDbEntity
  8
_0-4_ハッチ
  6
Continuous
 62
     5
100
AcDbLine
 10
29465.08841959553
 20
18406.59225820486
 30
0.0
 11
29565.08874951531
 21
18406.59225820486
 31
0.0
  0
LINE
  5
3FA
330
22
100
AcDbEntity
  8
_0-4_ハッチ
  6
Continuous
 62
     5
100
AcDbLine
 10
29565.08874951531
 20
18406.59225820486
 30
0.0
 11
29665.08907943506
 21
18406.59225820486
 31
0.0
  0
LINE
  5
3FB
330
22
100
AcDbEntity
  8
_0-4_ハッチ
  6
Continuous
 62
     5
100
AcDbLine
 10
29615.08891447517
 20
18256.59176332521
 30
0.0
 11
29615.08891447517
 21
19655.0845248856
 31
0.0
  0
LINE
  5
3FC
330
22
100
AcDbEntity
  8
_0-4_ハッチ
  6
Continuous
 62
     5
100
AcDbLine
 10
29665.08907943506
 20
18406.59225820486
 30
0.0
 11
29765.08940935482
 21
18406.59225820486
 31
0.0
  0
LINE
  5
3FD
330
22
100
AcDbEntity
  8
_0-4_ハッチ
  6
Continuous
 62
     5
100
AcDbLine
 10
29715.08924439494
 20
18356.59209324498
 30
0.0
 11
29715.08924439494
 21
18456.59242316474
 31
0.0
  0
LINE
  5
3FE
330
22
100
AcDbEntity
  8
_0-4_ハッチ
  6
Continuous
 62
     5
100
AcDbLine
 10
29765.08940935482
 20
18406.59225820486
 30
0.0
 11
29865.08973927459
 21
18406.59225820486
 31
0.0
  0
LINE
  5
3FF
330
22
100
AcDbEntity
  8
_0-4_ハッチ
  6
Continuous
 62
     5
100
AcDbLine
 10
29815.08957431471
 20
18356.59209324498
 30
0.0
 11
29815.08957431471
 21
18456.59242316474
 31
0.0
  0
LINE
  5
400
330
22
100
AcDbEntity
  8
_0-4_ハッチ
  6
Continuous
 62
     5
100
AcDbLine
 10
29865.08973927459
 20
18406.59225820486
 30
0.0
 11
29965.09006919436
 21
18406.59225820486
 31
0.0
  0
LINE
  5
401
330
22
100
AcDbEntity
  8
_0-4_ハッチ
  6
Continuous
 62
     5
100
AcDbLine
 10
29915.08990423447
 20
18356.59209324498
 30
0.0
 11
29915.08990423447
 21
18456.59242316474
 31
0.0
  0
LINE
  5
402
330
22
100
AcDbEntity
  8
_0-4_ハッチ
  6
Continuous
 62
     5
100
AcDbLine
 10
29965.09006919436
 20
18406.59225820486
 30
0.0
 11
30065.09039911412
 21
18406.59225820486
 31
0.0
  0
LINE
  5
403
330
22
100
AcDbEntity
  8
_0-4_ハッチ
  6
Continuous
 62
     5
100
AcDbLine
 10
30015.09023415423
 20
18356.59209324498
 30
0.0
 11
30015.09023415423
 21
18456.59242316474
 31
0.0
  0
LINE
  5
404
330
22
100
AcDbEntity
  8
_0-4_ハッチ
  6
Continuous
 62
     5
100
AcDbLine
 10
30115.090564074
 20
18356.59209324498
 30
0.0
 11
30115.090564074
 21
18456.59242316474
 31
0.0
  0
LINE
  5
405
330
22
100
AcDbEntity
  8
_0-4_ハッチ
  6
Continuous
 62
     5
100
AcDbLine
 10
28415.08495543802
 20
18456.59242316474
 30
0.0
 11
28415.08495543802
 21
18556.5927530845
 31
0.0
  0
LINE
  5
406
330
22
100
AcDbEntity
  8
_0-4_ハッチ
  6
Continuous
 62
     5
100
AcDbLine
 10
28465.0851203979
 20
18506.59258812462
 30
0.0
 11
28565.08545031767
 21
18506.59258812462
 31
0.0
  0
LINE
  5
407
330
22
100
AcDbEntity
  8
_0-4_ハッチ
  6
Continuous
 62
     5
100
AcDbLine
 10
28515.08528535778
 20
18456.59242316474
 30
0.0
 11
28515.08528535778
 21
18556.5927530845
 31
0.0
  0
LINE
  5
408
330
22
100
AcDbEntity
  8
_0-4_ハッチ
  6
Continuous
 62
     5
100
AcDbLine
 10
28565.08545031767
 20
18506.59258812462
 30
0.0
 11
28665.08578023743
 21
18506.59258812462
 31
0.0
  0
LINE
  5
409
330
22
100
AcDbEntity
  8
_0-4_ハッチ
  6
Continuous
 62
     5
100
AcDbLine
 10
28615.08561527754
 20
18456.59242316474
 30
0.0
 11
28615.08561527754
 21
18556.5927530845
 31
0.0
  0
LINE
  5
40A
330
22
100
AcDbEntity
  8
_0-4_ハッチ
  6
Continuous
 62
     5
100
AcDbLine
 10
28665.08578023743
 20
18506.59258812462
 30
0.0
 11
28765.08611015718
 21
18506.59258812462
 31
0.0
  0
LINE
  5
40B
330
22
100
AcDbEntity
  8
_0-4_ハッチ
  6
Continuous
 62
     5
100
AcDbLine
 10
28715.08594519731
 20
18456.59242316474
 30
0.0
 11
28715.08594519731
 21
18556.5927530845
 31
0.0
  0
LINE
  5
40C
330
22
100
AcDbEntity
  8
_0-4_ハッチ
  6
Continuous
 62
     5
100
AcDbLine
 10
28765.08611015718
 20
18506.59258812462
 30
0.0
 11
28865.08644007695
 21
18506.59258812462
 31
0.0
  0
LINE
  5
40D
330
22
100
AcDbEntity
  8
_0-4_ハッチ
  6
Continuous
 62
     5
100
AcDbLine
 10
28815.08627511707
 20
18456.59242316474
 30
0.0
 11
28815.08627511707
 21
18556.5927530845
 31
0.0
  0
LINE
  5
40E
330
22
100
AcDbEntity
  8
_0-4_ハッチ
  6
Continuous
 62
     5
100
AcDbLine
 10
28865.08644007695
 20
18506.59258812462
 30
0.0
 11
28965.08676999672
 21
18506.59258812462
 31
0.0
  0
LINE
  5
40F
330
22
100
AcDbEntity
  8
_0-4_ハッチ
  6
Continuous
 62
     5
100
AcDbLine
 10
28915.08660503684
 20
18456.59242316474
 30
0.0
 11
28915.08660503684
 21
18556.5927530845
 31
0.0
  0
LINE
  5
410
330
22
100
AcDbEntity
  8
_0-4_ハッチ
  6
Continuous
 62
     5
100
AcDbLine
 10
28965.08676999672
 20
18506.59258812462
 30
0.0
 11
29065.08709991648
 21
18506.59258812462
 31
0.0
  0
LINE
  5
411
330
22
100
AcDbEntity
  8
_0-4_ハッチ
  6
Continuous
 62
     5
100
AcDbLine
 10
29015.0869349566
 20
18456.59242316474
 30
0.0
 11
29015.0869349566
 21
18556.5927530845
 31
0.0
  0
LINE
  5
412
330
22
100
AcDbEntity
  8
_0-4_ハッチ
  6
Continuous
 62
     5
100
AcDbLine
 10
29065.08709991648
 20
18506.59258812462
 30
0.0
 11
29165.08742983624
 21
18506.59258812462
 31
0.0
  0
LINE
  5
413
330
22
100
AcDbEntity
  8
_0-4_ハッチ
  6
Continuous
 62
     5
100
AcDbLine
 10
29115.08726487636
 20
18456.59242316474
 30
0.0
 11
29115.08726487636
 21
18556.5927530845
 31
0.0
  0
LINE
  5
414
330
22
100
AcDbEntity
  8
_0-4_ハッチ
  6
Continuous
 62
     5
100
AcDbLine
 10
29165.08742983624
 20
18506.59258812462
 30
0.0
 11
29265.08775975601
 21
18506.59258812462
 31
0.0
  0
LINE
  5
415
330
22
100
AcDbEntity
  8
_0-4_ハッチ
  6
Continuous
 62
     5
100
AcDbLine
 10
29215.08759479612
 20
18456.59242316474
 30
0.0
 11
29215.08759479612
 21
18556.5927530845
 31
0.0
  0
LINE
  5
416
330
22
100
AcDbEntity
  8
_0-4_ハッチ
  6
Continuous
 62
     5
100
AcDbLine
 10
29265.08775975601
 20
18506.59258812462
 30
0.0
 11
29365.08808967577
 21
18506.59258812462
 31
0.0
  0
LINE
  5
417
330
22
100
AcDbEntity
  8
_0-4_ハッチ
  6
Continuous
 62
     5
100
AcDbLine
 10
29365.08808967577
 20
18506.59258812462
 30
0.0
 11
29465.08841959553
 21
18506.59258812462
 31
0.0
  0
LINE
  5
418
330
22
100
AcDbEntity
  8
_0-4_ハッチ
  6
Continuous
 62
     5
100
AcDbLine
 10
29415.08825463566
 20
18356.59209324498
 30
0.0
 11
29415.08825463566
 21
19655.0845248856
 31
0.0
  0
LINE
  5
419
330
22
100
AcDbEntity
  8
_0-4_ハッチ
  6
Continuous
 62
     5
100
AcDbLine
 10
29465.08841959553
 20
18506.59258812462
 30
0.0
 11
29565.08874951531
 21
18506.59258812462
 31
0.0
  0
LINE
  5
41A
330
22
100
AcDbEntity
  8
_0-4_ハッチ
  6
Continuous
 62
     5
100
AcDbLine
 10
29515.08858455542
 20
18356.59209324498
 30
0.0
 11
29515.08858455542
 21
19655.0845248856
 31
0.0
  0
LINE
  5
41B
330
22
100
AcDbEntity
  8
_0-4_ハッチ
  6
Continuous
 62
     5
100
AcDbLine
 10
29565.08874951531
 20
18506.59258812462
 30
0.0
 11
29665.08907943506
 21
18506.59258812462
 31
0.0
  0
LINE
  5
41C
330
22
100
AcDbEntity
  8
_0-4_ハッチ
  6
Continuous
 62
     5
100
AcDbLine
 10
29665.08907943506
 20
18506.59258812462
 30
0.0
 11
29765.08940935482
 21
18506.59258812462
 31
0.0
  0
LINE
  5
41D
330
22
100
AcDbEntity
  8
_0-4_ハッチ
  6
Continuous
 62
     5
100
AcDbLine
 10
29715.08924439494
 20
18456.59242316474
 30
0.0
 11
29715.08924439494
 21
18556.5927530845
 31
0.0
  0
LINE
  5
41E
330
22
100
AcDbEntity
  8
_0-4_ハッチ
  6
Continuous
 62
     5
100
AcDbLine
 10
29765.08940935482
 20
18506.59258812462
 30
0.0
 11
29865.08973927459
 21
18506.59258812462
 31
0.0
  0
LINE
  5
41F
330
22
100
AcDbEntity
  8
_0-4_ハッチ
  6
Continuous
 62
     5
100
AcDbLine
 10
29815.08957431471
 20
18456.59242316474
 30
0.0
 11
29815.08957431471
 21
18556.5927530845
 31
0.0
  0
LINE
  5
420
330
22
100
AcDbEntity
  8
_0-4_ハッチ
  6
Continuous
 62
     5
100
AcDbLine
 10
29865.08973927459
 20
18506.59258812462
 30
0.0
 11
29965.09006919436
 21
18506.59258812462
 31
0.0
  0
LINE
  5
421
330
22
100
AcDbEntity
  8
_0-4_ハッチ
  6
Continuous
 62
     5
100
AcDbLine
 10
29915.08990423447
 20
18456.59242316474
 30
0.0
 11
29915.08990423447
 21
18556.5927530845
 31
0.0
  0
LINE
  5
422
330
22
100
AcDbEntity
  8
_0-4_ハッチ
  6
Continuous
 62
     5
100
AcDbLine
 10
29965.09006919436
 20
18506.59258812462
 30
0.0
 11
30065.09039911412
 21
18506.59258812462
 31
0.0
  0
LINE
  5
423
330
22
100
AcDbEntity
  8
_0-4_ハッチ
  6
Continuous
 62
     5
100
AcDbLine
 10
30015.09023415423
 20
18456.59242316474
 30
0.0
 11
30015.09023415423
 21
18556.5927530845
 31
0.0
  0
LINE
  5
424
330
22
100
AcDbEntity
  8
_0-4_ハッチ
  6
Continuous
 62
     5
100
AcDbLine
 10
30115.090564074
 20
18456.59242316474
 30
0.0
 11
30115.090564074
 21
18556.5927530845
 31
0.0
  0
LINE
  5
425
330
22
100
AcDbEntity
  8
_0-4_ハッチ
  6
Continuous
 62
     5
100
AcDbLine
 10
28365.08479047813
 20
18606.59291804438
 30
0.0
 11
28465.0851203979
 21
18606.59291804438
 31
0.0
  0
LINE
  5
426
330
22
100
AcDbEntity
  8
_0-4_ハッチ
  6
Continuous
 62
     5
100
AcDbLine
 10
28415.08495543802
 20
18556.5927530845
 30
0.0
 11
28415.08495543802
 21
18656.59308300426
 31
0.0
  0
LINE
  5
427
330
22
100
AcDbEntity
  8
_0-4_ハッチ
  6
Continuous
 62
     5
100
AcDbLine
 10
28465.0851203979
 20
18606.59291804438
 30
0.0
 11
28565.08545031767
 21
18606.59291804438
 31
0.0
  0
LINE
  5
428
330
22
100
AcDbEntity
  8
_0-4_ハッチ
  6
Continuous
 62
     5
100
AcDbLine
 10
28515.08528535778
 20
18556.5927530845
 30
0.0
 11
28515.08528535778
 21
18656.59308300426
 31
0.0
  0
LINE
  5
429
330
22
100
AcDbEntity
  8
_0-4_ハッチ
  6
Continuous
 62
     5
100
AcDbLine
 10
28565.08545031767
 20
18606.59291804438
 30
0.0
 11
28665.08578023743
 21
18606.59291804438
 31
0.0
  0
LINE
  5
42A
330
22
100
AcDbEntity
  8
_0-4_ハッチ
  6
Continuous
 62
     5
100
AcDbLine
 10
28615.08561527754
 20
18556.5927530845
 30
0.0
 11
28615.08561527754
 21
18656.59308300426
 31
0.0
  0
LINE
  5
42B
330
22
100
AcDbEntity
  8
_0-4_ハッチ
  6
Continuous
 62
     5
100
AcDbLine
 10
28665.08578023743
 20
18606.59291804438
 30
0.0
 11
28765.08611015718
 21
18606.59291804438
 31
0.0
  0
LINE
  5
42C
330
22
100
AcDbEntity
  8
_0-4_ハッチ
  6
Continuous
 62
     5
100
AcDbLine
 10
28715.08594519731
 20
18556.5927530845
 30
0.0
 11
28715.08594519731
 21
18656.59308300426
 31
0.0
  0
LINE
  5
42D
330
22
100
AcDbEntity
  8
_0-4_ハッチ
  6
Continuous
 62
     5
100
AcDbLine
 10
28765.08611015718
 20
18606.59291804438
 30
0.0
 11
28865.08644007695
 21
18606.59291804438
 31
0.0
  0
LINE
  5
42E
330
22
100
AcDbEntity
  8
_0-4_ハッチ
  6
Continuous
 62
     5
100
AcDbLine
 10
28815.08627511707
 20
18556.5927530845
 30
0.0
 11
28815.08627511707
 21
18656.59308300426
 31
0.0
  0
LINE
  5
42F
330
22
100
AcDbEntity
  8
_0-4_ハッチ
  6
Continuous
 62
     5
100
AcDbLine
 10
28865.08644007695
 20
18606.59291804438
 30
0.0
 11
28965.08676999672
 21
18606.59291804438
 31
0.0
  0
LINE
  5
430
330
22
100
AcDbEntity
  8
_0-4_ハッチ
  6
Continuous
 62
     5
100
AcDbLine
 10
28915.08660503684
 20
18556.5927530845
 30
0.0
 11
28915.08660503684
 21
18656.59308300426
 31
0.0
  0
LINE
  5
431
330
22
100
AcDbEntity
  8
_0-4_ハッチ
  6
Continuous
 62
     5
100
AcDbLine
 10
28965.08676999672
 20
18606.59291804438
 30
0.0
 11
29065.08709991648
 21
18606.59291804438
 31
0.0
  0
LINE
  5
432
330
22
100
AcDbEntity
  8
_0-4_ハッチ
  6
Continuous
 62
     5
100
AcDbLine
 10
29015.0869349566
 20
18556.5927530845
 30
0.0
 11
29015.0869349566
 21
18656.59308300426
 31
0.0
  0
LINE
  5
433
330
22
100
AcDbEntity
  8
_0-4_ハッチ
  6
Continuous
 62
     5
100
AcDbLine
 10
29065.08709991648
 20
18606.59291804438
 30
0.0
 11
29165.08742983624
 21
18606.59291804438
 31
0.0
  0
LINE
  5
434
330
22
100
AcDbEntity
  8
_0-4_ハッチ
  6
Continuous
 62
     5
100
AcDbLine
 10
29165.08742983624
 20
18606.59291804438
 30
0.0
 11
29265.08775975601
 21
18606.59291804438
 31
0.0
  0
LINE
  5
435
330
22
100
AcDbEntity
  8
_0-4_ハッチ
  6
Continuous
 62
     5
100
AcDbLine
 10
29265.08775975601
 20
18606.59291804438
 30
0.0
 11
29365.08808967577
 21
18606.59291804438
 31
0.0
  0
LINE
  5
436
330
22
100
AcDbEntity
  8
_0-4_ハッチ
  6
Continuous
 62
     5
100
AcDbLine
 10
29315.08792471589
 20
18456.59242316474
 30
0.0
 11
29315.08792471589
 21
19655.0845248856
 31
0.0
  0
LINE
  5
437
330
22
100
AcDbEntity
  8
_0-4_ハッチ
  6
Continuous
 62
     5
100
AcDbLine
 10
29365.08808967577
 20
18606.59291804438
 30
0.0
 11
29465.08841959553
 21
18606.59291804438
 31
0.0
  0
LINE
  5
438
330
22
100
AcDbEntity
  8
_0-4_ハッチ
  6
Continuous
 62
     5
100
AcDbLine
 10
29465.08841959553
 20
18606.59291804438
 30
0.0
 11
29565.08874951531
 21
18606.59291804438
 31
0.0
  0
LINE
  5
439
330
22
100
AcDbEntity
  8
_0-4_ハッチ
  6
Continuous
 62
     5
100
AcDbLine
 10
29565.08874951531
 20
18606.59291804438
 30
0.0
 11
29665.08907943506
 21
18606.59291804438
 31
0.0
  0
LINE
  5
43A
330
22
100
AcDbEntity
  8
_0-4_ハッチ
  6
Continuous
 62
     5
100
AcDbLine
 10
29665.08907943506
 20
18606.59291804438
 30
0.0
 11
29765.08940935482
 21
18606.59291804438
 31
0.0
  0
LINE
  5
43B
330
22
100
AcDbEntity
  8
_0-4_ハッチ
  6
Continuous
 62
     5
100
AcDbLine
 10
29715.08924439494
 20
18556.5927530845
 30
0.0
 11
29715.08924439494
 21
18656.59308300426
 31
0.0
  0
LINE
  5
43C
330
22
100
AcDbEntity
  8
_0-4_ハッチ
  6
Continuous
 62
     5
100
AcDbLine
 10
29765.08940935482
 20
18606.59291804438
 30
0.0
 11
29865.08973927459
 21
18606.59291804438
 31
0.0
  0
LINE
  5
43D
330
22
100
AcDbEntity
  8
_0-4_ハッチ
  6
Continuous
 62
     5
100
AcDbLine
 10
29815.08957431471
 20
18556.5927530845
 30
0.0
 11
29815.08957431471
 21
18656.59308300426
 31
0.0
  0
LINE
  5
43E
330
22
100
AcDbEntity
  8
_0-4_ハッチ
  6
Continuous
 62
     5
100
AcDbLine
 10
29865.08973927459
 20
18606.59291804438
 30
0.0
 11
29965.09006919436
 21
18606.59291804438
 31
0.0
  0
LINE
  5
43F
330
22
100
AcDbEntity
  8
_0-4_ハッチ
  6
Continuous
 62
     5
100
AcDbLine
 10
29915.08990423447
 20
18556.5927530845
 30
0.0
 11
29915.08990423447
 21
18656.59308300426
 31
0.0
  0
LINE
  5
440
330
22
100
AcDbEntity
  8
_0-4_ハッチ
  6
Continuous
 62
     5
100
AcDbLine
 10
29965.09006919436
 20
18606.59291804438
 30
0.0
 11
30065.09039911412
 21
18606.59291804438
 31
0.0
  0
LINE
  5
441
330
22
100
AcDbEntity
  8
_0-4_ハッチ
  6
Continuous
 62
     5
100
AcDbLine
 10
30015.09023415423
 20
18556.5927530845
 30
0.0
 11
30015.09023415423
 21
18656.59308300426
 31
0.0
  0
LINE
  5
442
330
22
100
AcDbEntity
  8
_0-4_ハッチ
  6
Continuous
 62
     5
100
AcDbLine
 10
30115.090564074
 20
18556.5927530845
 30
0.0
 11
30115.090564074
 21
18656.59308300426
 31
0.0
  0
LINE
  5
443
330
22
100
AcDbEntity
  8
_0-4_ハッチ
  6
Continuous
 62
     5
100
AcDbLine
 10
28315.08462551825
 20
18656.59308300426
 30
0.0
 11
28315.08462551825
 21
18756.59341292403
 31
0.0
  0
LINE
  5
444
330
22
100
AcDbEntity
  8
_0-4_ハッチ
  6
Continuous
 62
     5
100
AcDbLine
 10
28365.08479047813
 20
18706.59324796415
 30
0.0
 11
28465.0851203979
 21
18706.59324796415
 31
0.0
  0
LINE
  5
445
330
22
100
AcDbEntity
  8
_0-4_ハッチ
  6
Continuous
 62
     5
100
AcDbLine
 10
28415.08495543802
 20
18656.59308300426
 30
0.0
 11
28415.08495543802
 21
18756.59341292403
 31
0.0
  0
LINE
  5
446
330
22
100
AcDbEntity
  8
_0-4_ハッチ
  6
Continuous
 62
     5
100
AcDbLine
 10
28465.0851203979
 20
18706.59324796415
 30
0.0
 11
28565.08545031767
 21
18706.59324796415
 31
0.0
  0
LINE
  5
447
330
22
100
AcDbEntity
  8
_0-4_ハッチ
  6
Continuous
 62
     5
100
AcDbLine
 10
28515.08528535778
 20
18656.59308300426
 30
0.0
 11
28515.08528535778
 21
18756.59341292403
 31
0.0
  0
LINE
  5
448
330
22
100
AcDbEntity
  8
_0-4_ハッチ
  6
Continuous
 62
     5
100
AcDbLine
 10
28565.08545031767
 20
18706.59324796415
 30
0.0
 11
28665.08578023743
 21
18706.59324796415
 31
0.0
  0
LINE
  5
449
330
22
100
AcDbEntity
  8
_0-4_ハッチ
  6
Continuous
 62
     5
100
AcDbLine
 10
28615.08561527754
 20
18656.59308300426
 30
0.0
 11
28615.08561527754
 21
18756.59341292403
 31
0.0
  0
LINE
  5
44A
330
22
100
AcDbEntity
  8
_0-4_ハッチ
  6
Continuous
 62
     5
100
AcDbLine
 10
28665.08578023743
 20
18706.59324796415
 30
0.0
 11
28765.08611015718
 21
18706.59324796415
 31
0.0
  0
LINE
  5
44B
330
22
100
AcDbEntity
  8
_0-4_ハッチ
  6
Continuous
 62
     5
100
AcDbLine
 10
28715.08594519731
 20
18656.59308300426
 30
0.0
 11
28715.08594519731
 21
18756.59341292403
 31
0.0
  0
LINE
  5
44C
330
22
100
AcDbEntity
  8
_0-4_ハッチ
  6
Continuous
 62
     5
100
AcDbLine
 10
28765.08611015718
 20
18706.59324796415
 30
0.0
 11
28865.08644007695
 21
18706.59324796415
 31
0.0
  0
LINE
  5
44D
330
22
100
AcDbEntity
  8
_0-4_ハッチ
  6
Continuous
 62
     5
100
AcDbLine
 10
28815.08627511707
 20
18656.59308300426
 30
0.0
 11
28815.08627511707
 21
18756.59341292403
 31
0.0
  0
LINE
  5
44E
330
22
100
AcDbEntity
  8
_0-4_ハッチ
  6
Continuous
 62
     5
100
AcDbLine
 10
28865.08644007695
 20
18706.59324796415
 30
0.0
 11
28965.08676999672
 21
18706.59324796415
 31
0.0
  0
LINE
  5
44F
330
22
100
AcDbEntity
  8
_0-4_ハッチ
  6
Continuous
 62
     5
100
AcDbLine
 10
28965.08676999672
 20
18706.59324796415
 30
0.0
 11
29065.08709991648
 21
18706.59324796415
 31
0.0
  0
LINE
  5
450
330
22
100
AcDbEntity
  8
_0-4_ハッチ
  6
Continuous
 62
     5
100
AcDbLine
 10
29065.08709991648
 20
18706.59324796415
 30
0.0
 11
29165.08742983624
 21
18706.59324796415
 31
0.0
  0
LINE
  5
451
330
22
100
AcDbEntity
  8
_0-4_ハッチ
  6
Continuous
 62
     5
100
AcDbLine
 10
29115.08726487636
 20
18556.5927530845
 30
0.0
 11
29115.08726487636
 21
19655.0845248856
 31
0.0
  0
LINE
  5
452
330
22
100
AcDbEntity
  8
_0-4_ハッチ
  6
Continuous
 62
     5
100
AcDbLine
 10
29165.08742983624
 20
18706.59324796415
 30
0.0
 11
29265.08775975601
 21
18706.59324796415
 31
0.0
  0
LINE
  5
453
330
22
100
AcDbEntity
  8
_0-4_ハッチ
  6
Continuous
 62
     5
100
AcDbLine
 10
29215.08759479612
 20
18556.5927530845
 30
0.0
 11
29215.08759479612
 21
19655.0845248856
 31
0.0
  0
LINE
  5
454
330
22
100
AcDbEntity
  8
_0-4_ハッチ
  6
Continuous
 62
     5
100
AcDbLine
 10
29265.08775975601
 20
18706.59324796415
 30
0.0
 11
29365.08808967577
 21
18706.59324796415
 31
0.0
  0
LINE
  5
455
330
22
100
AcDbEntity
  8
_0-4_ハッチ
  6
Continuous
 62
     5
100
AcDbLine
 10
29365.08808967577
 20
18706.59324796415
 30
0.0
 11
29465.08841959553
 21
18706.59324796415
 31
0.0
  0
LINE
  5
456
330
22
100
AcDbEntity
  8
_0-4_ハッチ
  6
Continuous
 62
     5
100
AcDbLine
 10
29465.08841959553
 20
18706.59324796415
 30
0.0
 11
29565.08874951531
 21
18706.59324796415
 31
0.0
  0
LINE
  5
457
330
22
100
AcDbEntity
  8
_0-4_ハッチ
  6
Continuous
 62
     5
100
AcDbLine
 10
29565.08874951531
 20
18706.59324796415
 30
0.0
 11
29665.08907943506
 21
18706.59324796415
 31
0.0
  0
LINE
  5
458
330
22
100
AcDbEntity
  8
_0-4_ハッチ
  6
Continuous
 62
     5
100
AcDbLine
 10
29665.08907943506
 20
18706.59324796415
 30
0.0
 11
29765.08940935482
 21
18706.59324796415
 31
0.0
  0
LINE
  5
459
330
22
100
AcDbEntity
  8
_0-4_ハッチ
  6
Continuous
 62
     5
100
AcDbLine
 10
29715.08924439494
 20
18656.59308300426
 30
0.0
 11
29715.08924439494
 21
18756.59341292403
 31
0.0
  0
LINE
  5
45A
330
22
100
AcDbEntity
  8
_0-4_ハッチ
  6
Continuous
 62
     5
100
AcDbLine
 10
29765.08940935482
 20
18706.59324796415
 30
0.0
 11
29865.08973927459
 21
18706.59324796415
 31
0.0
  0
LINE
  5
45B
330
22
100
AcDbEntity
  8
_0-4_ハッチ
  6
Continuous
 62
     5
100
AcDbLine
 10
29815.08957431471
 20
18656.59308300426
 30
0.0
 11
29815.08957431471
 21
18756.59341292403
 31
0.0
  0
LINE
  5
45C
330
22
100
AcDbEntity
  8
_0-4_ハッチ
  6
Continuous
 62
     5
100
AcDbLine
 10
29865.08973927459
 20
18706.59324796415
 30
0.0
 11
29965.09006919436
 21
18706.59324796415
 31
0.0
  0
LINE
  5
45D
330
22
100
AcDbEntity
  8
_0-4_ハッチ
  6
Continuous
 62
     5
100
AcDbLine
 10
29915.08990423447
 20
18656.59308300426
 30
0.0
 11
29915.08990423447
 21
18756.59341292403
 31
0.0
  0
LINE
  5
45E
330
22
100
AcDbEntity
  8
_0-4_ハッチ
  6
Continuous
 62
     5
100
AcDbLine
 10
29965.09006919436
 20
18706.59324796415
 30
0.0
 11
30065.09039911412
 21
18706.59324796415
 31
0.0
  0
LINE
  5
45F
330
22
100
AcDbEntity
  8
_0-4_ハッチ
  6
Continuous
 62
     5
100
AcDbLine
 10
30015.09023415423
 20
18656.59308300426
 30
0.0
 11
30015.09023415423
 21
18756.59341292403
 31
0.0
  0
LINE
  5
460
330
22
100
AcDbEntity
  8
_0-4_ハッチ
  6
Continuous
 62
     5
100
AcDbLine
 10
30115.090564074
 20
18656.59308300426
 30
0.0
 11
30115.090564074
 21
18756.59341292403
 31
0.0
  0
LINE
  5
461
330
22
100
AcDbEntity
  8
_0-4_ハッチ
  6
Continuous
 62
     5
100
AcDbLine
 10
28265.08446055838
 20
18806.59357788391
 30
0.0
 11
28365.08479047813
 21
18806.59357788391
 31
0.0
  0
LINE
  5
462
330
22
100
AcDbEntity
  8
_0-4_ハッチ
  6
Continuous
 62
     5
100
AcDbLine
 10
28315.08462551825
 20
18756.59341292403
 30
0.0
 11
28315.08462551825
 21
18856.5937428438
 31
0.0
  0
LINE
  5
463
330
22
100
AcDbEntity
  8
_0-4_ハッチ
  6
Continuous
 62
     5
100
AcDbLine
 10
28365.08479047813
 20
18806.59357788391
 30
0.0
 11
28465.0851203979
 21
18806.59357788391
 31
0.0
  0
LINE
  5
464
330
22
100
AcDbEntity
  8
_0-4_ハッチ
  6
Continuous
 62
     5
100
AcDbLine
 10
28415.08495543802
 20
18756.59341292403
 30
0.0
 11
28415.08495543802
 21
18856.5937428438
 31
0.0
  0
LINE
  5
465
330
22
100
AcDbEntity
  8
_0-4_ハッチ
  6
Continuous
 62
     5
100
AcDbLine
 10
28465.0851203979
 20
18806.59357788391
 30
0.0
 11
28565.08545031767
 21
18806.59357788391
 31
0.0
  0
LINE
  5
466
330
22
100
AcDbEntity
  8
_0-4_ハッチ
  6
Continuous
 62
     5
100
AcDbLine
 10
28515.08528535778
 20
18756.59341292403
 30
0.0
 11
28515.08528535778
 21
18856.5937428438
 31
0.0
  0
LINE
  5
467
330
22
100
AcDbEntity
  8
_0-4_ハッチ
  6
Continuous
 62
     5
100
AcDbLine
 10
28565.08545031767
 20
18806.59357788391
 30
0.0
 11
28665.08578023743
 21
18806.59357788391
 31
0.0
  0
LINE
  5
468
330
22
100
AcDbEntity
  8
_0-4_ハッチ
  6
Continuous
 62
     5
100
AcDbLine
 10
28615.08561527754
 20
18756.59341292403
 30
0.0
 11
28615.08561527754
 21
18856.5937428438
 31
0.0
  0
LINE
  5
469
330
22
100
AcDbEntity
  8
_0-4_ハッチ
  6
Continuous
 62
     5
100
AcDbLine
 10
28665.08578023743
 20
18806.59357788391
 30
0.0
 11
28765.08611015718
 21
18806.59357788391
 31
0.0
  0
LINE
  5
46A
330
22
100
AcDbEntity
  8
_0-4_ハッチ
  6
Continuous
 62
     5
100
AcDbLine
 10
28715.08594519731
 20
18756.59341292403
 30
0.0
 11
28715.08594519731
 21
18856.5937428438
 31
0.0
  0
LINE
  5
46B
330
22
100
AcDbEntity
  8
_0-4_ハッチ
  6
Continuous
 62
     5
100
AcDbLine
 10
28765.08611015718
 20
18806.59357788391
 30
0.0
 11
28865.08644007695
 21
18806.59357788391
 31
0.0
  0
LINE
  5
46C
330
22
100
AcDbEntity
  8
_0-4_ハッチ
  6
Continuous
 62
     5
100
AcDbLine
 10
28865.08644007695
 20
18806.59357788391
 30
0.0
 11
28965.08676999672
 21
18806.59357788391
 31
0.0
  0
LINE
  5
46D
330
22
100
AcDbEntity
  8
_0-4_ハッチ
  6
Continuous
 62
     5
100
AcDbLine
 10
28915.08660503684
 20
18656.59308300426
 30
0.0
 11
28915.08660503684
 21
19655.0845248856
 31
0.0
  0
LINE
  5
46E
330
22
100
AcDbEntity
  8
_0-4_ハッチ
  6
Continuous
 62
     5
100
AcDbLine
 10
28965.08676999672
 20
18806.59357788391
 30
0.0
 11
29065.08709991648
 21
18806.59357788391
 31
0.0
  0
LINE
  5
46F
330
22
100
AcDbEntity
  8
_0-4_ハッチ
  6
Continuous
 62
     5
100
AcDbLine
 10
29015.0869349566
 20
18656.59308300426
 30
0.0
 11
29015.0869349566
 21
19655.0845248856
 31
0.0
  0
LINE
  5
470
330
22
100
AcDbEntity
  8
_0-4_ハッチ
  6
Continuous
 62
     5
100
AcDbLine
 10
29065.08709991648
 20
18806.59357788391
 30
0.0
 11
29165.08742983624
 21
18806.59357788391
 31
0.0
  0
LINE
  5
471
330
22
100
AcDbEntity
  8
_0-4_ハッチ
  6
Continuous
 62
     5
100
AcDbLine
 10
29165.08742983624
 20
18806.59357788391
 30
0.0
 11
29265.08775975601
 21
18806.59357788391
 31
0.0
  0
LINE
  5
472
330
22
100
AcDbEntity
  8
_0-4_ハッチ
  6
Continuous
 62
     5
100
AcDbLine
 10
29265.08775975601
 20
18806.59357788391
 30
0.0
 11
29365.08808967577
 21
18806.59357788391
 31
0.0
  0
LINE
  5
473
330
22
100
AcDbEntity
  8
_0-4_ハッチ
  6
Continuous
 62
     5
100
AcDbLine
 10
29365.08808967577
 20
18806.59357788391
 30
0.0
 11
29465.08841959553
 21
18806.59357788391
 31
0.0
  0
LINE
  5
474
330
22
100
AcDbEntity
  8
_0-4_ハッチ
  6
Continuous
 62
     5
100
AcDbLine
 10
29465.08841959553
 20
18806.59357788391
 30
0.0
 11
29565.08874951531
 21
18806.59357788391
 31
0.0
  0
LINE
  5
475
330
22
100
AcDbEntity
  8
_0-4_ハッチ
  6
Continuous
 62
     5
100
AcDbLine
 10
29565.08874951531
 20
18806.59357788391
 30
0.0
 11
29665.08907943506
 21
18806.59357788391
 31
0.0
  0
LINE
  5
476
330
22
100
AcDbEntity
  8
_0-4_ハッチ
  6
Continuous
 62
     5
100
AcDbLine
 10
29665.08907943506
 20
18806.59357788391
 30
0.0
 11
29765.08940935482
 21
18806.59357788391
 31
0.0
  0
LINE
  5
477
330
22
100
AcDbEntity
  8
_0-4_ハッチ
  6
Continuous
 62
     5
100
AcDbLine
 10
29715.08924439494
 20
18756.59341292403
 30
0.0
 11
29715.08924439494
 21
18856.5937428438
 31
0.0
  0
LINE
  5
478
330
22
100
AcDbEntity
  8
_0-4_ハッチ
  6
Continuous
 62
     5
100
AcDbLine
 10
29765.08940935482
 20
18806.59357788391
 30
0.0
 11
29865.08973927459
 21
18806.59357788391
 31
0.0
  0
LINE
  5
479
330
22
100
AcDbEntity
  8
_0-4_ハッチ
  6
Continuous
 62
     5
100
AcDbLine
 10
29815.08957431471
 20
18756.59341292403
 30
0.0
 11
29815.08957431471
 21
18856.5937428438
 31
0.0
  0
LINE
  5
47A
330
22
100
AcDbEntity
  8
_0-4_ハッチ
  6
Continuous
 62
     5
100
AcDbLine
 10
29865.08973927459
 20
18806.59357788391
 30
0.0
 11
29965.09006919436
 21
18806.59357788391
 31
0.0
  0
LINE
  5
47B
330
22
100
AcDbEntity
  8
_0-4_ハッチ
  6
Continuous
 62
     5
100
AcDbLine
 10
29915.08990423447
 20
18756.59341292403
 30
0.0
 11
29915.08990423447
 21
18856.5937428438
 31
0.0
  0
LINE
  5
47C
330
22
100
AcDbEntity
  8
_0-4_ハッチ
  6
Continuous
 62
     5
100
AcDbLine
 10
29965.09006919436
 20
18806.59357788391
 30
0.0
 11
30065.09039911412
 21
18806.59357788391
 31
0.0
  0
LINE
  5
47D
330
22
100
AcDbEntity
  8
_0-4_ハッチ
  6
Continuous
 62
     5
100
AcDbLine
 10
30015.09023415423
 20
18756.59341292403
 30
0.0
 11
30015.09023415423
 21
18856.5937428438
 31
0.0
  0
LINE
  5
47E
330
22
100
AcDbEntity
  8
_0-4_ハッチ
  6
Continuous
 62
     5
100
AcDbLine
 10
30115.090564074
 20
18756.59341292403
 30
0.0
 11
30115.090564074
 21
18856.5937428438
 31
0.0
  0
LINE
  5
47F
330
22
100
AcDbEntity
  8
_0-4_ハッチ
  6
Continuous
 62
     5
100
AcDbLine
 10
28115.08396567873
 20
18817.91271257036
 30
0.0
 11
28115.08396567873
 21
19056.59440268332
 31
0.0
  0
LINE
  5
480
330
22
100
AcDbEntity
  8
_0-4_ハッチ
  6
Continuous
 62
     5
100
AcDbLine
 10
28165.0841306386
 20
18906.59390780367
 30
0.0
 11
28265.08446055838
 21
18906.59390780367
 31
0.0
  0
LINE
  5
481
330
22
100
AcDbEntity
  8
_0-4_ハッチ
  6
Continuous
 62
     5
100
AcDbLine
 10
28215.08429559849
 20
18856.5937428438
 30
0.0
 11
28215.08429559849
 21
18956.59407276356
 31
0.0
  0
LINE
  5
482
330
22
100
AcDbEntity
  8
_0-4_ハッチ
  6
Continuous
 62
     5
100
AcDbLine
 10
28265.08446055838
 20
18906.59390780367
 30
0.0
 11
28365.08479047813
 21
18906.59390780367
 31
0.0
  0
LINE
  5
483
330
22
100
AcDbEntity
  8
_0-4_ハッチ
  6
Continuous
 62
     5
100
AcDbLine
 10
28315.08462551825
 20
18856.5937428438
 30
0.0
 11
28315.08462551825
 21
18956.59407276356
 31
0.0
  0
LINE
  5
484
330
22
100
AcDbEntity
  8
_0-4_ハッチ
  6
Continuous
 62
     5
100
AcDbLine
 10
28365.08479047813
 20
18906.59390780367
 30
0.0
 11
28465.0851203979
 21
18906.59390780367
 31
0.0
  0
LINE
  5
485
330
22
100
AcDbEntity
  8
_0-4_ハッチ
  6
Continuous
 62
     5
100
AcDbLine
 10
28415.08495543802
 20
18856.5937428438
 30
0.0
 11
28415.08495543802
 21
18956.59407276356
 31
0.0
  0
LINE
  5
486
330
22
100
AcDbEntity
  8
_0-4_ハッチ
  6
Continuous
 62
     5
100
AcDbLine
 10
28465.0851203979
 20
18906.59390780367
 30
0.0
 11
28565.08545031767
 21
18906.59390780367
 31
0.0
  0
LINE
  5
487
330
22
100
AcDbEntity
  8
_0-4_ハッチ
  6
Continuous
 62
     5
100
AcDbLine
 10
28515.08528535778
 20
18856.5937428438
 30
0.0
 11
28515.08528535778
 21
18956.59407276356
 31
0.0
  0
LINE
  5
488
330
22
100
AcDbEntity
  8
_0-4_ハッチ
  6
Continuous
 62
     5
100
AcDbLine
 10
28565.08545031767
 20
18906.59390780367
 30
0.0
 11
28665.08578023743
 21
18906.59390780367
 31
0.0
  0
LINE
  5
489
330
22
100
AcDbEntity
  8
_0-4_ハッチ
  6
Continuous
 62
     5
100
AcDbLine
 10
28665.08578023743
 20
18906.59390780367
 30
0.0
 11
28765.08611015718
 21
18906.59390780367
 31
0.0
  0
LINE
  5
48A
330
22
100
AcDbEntity
  8
_0-4_ハッチ
  6
Continuous
 62
     5
100
AcDbLine
 10
28765.08611015718
 20
18906.59390780367
 30
0.0
 11
28865.08644007695
 21
18906.59390780367
 31
0.0
  0
LINE
  5
48B
330
22
100
AcDbEntity
  8
_0-4_ハッチ
  6
Continuous
 62
     5
100
AcDbLine
 10
28815.08627511707
 20
18756.59341292403
 30
0.0
 11
28815.08627511707
 21
19655.0845248856
 31
0.0
  0
LINE
  5
48C
330
22
100
AcDbEntity
  8
_0-4_ハッチ
  6
Continuous
 62
     5
100
AcDbLine
 10
28865.08644007695
 20
18906.59390780367
 30
0.0
 11
28965.08676999672
 21
18906.59390780367
 31
0.0
  0
LINE
  5
48D
330
22
100
AcDbEntity
  8
_0-4_ハッチ
  6
Continuous
 62
     5
100
AcDbLine
 10
28965.08676999672
 20
18906.59390780367
 30
0.0
 11
29065.08709991648
 21
18906.59390780367
 31
0.0
  0
LINE
  5
48E
330
22
100
AcDbEntity
  8
_0-4_ハッチ
  6
Continuous
 62
     5
100
AcDbLine
 10
29065.08709991648
 20
18906.59390780367
 30
0.0
 11
29165.08742983624
 21
18906.59390780367
 31
0.0
  0
LINE
  5
48F
330
22
100
AcDbEntity
  8
_0-4_ハッチ
  6
Continuous
 62
     5
100
AcDbLine
 10
29165.08742983624
 20
18906.59390780367
 30
0.0
 11
29265.08775975601
 21
18906.59390780367
 31
0.0
  0
LINE
  5
490
330
22
100
AcDbEntity
  8
_0-4_ハッチ
  6
Continuous
 62
     5
100
AcDbLine
 10
29265.08775975601
 20
18906.59390780367
 30
0.0
 11
29365.08808967577
 21
18906.59390780367
 31
0.0
  0
LINE
  5
491
330
22
100
AcDbEntity
  8
_0-4_ハッチ
  6
Continuous
 62
     5
100
AcDbLine
 10
29365.08808967577
 20
18906.59390780367
 30
0.0
 11
29465.08841959553
 21
18906.59390780367
 31
0.0
  0
LINE
  5
492
330
22
100
AcDbEntity
  8
_0-4_ハッチ
  6
Continuous
 62
     5
100
AcDbLine
 10
29465.08841959553
 20
18906.59390780367
 30
0.0
 11
29565.08874951531
 21
18906.59390780367
 31
0.0
  0
LINE
  5
493
330
22
100
AcDbEntity
  8
_0-4_ハッチ
  6
Continuous
 62
     5
100
AcDbLine
 10
29565.08874951531
 20
18906.59390780367
 30
0.0
 11
29665.08907943506
 21
18906.59390780367
 31
0.0
  0
LINE
  5
494
330
22
100
AcDbEntity
  8
_0-4_ハッチ
  6
Continuous
 62
     5
100
AcDbLine
 10
29665.08907943506
 20
18906.59390780367
 30
0.0
 11
29765.08940935482
 21
18906.59390780367
 31
0.0
  0
LINE
  5
495
330
22
100
AcDbEntity
  8
_0-4_ハッチ
  6
Continuous
 62
     5
100
AcDbLine
 10
29715.08924439494
 20
18856.5937428438
 30
0.0
 11
29715.08924439494
 21
18956.59407276356
 31
0.0
  0
LINE
  5
496
330
22
100
AcDbEntity
  8
_0-4_ハッチ
  6
Continuous
 62
     5
100
AcDbLine
 10
29765.08940935482
 20
18906.59390780367
 30
0.0
 11
29865.08973927459
 21
18906.59390780367
 31
0.0
  0
LINE
  5
497
330
22
100
AcDbEntity
  8
_0-4_ハッチ
  6
Continuous
 62
     5
100
AcDbLine
 10
29815.08957431471
 20
18856.5937428438
 30
0.0
 11
29815.08957431471
 21
18956.59407276356
 31
0.0
  0
LINE
  5
498
330
22
100
AcDbEntity
  8
_0-4_ハッチ
  6
Continuous
 62
     5
100
AcDbLine
 10
29865.08973927459
 20
18906.59390780367
 30
0.0
 11
29965.09006919436
 21
18906.59390780367
 31
0.0
  0
LINE
  5
499
330
22
100
AcDbEntity
  8
_0-4_ハッチ
  6
Continuous
 62
     5
100
AcDbLine
 10
29915.08990423447
 20
18856.5937428438
 30
0.0
 11
29915.08990423447
 21
18956.59407276356
 31
0.0
  0
LINE
  5
49A
330
22
100
AcDbEntity
  8
_0-4_ハッチ
  6
Continuous
 62
     5
100
AcDbLine
 10
29965.09006919436
 20
18906.59390780367
 30
0.0
 11
30065.09039911412
 21
18906.59390780367
 31
0.0
  0
LINE
  5
49B
330
22
100
AcDbEntity
  8
_0-4_ハッチ
  6
Continuous
 62
     5
100
AcDbLine
 10
30015.09023415423
 20
18856.5937428438
 30
0.0
 11
30015.09023415423
 21
18956.59407276356
 31
0.0
  0
LINE
  5
49C
330
22
100
AcDbEntity
  8
_0-4_ハッチ
  6
Continuous
 62
     5
100
AcDbLine
 10
30115.090564074
 20
18856.5937428438
 30
0.0
 11
30115.090564074
 21
18956.59407276356
 31
0.0
  0
LINE
  5
49D
330
22
100
AcDbEntity
  8
_0-4_ハッチ
  6
Continuous
 62
     5
100
AcDbLine
 10
28165.0841306386
 20
19006.59423772344
 30
0.0
 11
28265.08446055838
 21
19006.59423772344
 31
0.0
  0
LINE
  5
49E
330
22
100
AcDbEntity
  8
_0-4_ハッチ
  6
Continuous
 62
     5
100
AcDbLine
 10
28215.08429559849
 20
18956.59407276356
 30
0.0
 11
28215.08429559849
 21
19056.59440268332
 31
0.0
  0
LINE
  5
49F
330
22
100
AcDbEntity
  8
_0-4_ハッチ
  6
Continuous
 62
     5
100
AcDbLine
 10
28265.08446055838
 20
19006.59423772344
 30
0.0
 11
28365.08479047813
 21
19006.59423772344
 31
0.0
  0
LINE
  5
4A0
330
22
100
AcDbEntity
  8
_0-4_ハッチ
  6
Continuous
 62
     5
100
AcDbLine
 10
28315.08462551825
 20
18956.59407276356
 30
0.0
 11
28315.08462551825
 21
19056.59440268332
 31
0.0
  0
LINE
  5
4A1
330
22
100
AcDbEntity
  8
_0-4_ハッチ
  6
Continuous
 62
     5
100
AcDbLine
 10
28365.08479047813
 20
19006.59423772344
 30
0.0
 11
28465.0851203979
 21
19006.59423772344
 31
0.0
  0
LINE
  5
4A2
330
22
100
AcDbEntity
  8
_0-4_ハッチ
  6
Continuous
 62
     5
100
AcDbLine
 10
28415.08495543802
 20
18956.59407276356
 30
0.0
 11
28415.08495543802
 21
19056.59440268332
 31
0.0
  0
LINE
  5
4A3
330
22
100
AcDbEntity
  8
_0-4_ハッチ
  6
Continuous
 62
     5
100
AcDbLine
 10
28465.0851203979
 20
19006.59423772344
 30
0.0
 11
28565.08545031767
 21
19006.59423772344
 31
0.0
  0
LINE
  5
4A4
330
22
100
AcDbEntity
  8
_0-4_ハッチ
  6
Continuous
 62
     5
100
AcDbLine
 10
28565.08545031767
 20
19006.59423772344
 30
0.0
 11
28665.08578023743
 21
19006.59423772344
 31
0.0
  0
LINE
  5
4A5
330
22
100
AcDbEntity
  8
_0-4_ハッチ
  6
Continuous
 62
     5
100
AcDbLine
 10
28615.08561527754
 20
18856.5937428438
 30
0.0
 11
28615.08561527754
 21
19655.0845248856
 31
0.0
  0
LINE
  5
4A6
330
22
100
AcDbEntity
  8
_0-4_ハッチ
  6
Continuous
 62
     5
100
AcDbLine
 10
28665.08578023743
 20
19006.59423772344
 30
0.0
 11
28765.08611015718
 21
19006.59423772344
 31
0.0
  0
LINE
  5
4A7
330
22
100
AcDbEntity
  8
_0-4_ハッチ
  6
Continuous
 62
     5
100
AcDbLine
 10
28715.08594519731
 20
18856.5937428438
 30
0.0
 11
28715.08594519731
 21
19655.0845248856
 31
0.0
  0
LINE
  5
4A8
330
22
100
AcDbEntity
  8
_0-4_ハッチ
  6
Continuous
 62
     5
100
AcDbLine
 10
28765.08611015718
 20
19006.59423772344
 30
0.0
 11
28865.08644007695
 21
19006.59423772344
 31
0.0
  0
LINE
  5
4A9
330
22
100
AcDbEntity
  8
_0-4_ハッチ
  6
Continuous
 62
     5
100
AcDbLine
 10
28865.08644007695
 20
19006.59423772344
 30
0.0
 11
28965.08676999672
 21
19006.59423772344
 31
0.0
  0
LINE
  5
4AA
330
22
100
AcDbEntity
  8
_0-4_ハッチ
  6
Continuous
 62
     5
100
AcDbLine
 10
28965.08676999672
 20
19006.59423772344
 30
0.0
 11
29065.08709991648
 21
19006.59423772344
 31
0.0
  0
LINE
  5
4AB
330
22
100
AcDbEntity
  8
_0-4_ハッチ
  6
Continuous
 62
     5
100
AcDbLine
 10
29065.08709991648
 20
19006.59423772344
 30
0.0
 11
29165.08742983624
 21
19006.59423772344
 31
0.0
  0
LINE
  5
4AC
330
22
100
AcDbEntity
  8
_0-4_ハッチ
  6
Continuous
 62
     5
100
AcDbLine
 10
29165.08742983624
 20
19006.59423772344
 30
0.0
 11
29265.08775975601
 21
19006.59423772344
 31
0.0
  0
LINE
  5
4AD
330
22
100
AcDbEntity
  8
_0-4_ハッチ
  6
Continuous
 62
     5
100
AcDbLine
 10
29265.08775975601
 20
19006.59423772344
 30
0.0
 11
29365.08808967577
 21
19006.59423772344
 31
0.0
  0
LINE
  5
4AE
330
22
100
AcDbEntity
  8
_0-4_ハッチ
  6
Continuous
 62
     5
100
AcDbLine
 10
29365.08808967577
 20
19006.59423772344
 30
0.0
 11
29465.08841959553
 21
19006.59423772344
 31
0.0
  0
LINE
  5
4AF
330
22
100
AcDbEntity
  8
_0-4_ハッチ
  6
Continuous
 62
     5
100
AcDbLine
 10
29465.08841959553
 20
19006.59423772344
 30
0.0
 11
29565.08874951531
 21
19006.59423772344
 31
0.0
  0
LINE
  5
4B0
330
22
100
AcDbEntity
  8
_0-4_ハッチ
  6
Continuous
 62
     5
100
AcDbLine
 10
29565.08874951531
 20
19006.59423772344
 30
0.0
 11
29665.08907943506
 21
19006.59423772344
 31
0.0
  0
LINE
  5
4B1
330
22
100
AcDbEntity
  8
_0-4_ハッチ
  6
Continuous
 62
     5
100
AcDbLine
 10
29665.08907943506
 20
19006.59423772344
 30
0.0
 11
29765.08940935482
 21
19006.59423772344
 31
0.0
  0
LINE
  5
4B2
330
22
100
AcDbEntity
  8
_0-4_ハッチ
  6
Continuous
 62
     5
100
AcDbLine
 10
29715.08924439494
 20
18956.59407276356
 30
0.0
 11
29715.08924439494
 21
19056.59440268332
 31
0.0
  0
LINE
  5
4B3
330
22
100
AcDbEntity
  8
_0-4_ハッチ
  6
Continuous
 62
     5
100
AcDbLine
 10
29765.08940935482
 20
19006.59423772344
 30
0.0
 11
29865.08973927459
 21
19006.59423772344
 31
0.0
  0
LINE
  5
4B4
330
22
100
AcDbEntity
  8
_0-4_ハッチ
  6
Continuous
 62
     5
100
AcDbLine
 10
29815.08957431471
 20
18956.59407276356
 30
0.0
 11
29815.08957431471
 21
19056.59440268332
 31
0.0
  0
LINE
  5
4B5
330
22
100
AcDbEntity
  8
_0-4_ハッチ
  6
Continuous
 62
     5
100
AcDbLine
 10
29865.08973927459
 20
19006.59423772344
 30
0.0
 11
29965.09006919436
 21
19006.59423772344
 31
0.0
  0
LINE
  5
4B6
330
22
100
AcDbEntity
  8
_0-4_ハッチ
  6
Continuous
 62
     5
100
AcDbLine
 10
29915.08990423447
 20
18956.59407276356
 30
0.0
 11
29915.08990423447
 21
19056.59440268332
 31
0.0
  0
LINE
  5
4B7
330
22
100
AcDbEntity
  8
_0-4_ハッチ
  6
Continuous
 62
     5
100
AcDbLine
 10
29965.09006919436
 20
19006.59423772344
 30
0.0
 11
30065.09039911412
 21
19006.59423772344
 31
0.0
  0
LINE
  5
4B8
330
22
100
AcDbEntity
  8
_0-4_ハッチ
  6
Continuous
 62
     5
100
AcDbLine
 10
30015.09023415423
 20
18956.59407276356
 30
0.0
 11
30015.09023415423
 21
19056.59440268332
 31
0.0
  0
LINE
  5
4B9
330
22
100
AcDbEntity
  8
_0-4_ハッチ
  6
Continuous
 62
     5
100
AcDbLine
 10
30115.090564074
 20
18956.59407276356
 30
0.0
 11
30115.090564074
 21
19056.59440268332
 31
0.0
  0
LINE
  5
4BA
330
22
100
AcDbEntity
  8
_0-4_ハッチ
  6
Continuous
 62
     5
100
AcDbLine
 10
28065.08380071885
 20
19106.59456764321
 30
0.0
 11
28165.0841306386
 21
19106.59456764321
 31
0.0
  0
LINE
  5
4BB
330
22
100
AcDbEntity
  8
_0-4_ハッチ
  6
Continuous
 62
     5
100
AcDbLine
 10
28115.08396567873
 20
19056.59440268332
 30
0.0
 11
28115.08396567873
 21
19156.59473260308
 31
0.0
  0
LINE
  5
4BC
330
22
100
AcDbEntity
  8
_0-4_ハッチ
  6
Continuous
 62
     5
100
AcDbLine
 10
28165.0841306386
 20
19106.59456764321
 30
0.0
 11
28265.08446055838
 21
19106.59456764321
 31
0.0
  0
LINE
  5
4BD
330
22
100
AcDbEntity
  8
_0-4_ハッチ
  6
Continuous
 62
     5
100
AcDbLine
 10
28215.08429559849
 20
19056.59440268332
 30
0.0
 11
28215.08429559849
 21
19156.59473260308
 31
0.0
  0
LINE
  5
4BE
330
22
100
AcDbEntity
  8
_0-4_ハッチ
  6
Continuous
 62
     5
100
AcDbLine
 10
28265.08446055838
 20
19106.59456764321
 30
0.0
 11
28365.08479047813
 21
19106.59456764321
 31
0.0
  0
LINE
  5
4BF
330
22
100
AcDbEntity
  8
_0-4_ハッチ
  6
Continuous
 62
     5
100
AcDbLine
 10
28365.08479047813
 20
19106.59456764321
 30
0.0
 11
28465.0851203979
 21
19106.59456764321
 31
0.0
  0
LINE
  5
4C0
330
22
100
AcDbEntity
  8
_0-4_ハッチ
  6
Continuous
 62
     5
100
AcDbLine
 10
28465.0851203979
 20
19106.59456764321
 30
0.0
 11
28565.08545031767
 21
19106.59456764321
 31
0.0
  0
LINE
  5
4C1
330
22
100
AcDbEntity
  8
_0-4_ハッチ
  6
Continuous
 62
     5
100
AcDbLine
 10
28515.08528535778
 20
18956.59407276356
 30
0.0
 11
28515.08528535778
 21
19655.0845248856
 31
0.0
  0
LINE
  5
4C2
330
22
100
AcDbEntity
  8
_0-4_ハッチ
  6
Continuous
 62
     5
100
AcDbLine
 10
28565.08545031767
 20
19106.59456764321
 30
0.0
 11
28665.08578023743
 21
19106.59456764321
 31
0.0
  0
LINE
  5
4C3
330
22
100
AcDbEntity
  8
_0-4_ハッチ
  6
Continuous
 62
     5
100
AcDbLine
 10
28665.08578023743
 20
19106.59456764321
 30
0.0
 11
28765.08611015718
 21
19106.59456764321
 31
0.0
  0
LINE
  5
4C4
330
22
100
AcDbEntity
  8
_0-4_ハッチ
  6
Continuous
 62
     5
100
AcDbLine
 10
28765.08611015718
 20
19106.59456764321
 30
0.0
 11
28865.08644007695
 21
19106.59456764321
 31
0.0
  0
LINE
  5
4C5
330
22
100
AcDbEntity
  8
_0-4_ハッチ
  6
Continuous
 62
     5
100
AcDbLine
 10
28865.08644007695
 20
19106.59456764321
 30
0.0
 11
28965.08676999672
 21
19106.59456764321
 31
0.0
  0
LINE
  5
4C6
330
22
100
AcDbEntity
  8
_0-4_ハッチ
  6
Continuous
 62
     5
100
AcDbLine
 10
28965.08676999672
 20
19106.59456764321
 30
0.0
 11
29065.08709991648
 21
19106.59456764321
 31
0.0
  0
LINE
  5
4C7
330
22
100
AcDbEntity
  8
_0-4_ハッチ
  6
Continuous
 62
     5
100
AcDbLine
 10
29065.08709991648
 20
19106.59456764321
 30
0.0
 11
29165.08742983624
 21
19106.59456764321
 31
0.0
  0
LINE
  5
4C8
330
22
100
AcDbEntity
  8
_0-4_ハッチ
  6
Continuous
 62
     5
100
AcDbLine
 10
29165.08742983624
 20
19106.59456764321
 30
0.0
 11
29265.08775975601
 21
19106.59456764321
 31
0.0
  0
LINE
  5
4C9
330
22
100
AcDbEntity
  8
_0-4_ハッチ
  6
Continuous
 62
     5
100
AcDbLine
 10
29265.08775975601
 20
19106.59456764321
 30
0.0
 11
29365.08808967577
 21
19106.59456764321
 31
0.0
  0
LINE
  5
4CA
330
22
100
AcDbEntity
  8
_0-4_ハッチ
  6
Continuous
 62
     5
100
AcDbLine
 10
29365.08808967577
 20
19106.59456764321
 30
0.0
 11
29465.08841959553
 21
19106.59456764321
 31
0.0
  0
LINE
  5
4CB
330
22
100
AcDbEntity
  8
_0-4_ハッチ
  6
Continuous
 62
     5
100
AcDbLine
 10
29465.08841959553
 20
19106.59456764321
 30
0.0
 11
29565.08874951531
 21
19106.59456764321
 31
0.0
  0
LINE
  5
4CC
330
22
100
AcDbEntity
  8
_0-4_ハッチ
  6
Continuous
 62
     5
100
AcDbLine
 10
29565.08874951531
 20
19106.59456764321
 30
0.0
 11
29665.08907943506
 21
19106.59456764321
 31
0.0
  0
LINE
  5
4CD
330
22
100
AcDbEntity
  8
_0-4_ハッチ
  6
Continuous
 62
     5
100
AcDbLine
 10
29665.08907943506
 20
19106.59456764321
 30
0.0
 11
29765.08940935482
 21
19106.59456764321
 31
0.0
  0
LINE
  5
4CE
330
22
100
AcDbEntity
  8
_0-4_ハッチ
  6
Continuous
 62
     5
100
AcDbLine
 10
29715.08924439494
 20
19056.59440268332
 30
0.0
 11
29715.08924439494
 21
19156.59473260308
 31
0.0
  0
LINE
  5
4CF
330
22
100
AcDbEntity
  8
_0-4_ハッチ
  6
Continuous
 62
     5
100
AcDbLine
 10
29765.08940935482
 20
19106.59456764321
 30
0.0
 11
29865.08973927459
 21
19106.59456764321
 31
0.0
  0
LINE
  5
4D0
330
22
100
AcDbEntity
  8
_0-4_ハッチ
  6
Continuous
 62
     5
100
AcDbLine
 10
29815.08957431471
 20
19056.59440268332
 30
0.0
 11
29815.08957431471
 21
19156.59473260308
 31
0.0
  0
LINE
  5
4D1
330
22
100
AcDbEntity
  8
_0-4_ハッチ
  6
Continuous
 62
     5
100
AcDbLine
 10
29865.08973927459
 20
19106.59456764321
 30
0.0
 11
29965.09006919436
 21
19106.59456764321
 31
0.0
  0
LINE
  5
4D2
330
22
100
AcDbEntity
  8
_0-4_ハッチ
  6
Continuous
 62
     5
100
AcDbLine
 10
29915.08990423447
 20
19056.59440268332
 30
0.0
 11
29915.08990423447
 21
19156.59473260308
 31
0.0
  0
LINE
  5
4D3
330
22
100
AcDbEntity
  8
_0-4_ハッチ
  6
Continuous
 62
     5
100
AcDbLine
 10
29965.09006919436
 20
19106.59456764321
 30
0.0
 11
30065.09039911412
 21
19106.59456764321
 31
0.0
  0
LINE
  5
4D4
330
22
100
AcDbEntity
  8
_0-4_ハッチ
  6
Continuous
 62
     5
100
AcDbLine
 10
30015.09023415423
 20
19056.59440268332
 30
0.0
 11
30015.09023415423
 21
19156.59473260308
 31
0.0
  0
LINE
  5
4D5
330
22
100
AcDbEntity
  8
_0-4_ハッチ
  6
Continuous
 62
     5
100
AcDbLine
 10
30115.090564074
 20
19056.59440268332
 30
0.0
 11
30115.090564074
 21
19156.59473260308
 31
0.0
  0
LINE
  5
4D6
330
22
100
AcDbEntity
  8
_0-4_ハッチ
  6
Continuous
 62
     5
100
AcDbLine
 10
28015.08363575896
 20
19156.59473260308
 30
0.0
 11
28015.08363575896
 21
19256.59506252285
 31
0.0
  0
LINE
  5
4D7
330
22
100
AcDbEntity
  8
_0-4_ハッチ
  6
Continuous
 62
     5
100
AcDbLine
 10
28065.08380071885
 20
19206.59489756297
 30
0.0
 11
28165.0841306386
 21
19206.59489756297
 31
0.0
  0
LINE
  5
4D8
330
22
100
AcDbEntity
  8
_0-4_ハッチ
  6
Continuous
 62
     5
100
AcDbLine
 10
28115.08396567873
 20
19156.59473260308
 30
0.0
 11
28115.08396567873
 21
19256.59506252285
 31
0.0
  0
LINE
  5
4D9
330
22
100
AcDbEntity
  8
_0-4_ハッチ
  6
Continuous
 62
     5
100
AcDbLine
 10
28165.0841306386
 20
19206.59489756297
 30
0.0
 11
28265.08446055838
 21
19206.59489756297
 31
0.0
  0
LINE
  5
4DA
330
22
100
AcDbEntity
  8
_0-4_ハッチ
  6
Continuous
 62
     5
100
AcDbLine
 10
28265.08446055838
 20
19206.59489756297
 30
0.0
 11
28365.08479047813
 21
19206.59489756297
 31
0.0
  0
LINE
  5
4DB
330
22
100
AcDbEntity
  8
_0-4_ハッチ
  6
Continuous
 62
     5
100
AcDbLine
 10
28315.08462551825
 20
19056.59440268332
 30
0.0
 11
28315.08462551825
 21
19655.0845248856
 31
0.0
  0
LINE
  5
4DC
330
22
100
AcDbEntity
  8
_0-4_ハッチ
  6
Continuous
 62
     5
100
AcDbLine
 10
28365.08479047813
 20
19206.59489756297
 30
0.0
 11
28465.0851203979
 21
19206.59489756297
 31
0.0
  0
LINE
  5
4DD
330
22
100
AcDbEntity
  8
_0-4_ハッチ
  6
Continuous
 62
     5
100
AcDbLine
 10
28415.08495543802
 20
19056.59440268332
 30
0.0
 11
28415.08495543802
 21
19655.0845248856
 31
0.0
  0
LINE
  5
4DE
330
22
100
AcDbEntity
  8
_0-4_ハッチ
  6
Continuous
 62
     5
100
AcDbLine
 10
28465.0851203979
 20
19206.59489756297
 30
0.0
 11
28565.08545031767
 21
19206.59489756297
 31
0.0
  0
LINE
  5
4DF
330
22
100
AcDbEntity
  8
_0-4_ハッチ
  6
Continuous
 62
     5
100
AcDbLine
 10
28565.08545031767
 20
19206.59489756297
 30
0.0
 11
28665.08578023743
 21
19206.59489756297
 31
0.0
  0
LINE
  5
4E0
330
22
100
AcDbEntity
  8
_0-4_ハッチ
  6
Continuous
 62
     5
100
AcDbLine
 10
28665.08578023743
 20
19206.59489756297
 30
0.0
 11
28765.08611015718
 21
19206.59489756297
 31
0.0
  0
LINE
  5
4E1
330
22
100
AcDbEntity
  8
_0-4_ハッチ
  6
Continuous
 62
     5
100
AcDbLine
 10
28765.08611015718
 20
19206.59489756297
 30
0.0
 11
28865.08644007695
 21
19206.59489756297
 31
0.0
  0
LINE
  5
4E2
330
22
100
AcDbEntity
  8
_0-4_ハッチ
  6
Continuous
 62
     5
100
AcDbLine
 10
28865.08644007695
 20
19206.59489756297
 30
0.0
 11
28965.08676999672
 21
19206.59489756297
 31
0.0
  0
LINE
  5
4E3
330
22
100
AcDbEntity
  8
_0-4_ハッチ
  6
Continuous
 62
     5
100
AcDbLine
 10
28965.08676999672
 20
19206.59489756297
 30
0.0
 11
29065.08709991648
 21
19206.59489756297
 31
0.0
  0
LINE
  5
4E4
330
22
100
AcDbEntity
  8
_0-4_ハッチ
  6
Continuous
 62
     5
100
AcDbLine
 10
29065.08709991648
 20
19206.59489756297
 30
0.0
 11
29165.08742983624
 21
19206.59489756297
 31
0.0
  0
LINE
  5
4E5
330
22
100
AcDbEntity
  8
_0-4_ハッチ
  6
Continuous
 62
     5
100
AcDbLine
 10
29165.08742983624
 20
19206.59489756297
 30
0.0
 11
29265.08775975601
 21
19206.59489756297
 31
0.0
  0
LINE
  5
4E6
330
22
100
AcDbEntity
  8
_0-4_ハッチ
  6
Continuous
 62
     5
100
AcDbLine
 10
29265.08775975601
 20
19206.59489756297
 30
0.0
 11
29365.08808967577
 21
19206.59489756297
 31
0.0
  0
LINE
  5
4E7
330
22
100
AcDbEntity
  8
_0-4_ハッチ
  6
Continuous
 62
     5
100
AcDbLine
 10
29365.08808967577
 20
19206.59489756297
 30
0.0
 11
29465.08841959553
 21
19206.59489756297
 31
0.0
  0
LINE
  5
4E8
330
22
100
AcDbEntity
  8
_0-4_ハッチ
  6
Continuous
 62
     5
100
AcDbLine
 10
29465.08841959553
 20
19206.59489756297
 30
0.0
 11
29565.08874951531
 21
19206.59489756297
 31
0.0
  0
LINE
  5
4E9
330
22
100
AcDbEntity
  8
_0-4_ハッチ
  6
Continuous
 62
     5
100
AcDbLine
 10
29565.08874951531
 20
19206.59489756297
 30
0.0
 11
29665.08907943506
 21
19206.59489756297
 31
0.0
  0
LINE
  5
4EA
330
22
100
AcDbEntity
  8
_0-4_ハッチ
  6
Continuous
 62
     5
100
AcDbLine
 10
29665.08907943506
 20
19206.59489756297
 30
0.0
 11
29765.08940935482
 21
19206.59489756297
 31
0.0
  0
LINE
  5
4EB
330
22
100
AcDbEntity
  8
_0-4_ハッチ
  6
Continuous
 62
     5
100
AcDbLine
 10
29715.08924439494
 20
19156.59473260308
 30
0.0
 11
29715.08924439494
 21
19256.59506252285
 31
0.0
  0
LINE
  5
4EC
330
22
100
AcDbEntity
  8
_0-4_ハッチ
  6
Continuous
 62
     5
100
AcDbLine
 10
29765.08940935482
 20
19206.59489756297
 30
0.0
 11
29865.08973927459
 21
19206.59489756297
 31
0.0
  0
LINE
  5
4ED
330
22
100
AcDbEntity
  8
_0-4_ハッチ
  6
Continuous
 62
     5
100
AcDbLine
 10
29815.08957431471
 20
19156.59473260308
 30
0.0
 11
29815.08957431471
 21
19256.59506252285
 31
0.0
  0
LINE
  5
4EE
330
22
100
AcDbEntity
  8
_0-4_ハッチ
  6
Continuous
 62
     5
100
AcDbLine
 10
29865.08973927459
 20
19206.59489756297
 30
0.0
 11
29965.09006919436
 21
19206.59489756297
 31
0.0
  0
LINE
  5
4EF
330
22
100
AcDbEntity
  8
_0-4_ハッチ
  6
Continuous
 62
     5
100
AcDbLine
 10
29915.08990423447
 20
19156.59473260308
 30
0.0
 11
29915.08990423447
 21
19256.59506252285
 31
0.0
  0
LINE
  5
4F0
330
22
100
AcDbEntity
  8
_0-4_ハッチ
  6
Continuous
 62
     5
100
AcDbLine
 10
29965.09006919436
 20
19206.59489756297
 30
0.0
 11
30065.09039911412
 21
19206.59489756297
 31
0.0
  0
LINE
  5
4F1
330
22
100
AcDbEntity
  8
_0-4_ハッチ
  6
Continuous
 62
     5
100
AcDbLine
 10
30015.09023415423
 20
19156.59473260308
 30
0.0
 11
30015.09023415423
 21
19256.59506252285
 31
0.0
  0
LINE
  5
4F2
330
22
100
AcDbEntity
  8
_0-4_ハッチ
  6
Continuous
 62
     5
100
AcDbLine
 10
30115.090564074
 20
19156.59473260308
 30
0.0
 11
30115.090564074
 21
19256.59506252285
 31
0.0
  0
LINE
  5
4F3
330
22
100
AcDbEntity
  8
_0-4_ハッチ
  6
Continuous
 62
     5
100
AcDbLine
 10
27965.08347079909
 20
19306.59522748273
 30
0.0
 11
28065.08380071885
 21
19306.59522748273
 31
0.0
  0
LINE
  5
4F4
330
22
100
AcDbEntity
  8
_0-4_ハッチ
  6
Continuous
 62
     5
100
AcDbLine
 10
28065.08380071885
 20
19306.59522748273
 30
0.0
 11
28165.0841306386
 21
19306.59522748273
 31
0.0
  0
LINE
  5
4F5
330
22
100
AcDbEntity
  8
_0-4_ハッチ
  6
Continuous
 62
     5
100
AcDbLine
 10
28165.0841306386
 20
19306.59522748273
 30
0.0
 11
28265.08446055838
 21
19306.59522748273
 31
0.0
  0
LINE
  5
4F6
330
22
100
AcDbEntity
  8
_0-4_ハッチ
  6
Continuous
 62
     5
100
AcDbLine
 10
28215.08429559849
 20
19156.59473260308
 30
0.0
 11
28215.08429559849
 21
19655.0845248856
 31
0.0
  0
LINE
  5
4F7
330
22
100
AcDbEntity
  8
_0-4_ハッチ
  6
Continuous
 62
     5
100
AcDbLine
 10
28265.08446055838
 20
19306.59522748273
 30
0.0
 11
28365.08479047813
 21
19306.59522748273
 31
0.0
  0
LINE
  5
4F8
330
22
100
AcDbEntity
  8
_0-4_ハッチ
  6
Continuous
 62
     5
100
AcDbLine
 10
28365.08479047813
 20
19306.59522748273
 30
0.0
 11
28465.0851203979
 21
19306.59522748273
 31
0.0
  0
LINE
  5
4F9
330
22
100
AcDbEntity
  8
_0-4_ハッチ
  6
Continuous
 62
     5
100
AcDbLine
 10
28465.0851203979
 20
19306.59522748273
 30
0.0
 11
28565.08545031767
 21
19306.59522748273
 31
0.0
  0
LINE
  5
4FA
330
22
100
AcDbEntity
  8
_0-4_ハッチ
  6
Continuous
 62
     5
100
AcDbLine
 10
28565.08545031767
 20
19306.59522748273
 30
0.0
 11
28665.08578023743
 21
19306.59522748273
 31
0.0
  0
LINE
  5
4FB
330
22
100
AcDbEntity
  8
_0-4_ハッチ
  6
Continuous
 62
     5
100
AcDbLine
 10
28665.08578023743
 20
19306.59522748273
 30
0.0
 11
28765.08611015718
 21
19306.59522748273
 31
0.0
  0
LINE
  5
4FC
330
22
100
AcDbEntity
  8
_0-4_ハッチ
  6
Continuous
 62
     5
100
AcDbLine
 10
28765.08611015718
 20
19306.59522748273
 30
0.0
 11
28865.08644007695
 21
19306.59522748273
 31
0.0
  0
LINE
  5
4FD
330
22
100
AcDbEntity
  8
_0-4_ハッチ
  6
Continuous
 62
     5
100
AcDbLine
 10
28865.08644007695
 20
19306.59522748273
 30
0.0
 11
28965.08676999672
 21
19306.59522748273
 31
0.0
  0
LINE
  5
4FE
330
22
100
AcDbEntity
  8
_0-4_ハッチ
  6
Continuous
 62
     5
100
AcDbLine
 10
28965.08676999672
 20
19306.59522748273
 30
0.0
 11
29065.08709991648
 21
19306.59522748273
 31
0.0
  0
LINE
  5
4FF
330
22
100
AcDbEntity
  8
_0-4_ハッチ
  6
Continuous
 62
     5
100
AcDbLine
 10
29065.08709991648
 20
19306.59522748273
 30
0.0
 11
29165.08742983624
 21
19306.59522748273
 31
0.0
  0
LINE
  5
500
330
22
100
AcDbEntity
  8
_0-4_ハッチ
  6
Continuous
 62
     5
100
AcDbLine
 10
29165.08742983624
 20
19306.59522748273
 30
0.0
 11
29265.08775975601
 21
19306.59522748273
 31
0.0
  0
LINE
  5
501
330
22
100
AcDbEntity
  8
_0-4_ハッチ
  6
Continuous
 62
     5
100
AcDbLine
 10
29265.08775975601
 20
19306.59522748273
 30
0.0
 11
29365.08808967577
 21
19306.59522748273
 31
0.0
  0
LINE
  5
502
330
22
100
AcDbEntity
  8
_0-4_ハッチ
  6
Continuous
 62
     5
100
AcDbLine
 10
29365.08808967577
 20
19306.59522748273
 30
0.0
 11
29465.08841959553
 21
19306.59522748273
 31
0.0
  0
LINE
  5
503
330
22
100
AcDbEntity
  8
_0-4_ハッチ
  6
Continuous
 62
     5
100
AcDbLine
 10
29465.08841959553
 20
19306.59522748273
 30
0.0
 11
29565.08874951531
 21
19306.59522748273
 31
0.0
  0
LINE
  5
504
330
22
100
AcDbEntity
  8
_0-4_ハッチ
  6
Continuous
 62
     5
100
AcDbLine
 10
29565.08874951531
 20
19306.59522748273
 30
0.0
 11
29665.08907943506
 21
19306.59522748273
 31
0.0
  0
LINE
  5
505
330
22
100
AcDbEntity
  8
_0-4_ハッチ
  6
Continuous
 62
     5
100
AcDbLine
 10
29665.08907943506
 20
19306.59522748273
 30
0.0
 11
29765.08940935482
 21
19306.59522748273
 31
0.0
  0
LINE
  5
506
330
22
100
AcDbEntity
  8
_0-4_ハッチ
  6
Continuous
 62
     5
100
AcDbLine
 10
29715.08924439494
 20
19256.59506252285
 30
0.0
 11
29715.08924439494
 21
19356.59539244261
 31
0.0
  0
LINE
  5
507
330
22
100
AcDbEntity
  8
_0-4_ハッチ
  6
Continuous
 62
     5
100
AcDbLine
 10
29765.08940935482
 20
19306.59522748273
 30
0.0
 11
29865.08973927459
 21
19306.59522748273
 31
0.0
  0
LINE
  5
508
330
22
100
AcDbEntity
  8
_0-4_ハッチ
  6
Continuous
 62
     5
100
AcDbLine
 10
29815.08957431471
 20
19256.59506252285
 30
0.0
 11
29815.08957431471
 21
19356.59539244261
 31
0.0
  0
LINE
  5
509
330
22
100
AcDbEntity
  8
_0-4_ハッチ
  6
Continuous
 62
     5
100
AcDbLine
 10
29865.08973927459
 20
19306.59522748273
 30
0.0
 11
29965.09006919436
 21
19306.59522748273
 31
0.0
  0
LINE
  5
50A
330
22
100
AcDbEntity
  8
_0-4_ハッチ
  6
Continuous
 62
     5
100
AcDbLine
 10
29915.08990423447
 20
19256.59506252285
 30
0.0
 11
29915.08990423447
 21
19356.59539244261
 31
0.0
  0
LINE
  5
50B
330
22
100
AcDbEntity
  8
_0-4_ハッチ
  6
Continuous
 62
     5
100
AcDbLine
 10
29965.09006919436
 20
19306.59522748273
 30
0.0
 11
30065.09039911412
 21
19306.59522748273
 31
0.0
  0
LINE
  5
50C
330
22
100
AcDbEntity
  8
_0-4_ハッチ
  6
Continuous
 62
     5
100
AcDbLine
 10
30015.09023415423
 20
19256.59506252285
 30
0.0
 11
30015.09023415423
 21
19356.59539244261
 31
0.0
  0
LINE
  5
50D
330
22
100
AcDbEntity
  8
_0-4_ハッチ
  6
Continuous
 62
     5
100
AcDbLine
 10
30115.090564074
 20
19256.59506252285
 30
0.0
 11
30115.090564074
 21
19356.59539244261
 31
0.0
  0
LINE
  5
50E
330
22
100
AcDbEntity
  8
_0-4_ハッチ
  6
Continuous
 62
     5
100
AcDbLine
 10
27965.08347079909
 20
19406.5955574025
 30
0.0
 11
28065.08380071885
 21
19406.5955574025
 31
0.0
  0
LINE
  5
50F
330
22
100
AcDbEntity
  8
_0-4_ハッチ
  6
Continuous
 62
     5
100
AcDbLine
 10
28015.08363575896
 20
19256.59506252285
 30
0.0
 11
28015.08363575896
 21
19655.0845248856
 31
0.0
  0
LINE
  5
510
330
22
100
AcDbEntity
  8
_0-4_ハッチ
  6
Continuous
 62
     5
100
AcDbLine
 10
28065.08380071885
 20
19406.5955574025
 30
0.0
 11
28165.0841306386
 21
19406.5955574025
 31
0.0
  0
LINE
  5
511
330
22
100
AcDbEntity
  8
_0-4_ハッチ
  6
Continuous
 62
     5
100
AcDbLine
 10
28115.08396567873
 20
19256.59506252285
 30
0.0
 11
28115.08396567873
 21
19655.0845248856
 31
0.0
  0
LINE
  5
512
330
22
100
AcDbEntity
  8
_0-4_ハッチ
  6
Continuous
 62
     5
100
AcDbLine
 10
28165.0841306386
 20
19406.5955574025
 30
0.0
 11
28265.08446055838
 21
19406.5955574025
 31
0.0
  0
LINE
  5
513
330
22
100
AcDbEntity
  8
_0-4_ハッチ
  6
Continuous
 62
     5
100
AcDbLine
 10
28265.08446055838
 20
19406.5955574025
 30
0.0
 11
28365.08479047813
 21
19406.5955574025
 31
0.0
  0
LINE
  5
514
330
22
100
AcDbEntity
  8
_0-4_ハッチ
  6
Continuous
 62
     5
100
AcDbLine
 10
28365.08479047813
 20
19406.5955574025
 30
0.0
 11
28465.0851203979
 21
19406.5955574025
 31
0.0
  0
LINE
  5
515
330
22
100
AcDbEntity
  8
_0-4_ハッチ
  6
Continuous
 62
     5
100
AcDbLine
 10
28465.0851203979
 20
19406.5955574025
 30
0.0
 11
28565.08545031767
 21
19406.5955574025
 31
0.0
  0
LINE
  5
516
330
22
100
AcDbEntity
  8
_0-4_ハッチ
  6
Continuous
 62
     5
100
AcDbLine
 10
28565.08545031767
 20
19406.5955574025
 30
0.0
 11
28665.08578023743
 21
19406.5955574025
 31
0.0
  0
LINE
  5
517
330
22
100
AcDbEntity
  8
_0-4_ハッチ
  6
Continuous
 62
     5
100
AcDbLine
 10
28665.08578023743
 20
19406.5955574025
 30
0.0
 11
28765.08611015718
 21
19406.5955574025
 31
0.0
  0
LINE
  5
518
330
22
100
AcDbEntity
  8
_0-4_ハッチ
  6
Continuous
 62
     5
100
AcDbLine
 10
28765.08611015718
 20
19406.5955574025
 30
0.0
 11
28865.08644007695
 21
19406.5955574025
 31
0.0
  0
LINE
  5
519
330
22
100
AcDbEntity
  8
_0-4_ハッチ
  6
Continuous
 62
     5
100
AcDbLine
 10
28865.08644007695
 20
19406.5955574025
 30
0.0
 11
28965.08676999672
 21
19406.5955574025
 31
0.0
  0
LINE
  5
51A
330
22
100
AcDbEntity
  8
_0-4_ハッチ
  6
Continuous
 62
     5
100
AcDbLine
 10
28965.08676999672
 20
19406.5955574025
 30
0.0
 11
29065.08709991648
 21
19406.5955574025
 31
0.0
  0
LINE
  5
51B
330
22
100
AcDbEntity
  8
_0-4_ハッチ
  6
Continuous
 62
     5
100
AcDbLine
 10
29065.08709991648
 20
19406.5955574025
 30
0.0
 11
29165.08742983624
 21
19406.5955574025
 31
0.0
  0
LINE
  5
51C
330
22
100
AcDbEntity
  8
_0-4_ハッチ
  6
Continuous
 62
     5
100
AcDbLine
 10
29165.08742983624
 20
19406.5955574025
 30
0.0
 11
29265.08775975601
 21
19406.5955574025
 31
0.0
  0
LINE
  5
51D
330
22
100
AcDbEntity
  8
_0-4_ハッチ
  6
Continuous
 62
     5
100
AcDbLine
 10
29265.08775975601
 20
19406.5955574025
 30
0.0
 11
29365.08808967577
 21
19406.5955574025
 31
0.0
  0
LINE
  5
51E
330
22
100
AcDbEntity
  8
_0-4_ハッチ
  6
Continuous
 62
     5
100
AcDbLine
 10
29365.08808967577
 20
19406.5955574025
 30
0.0
 11
29465.08841959553
 21
19406.5955574025
 31
0.0
  0
LINE
  5
51F
330
22
100
AcDbEntity
  8
_0-4_ハッチ
  6
Continuous
 62
     5
100
AcDbLine
 10
29465.08841959553
 20
19406.5955574025
 30
0.0
 11
29565.08874951531
 21
19406.5955574025
 31
0.0
  0
LINE
  5
520
330
22
100
AcDbEntity
  8
_0-4_ハッチ
  6
Continuous
 62
     5
100
AcDbLine
 10
29565.08874951531
 20
19406.5955574025
 30
0.0
 11
29665.08907943506
 21
19406.5955574025
 31
0.0
  0
LINE
  5
521
330
22
100
AcDbEntity
  8
_0-4_ハッチ
  6
Continuous
 62
     5
100
AcDbLine
 10
29665.08907943506
 20
19406.5955574025
 30
0.0
 11
29765.08940935482
 21
19406.5955574025
 31
0.0
  0
LINE
  5
522
330
22
100
AcDbEntity
  8
_0-4_ハッチ
  6
Continuous
 62
     5
100
AcDbLine
 10
29715.08924439494
 20
19356.59539244261
 30
0.0
 11
29715.08924439494
 21
19456.59572236237
 31
0.0
  0
LINE
  5
523
330
22
100
AcDbEntity
  8
_0-4_ハッチ
  6
Continuous
 62
     5
100
AcDbLine
 10
29765.08940935482
 20
19406.5955574025
 30
0.0
 11
29865.08973927459
 21
19406.5955574025
 31
0.0
  0
LINE
  5
524
330
22
100
AcDbEntity
  8
_0-4_ハッチ
  6
Continuous
 62
     5
100
AcDbLine
 10
29815.08957431471
 20
19356.59539244261
 30
0.0
 11
29815.08957431471
 21
19456.59572236237
 31
0.0
  0
LINE
  5
525
330
22
100
AcDbEntity
  8
_0-4_ハッチ
  6
Continuous
 62
     5
100
AcDbLine
 10
29865.08973927459
 20
19406.5955574025
 30
0.0
 11
29965.09006919436
 21
19406.5955574025
 31
0.0
  0
LINE
  5
526
330
22
100
AcDbEntity
  8
_0-4_ハッチ
  6
Continuous
 62
     5
100
AcDbLine
 10
29915.08990423447
 20
19356.59539244261
 30
0.0
 11
29915.08990423447
 21
19456.59572236237
 31
0.0
  0
LINE
  5
527
330
22
100
AcDbEntity
  8
_0-4_ハッチ
  6
Continuous
 62
     5
100
AcDbLine
 10
29965.09006919436
 20
19406.5955574025
 30
0.0
 11
30065.09039911412
 21
19406.5955574025
 31
0.0
  0
LINE
  5
528
330
22
100
AcDbEntity
  8
_0-4_ハッチ
  6
Continuous
 62
     5
100
AcDbLine
 10
30015.09023415423
 20
19356.59539244261
 30
0.0
 11
30015.09023415423
 21
19456.59572236237
 31
0.0
  0
LINE
  5
529
330
22
100
AcDbEntity
  8
_0-4_ハッチ
  6
Continuous
 62
     5
100
AcDbLine
 10
30115.090564074
 20
19356.59539244261
 30
0.0
 11
30115.090564074
 21
19456.59572236237
 31
0.0
  0
LINE
  5
52A
330
22
100
AcDbEntity
  8
_0-4_ハッチ
  6
Continuous
 62
     5
100
AcDbLine
 10
27865.08314087932
 20
19506.59588732225
 30
0.0
 11
27965.08347079909
 21
19506.59588732225
 31
0.0
  0
LINE
  5
52B
330
22
100
AcDbEntity
  8
_0-4_ハッチ
  6
Continuous
 62
     5
100
AcDbLine
 10
27915.0833058392
 20
19356.59539244261
 30
0.0
 11
27915.0833058392
 21
19655.0845248856
 31
0.0
  0
LINE
  5
52C
330
22
100
AcDbEntity
  8
_0-4_ハッチ
  6
Continuous
 62
     5
100
AcDbLine
 10
27965.08347079909
 20
19506.59588732225
 30
0.0
 11
28065.08380071885
 21
19506.59588732225
 31
0.0
  0
LINE
  5
52D
330
22
100
AcDbEntity
  8
_0-4_ハッチ
  6
Continuous
 62
     5
100
AcDbLine
 10
28065.08380071885
 20
19506.59588732225
 30
0.0
 11
28165.0841306386
 21
19506.59588732225
 31
0.0
  0
LINE
  5
52E
330
22
100
AcDbEntity
  8
_0-4_ハッチ
  6
Continuous
 62
     5
100
AcDbLine
 10
28165.0841306386
 20
19506.59588732225
 30
0.0
 11
28265.08446055838
 21
19506.59588732225
 31
0.0
  0
LINE
  5
52F
330
22
100
AcDbEntity
  8
_0-4_ハッチ
  6
Continuous
 62
     5
100
AcDbLine
 10
28265.08446055838
 20
19506.59588732225
 30
0.0
 11
28365.08479047813
 21
19506.59588732225
 31
0.0
  0
LINE
  5
530
330
22
100
AcDbEntity
  8
_0-4_ハッチ
  6
Continuous
 62
     5
100
AcDbLine
 10
28365.08479047813
 20
19506.59588732225
 30
0.0
 11
28465.0851203979
 21
19506.59588732225
 31
0.0
  0
LINE
  5
531
330
22
100
AcDbEntity
  8
_0-4_ハッチ
  6
Continuous
 62
     5
100
AcDbLine
 10
28465.0851203979
 20
19506.59588732225
 30
0.0
 11
28565.08545031767
 21
19506.59588732225
 31
0.0
  0
LINE
  5
532
330
22
100
AcDbEntity
  8
_0-4_ハッチ
  6
Continuous
 62
     5
100
AcDbLine
 10
28565.08545031767
 20
19506.59588732225
 30
0.0
 11
28665.08578023743
 21
19506.59588732225
 31
0.0
  0
LINE
  5
533
330
22
100
AcDbEntity
  8
_0-4_ハッチ
  6
Continuous
 62
     5
100
AcDbLine
 10
28665.08578023743
 20
19506.59588732225
 30
0.0
 11
28765.08611015718
 21
19506.59588732225
 31
0.0
  0
LINE
  5
534
330
22
100
AcDbEntity
  8
_0-4_ハッチ
  6
Continuous
 62
     5
100
AcDbLine
 10
28765.08611015718
 20
19506.59588732225
 30
0.0
 11
28865.08644007695
 21
19506.59588732225
 31
0.0
  0
LINE
  5
535
330
22
100
AcDbEntity
  8
_0-4_ハッチ
  6
Continuous
 62
     5
100
AcDbLine
 10
28865.08644007695
 20
19506.59588732225
 30
0.0
 11
28965.08676999672
 21
19506.59588732225
 31
0.0
  0
LINE
  5
536
330
22
100
AcDbEntity
  8
_0-4_ハッチ
  6
Continuous
 62
     5
100
AcDbLine
 10
28965.08676999672
 20
19506.59588732225
 30
0.0
 11
29065.08709991648
 21
19506.59588732225
 31
0.0
  0
LINE
  5
537
330
22
100
AcDbEntity
  8
_0-4_ハッチ
  6
Continuous
 62
     5
100
AcDbLine
 10
29065.08709991648
 20
19506.59588732225
 30
0.0
 11
29165.08742983624
 21
19506.59588732225
 31
0.0
  0
LINE
  5
538
330
22
100
AcDbEntity
  8
_0-4_ハッチ
  6
Continuous
 62
     5
100
AcDbLine
 10
29165.08742983624
 20
19506.59588732225
 30
0.0
 11
29265.08775975601
 21
19506.59588732225
 31
0.0
  0
LINE
  5
539
330
22
100
AcDbEntity
  8
_0-4_ハッチ
  6
Continuous
 62
     5
100
AcDbLine
 10
29265.08775975601
 20
19506.59588732225
 30
0.0
 11
29365.08808967577
 21
19506.59588732225
 31
0.0
  0
LINE
  5
53A
330
22
100
AcDbEntity
  8
_0-4_ハッチ
  6
Continuous
 62
     5
100
AcDbLine
 10
29365.08808967577
 20
19506.59588732225
 30
0.0
 11
29465.08841959553
 21
19506.59588732225
 31
0.0
  0
LINE
  5
53B
330
22
100
AcDbEntity
  8
_0-4_ハッチ
  6
Continuous
 62
     5
100
AcDbLine
 10
29465.08841959553
 20
19506.59588732225
 30
0.0
 11
29565.08874951531
 21
19506.59588732225
 31
0.0
  0
LINE
  5
53C
330
22
100
AcDbEntity
  8
_0-4_ハッチ
  6
Continuous
 62
     5
100
AcDbLine
 10
29565.08874951531
 20
19506.59588732225
 30
0.0
 11
29665.08907943506
 21
19506.59588732225
 31
0.0
  0
LINE
  5
53D
330
22
100
AcDbEntity
  8
_0-4_ハッチ
  6
Continuous
 62
     5
100
AcDbLine
 10
29665.08907943506
 20
19506.59588732225
 30
0.0
 11
29765.08940935482
 21
19506.59588732225
 31
0.0
  0
LINE
  5
53E
330
22
100
AcDbEntity
  8
_0-4_ハッチ
  6
Continuous
 62
     5
100
AcDbLine
 10
29715.08924439494
 20
19456.59572236237
 30
0.0
 11
29715.08924439494
 21
19556.59605228214
 31
0.0
  0
LINE
  5
53F
330
22
100
AcDbEntity
  8
_0-4_ハッチ
  6
Continuous
 62
     5
100
AcDbLine
 10
29765.08940935482
 20
19506.59588732225
 30
0.0
 11
29865.08973927459
 21
19506.59588732225
 31
0.0
  0
LINE
  5
540
330
22
100
AcDbEntity
  8
_0-4_ハッチ
  6
Continuous
 62
     5
100
AcDbLine
 10
29815.08957431471
 20
19456.59572236237
 30
0.0
 11
29815.08957431471
 21
19556.59605228214
 31
0.0
  0
LINE
  5
541
330
22
100
AcDbEntity
  8
_0-4_ハッチ
  6
Continuous
 62
     5
100
AcDbLine
 10
29865.08973927459
 20
19506.59588732225
 30
0.0
 11
29965.09006919436
 21
19506.59588732225
 31
0.0
  0
LINE
  5
542
330
22
100
AcDbEntity
  8
_0-4_ハッチ
  6
Continuous
 62
     5
100
AcDbLine
 10
29915.08990423447
 20
19456.59572236237
 30
0.0
 11
29915.08990423447
 21
19556.59605228214
 31
0.0
  0
LINE
  5
543
330
22
100
AcDbEntity
  8
_0-4_ハッチ
  6
Continuous
 62
     5
100
AcDbLine
 10
29965.09006919436
 20
19506.59588732225
 30
0.0
 11
30065.09039911412
 21
19506.59588732225
 31
0.0
  0
LINE
  5
544
330
22
100
AcDbEntity
  8
_0-4_ハッチ
  6
Continuous
 62
     5
100
AcDbLine
 10
30015.09023415423
 20
19456.59572236237
 30
0.0
 11
30015.09023415423
 21
19556.59605228214
 31
0.0
  0
LINE
  5
545
330
22
100
AcDbEntity
  8
_0-4_ハッチ
  6
Continuous
 62
     5
100
AcDbLine
 10
30115.090564074
 20
19456.59572236237
 30
0.0
 11
30115.090564074
 21
19556.59605228214
 31
0.0
  0
LINE
  5
546
330
22
100
AcDbEntity
  8
_0-4_ハッチ
  6
Continuous
 62
     5
100
AcDbLine
 10
29715.08676999672
 20
18156.59143340545
 30
0.0
 11
29715.08676999672
 21
19655.0845248856
 31
0.0
  0
LINE
  5
547
330
22
100
AcDbEntity
  8
_0-4_ハッチ
  6
Continuous
 62
     5
100
AcDbLine
 10
29815.08709991648
 20
18156.59143340545
 30
0.0
 11
29815.08709991648
 21
19655.0845248856
 31
0.0
  0
LINE
  5
548
330
22
100
AcDbEntity
  8
_0-4_ハッチ
  6
Continuous
 62
     5
100
AcDbLine
 10
30252.91701967999
 20
15115.07845436195
 30
0.0
 11
27631.74243933793
 21
19655.0845248856
 31
0.0
  0
LINE
  5
549
330
22
100
AcDbEntity
  8
_0-4_ハッチ
  6
Continuous
 62
     5
100
AcDbLine
 10
30065.08545031767
 20
15706.58335037124
 30
0.0
 11
30252.91701967999
 21
15706.58335037124
 31
0.0
  0
LINE
  5
54A
330
22
100
AcDbEntity
  8
_0-4_ハッチ
  6
Continuous
 62
     5
100
AcDbLine
 10
30065.08545031767
 20
15806.58368029101
 30
0.0
 11
30252.91701967999
 21
15806.58368029101
 31
0.0
  0
LINE
  5
54B
330
22
100
AcDbEntity
  8
_0-4_ハッチ
  6
Continuous
 62
     5
100
AcDbLine
 10
30065.08545031767
 20
15906.58401021077
 30
0.0
 11
30252.91701967999
 21
15906.58401021077
 31
0.0
  0
LINE
  5
54C
330
22
100
AcDbEntity
  8
_0-4_ハッチ
  6
Continuous
 62
     5
100
AcDbLine
 10
30065.08545031767
 20
16006.58434013054
 30
0.0
 11
30252.91701967999
 21
16006.58434013054
 31
0.0
  0
LINE
  5
54D
330
22
100
AcDbEntity
  8
_0-4_ハッチ
  6
Continuous
 62
     5
100
AcDbLine
 10
30065.08545031767
 20
16106.5846700503
 30
0.0
 11
30252.91701967999
 21
16106.5846700503
 31
0.0
  0
LINE
  5
54E
330
22
100
AcDbEntity
  8
_0-4_ハッチ
  6
Continuous
 62
     5
100
AcDbLine
 10
30065.08545031767
 20
16206.58499997006
 30
0.0
 11
30252.91701967999
 21
16206.58499997006
 31
0.0
  0
LINE
  5
54F
330
22
100
AcDbEntity
  8
_0-4_ハッチ
  6
Continuous
 62
     5
100
AcDbLine
 10
30065.08545031767
 20
16306.58532988983
 30
0.0
 11
30252.91701967999
 21
16306.58532988983
 31
0.0
  0
LINE
  5
550
330
22
100
AcDbEntity
  8
_0-4_ハッチ
  6
Continuous
 62
     5
100
AcDbLine
 10
30065.08545031767
 20
16406.58565980959
 30
0.0
 11
30252.91701967999
 21
16406.58565980959
 31
0.0
  0
LINE
  5
551
330
22
100
AcDbEntity
  8
_0-4_ハッチ
  6
Continuous
 62
     5
100
AcDbLine
 10
30065.08545031767
 20
16506.58598972935
 30
0.0
 11
30252.91701967999
 21
16506.58598972935
 31
0.0
  0
LINE
  5
552
330
22
100
AcDbEntity
  8
_0-4_ハッチ
  6
Continuous
 62
     5
100
AcDbLine
 10
30065.08545031767
 20
16606.58631964911
 30
0.0
 11
30252.91701967999
 21
16606.58631964911
 31
0.0
  0
LINE
  5
553
330
22
100
AcDbEntity
  8
_0-4_ハッチ
  6
Continuous
 62
     5
100
AcDbLine
 10
30065.08545031767
 20
16706.58664956888
 30
0.0
 11
30252.91701967999
 21
16706.58664956888
 31
0.0
  0
LINE
  5
554
330
22
100
AcDbEntity
  8
_0-4_ハッチ
  6
Continuous
 62
     5
100
AcDbLine
 10
30065.08545031767
 20
16806.58697948864
 30
0.0
 11
30252.91701967999
 21
16806.58697948864
 31
0.0
  0
LINE
  5
555
330
22
100
AcDbEntity
  8
_0-4_ハッチ
  6
Continuous
 62
     5
100
AcDbLine
 10
30065.08545031767
 20
16906.58730940841
 30
0.0
 11
30252.91701967999
 21
16906.58730940841
 31
0.0
  0
LINE
  5
556
330
22
100
AcDbEntity
  8
_0-4_ハッチ
  6
Continuous
 62
     5
100
AcDbLine
 10
30065.08545031767
 20
17006.58763932817
 30
0.0
 11
30252.91701967999
 21
17006.58763932817
 31
0.0
  0
LINE
  5
557
330
22
100
AcDbEntity
  8
_0-4_ハッチ
  6
Continuous
 62
     5
100
AcDbLine
 10
30065.08792471588
 20
17106.58796924793
 30
0.0
 11
30252.91701967999
 21
17106.58796924793
 31
0.0
  0
LINE
  5
558
330
22
100
AcDbEntity
  8
_0-4_ハッチ
  6
Continuous
 62
     5
100
AcDbLine
 10
30065.08792471588
 20
17206.5882991677
 30
0.0
 11
30252.91701967999
 21
17206.5882991677
 31
0.0
  0
LINE
  5
559
330
22
100
AcDbEntity
  8
_0-4_ハッチ
  6
Continuous
 62
     5
100
AcDbLine
 10
30065.08792471588
 20
17306.58862908746
 30
0.0
 11
30252.91701967999
 21
17306.58862908746
 31
0.0
  0
LINE
  5
55A
330
22
100
AcDbEntity
  8
_0-4_ハッチ
  6
Continuous
 62
     5
100
AcDbLine
 10
30065.08792471588
 20
17406.58895900723
 30
0.0
 11
30252.91701967999
 21
17406.58895900723
 31
0.0
  0
LINE
  5
55B
330
22
100
AcDbEntity
  8
_0-4_ハッチ
  6
Continuous
 62
     5
100
AcDbLine
 10
30065.08792471588
 20
17506.58928892699
 30
0.0
 11
30252.91701967999
 21
17506.58928892699
 31
0.0
  0
LINE
  5
55C
330
22
100
AcDbEntity
  8
_0-4_ハッチ
  6
Continuous
 62
     5
100
AcDbLine
 10
30065.08792471588
 20
17606.58961884675
 30
0.0
 11
30252.91701967999
 21
17606.58961884675
 31
0.0
  0
LINE
  5
55D
330
22
100
AcDbEntity
  8
_0-4_ハッチ
  6
Continuous
 62
     5
100
AcDbLine
 10
30065.08792471588
 20
17706.58994876651
 30
0.0
 11
30252.91701967999
 21
17706.58994876651
 31
0.0
  0
LINE
  5
55E
330
22
100
AcDbEntity
  8
_0-4_ハッチ
  6
Continuous
 62
     5
100
AcDbLine
 10
30065.08792471588
 20
17806.59027868628
 30
0.0
 11
30252.91701967999
 21
17806.59027868628
 31
0.0
  0
LINE
  5
55F
330
22
100
AcDbEntity
  8
_0-4_ハッチ
  6
Continuous
 62
     5
100
AcDbLine
 10
30065.08792471588
 20
17906.59060860604
 30
0.0
 11
30252.91701967999
 21
17906.59060860604
 31
0.0
  0
LINE
  5
560
330
22
100
AcDbEntity
  8
_0-4_ハッチ
  6
Continuous
 62
     5
100
AcDbLine
 10
30065.08792471588
 20
18006.5909385258
 30
0.0
 11
30252.91701967999
 21
18006.5909385258
 31
0.0
  0
LINE
  5
561
330
22
100
AcDbEntity
  8
_0-4_ハッチ
  6
Continuous
 62
     5
100
AcDbLine
 10
30065.08792471588
 20
18106.59126844557
 30
0.0
 11
30252.91701967999
 21
18106.59126844557
 31
0.0
  0
LINE
  5
562
330
22
100
AcDbEntity
  8
_0-4_ハッチ
  6
Continuous
 62
     5
100
AcDbLine
 10
30065.08792471588
 20
18206.59159836533
 30
0.0
 11
30252.91701967999
 21
18206.59159836533
 31
0.0
  0
LINE
  5
563
330
22
100
AcDbEntity
  8
_0-4_ハッチ
  6
Continuous
 62
     5
100
AcDbLine
 10
30065.09039911412
 20
18306.59192828509
 30
0.0
 11
30252.91701967999
 21
18306.59192828509
 31
0.0
  0
LINE
  5
564
330
22
100
AcDbEntity
  8
_0-4_ハッチ
  6
Continuous
 62
     5
100
AcDbLine
 10
30065.09039911412
 20
18406.59225820486
 30
0.0
 11
30252.91701967999
 21
18406.59225820486
 31
0.0
  0
LINE
  5
565
330
22
100
AcDbEntity
  8
_0-4_ハッチ
  6
Continuous
 62
     5
100
AcDbLine
 10
30065.09039911412
 20
18506.59258812462
 30
0.0
 11
30252.91701967999
 21
18506.59258812462
 31
0.0
  0
LINE
  5
566
330
22
100
AcDbEntity
  8
_0-4_ハッチ
  6
Continuous
 62
     5
100
AcDbLine
 10
30065.09039911412
 20
18606.59291804438
 30
0.0
 11
30252.91701967999
 21
18606.59291804438
 31
0.0
  0
LINE
  5
567
330
22
100
AcDbEntity
  8
_0-4_ハッチ
  6
Continuous
 62
     5
100
AcDbLine
 10
30065.09039911412
 20
18706.59324796415
 30
0.0
 11
30252.91701967999
 21
18706.59324796415
 31
0.0
  0
LINE
  5
568
330
22
100
AcDbEntity
  8
_0-4_ハッチ
  6
Continuous
 62
     5
100
AcDbLine
 10
30065.09039911412
 20
18806.59357788391
 30
0.0
 11
30252.91701967999
 21
18806.59357788391
 31
0.0
  0
LINE
  5
569
330
22
100
AcDbEntity
  8
_0-4_ハッチ
  6
Continuous
 62
     5
100
AcDbLine
 10
30065.09039911412
 20
18906.59390780367
 30
0.0
 11
30252.91701967999
 21
18906.59390780367
 31
0.0
  0
LINE
  5
56A
330
22
100
AcDbEntity
  8
_0-4_ハッチ
  6
Continuous
 62
     5
100
AcDbLine
 10
30065.09039911412
 20
19006.59423772344
 30
0.0
 11
30252.91701967999
 21
19006.59423772344
 31
0.0
  0
LINE
  5
56B
330
22
100
AcDbEntity
  8
_0-4_ハッチ
  6
Continuous
 62
     5
100
AcDbLine
 10
30065.09039911412
 20
19106.59456764321
 30
0.0
 11
30252.91701967999
 21
19106.59456764321
 31
0.0
  0
LINE
  5
56C
330
22
100
AcDbEntity
  8
_0-4_ハッチ
  6
Continuous
 62
     5
100
AcDbLine
 10
30065.09039911412
 20
19206.59489756297
 30
0.0
 11
30252.91701967999
 21
19206.59489756297
 31
0.0
  0
LINE
  5
56D
330
22
100
AcDbEntity
  8
_0-4_ハッチ
  6
Continuous
 62
     5
100
AcDbLine
 10
30065.09039911412
 20
19306.59522748273
 30
0.0
 11
30252.91701967999
 21
19306.59522748273
 31
0.0
  0
LINE
  5
56E
330
22
100
AcDbEntity
  8
_0-4_ハッチ
  6
Continuous
 62
     5
100
AcDbLine
 10
30065.09039911412
 20
19406.5955574025
 30
0.0
 11
30252.91701967999
 21
19406.5955574025
 31
0.0
  0
LINE
  5
56F
330
22
100
AcDbEntity
  8
_0-4_ハッチ
  6
Continuous
 62
     5
100
AcDbLine
 10
30065.09039911412
 20
19506.59588732225
 30
0.0
 11
30252.91701967999
 21
19506.59588732225
 31
0.0
  0
LINE
  5
570
330
22
100
AcDbEntity
  8
_0-4_ハッチ
  6
Continuous
 62
     5
100
AcDbLine
 10
29853.67534025643
 20
15806.58368029101
 30
0.0
 11
29965.0851203979
 21
15806.58368029101
 31
0.0
  0
LINE
  5
571
330
22
100
AcDbEntity
  8
_0-4_ハッチ
  6
Continuous
 62
     5
100
AcDbLine
 10
29915.08495543802
 20
15700.22043533218
 30
0.0
 11
29915.08495543802
 21
15856.58384525089
 31
0.0
  0
LINE
  5
572
330
22
100
AcDbEntity
  8
_0-4_ハッチ
  6
Continuous
 62
     5
100
AcDbLine
 10
29738.20507262552
 20
16006.58434013054
 30
0.0
 11
29865.08479047813
 21
16006.58434013054
 31
0.0
  0
LINE
  5
573
330
22
100
AcDbEntity
  8
_0-4_ハッチ
  6
Continuous
 62
     5
100
AcDbLine
 10
29815.08462551825
 20
15873.42583677855
 30
0.0
 11
29815.08462551825
 21
16056.58450509041
 31
0.0
  0
LINE
  5
574
330
22
100
AcDbEntity
  8
_0-4_ハッチ
  6
Continuous
 62
     5
100
AcDbLine
 10
29622.73480499461
 20
16206.58499997006
 30
0.0
 11
29765.08446055838
 21
16206.58499997006
 31
0.0
  0
LINE
  5
575
330
22
100
AcDbEntity
  8
_0-4_ハッチ
  6
Continuous
 62
     5
100
AcDbLine
 10
29564.99967117915
 20
16306.58532988983
 30
0.0
 11
29665.08413063861
 21
16306.58532988983
 31
0.0
  0
LINE
  5
576
330
22
100
AcDbEntity
  8
_0-4_ハッチ
  6
Continuous
 62
     5
100
AcDbLine
 10
29615.08396567873
 20
16219.8378768704
 30
0.0
 11
29615.08396567873
 21
16356.5854948497
 31
0.0
  0
LINE
  5
577
330
22
100
AcDbEntity
  8
_0-4_ハッチ
  6
Continuous
 62
     5
100
AcDbLine
 10
29449.52940354824
 20
16506.58598972935
 30
0.0
 11
29565.08380071884
 21
16506.58598972935
 31
0.0
  0
LINE
  5
578
330
22
100
AcDbEntity
  8
_0-4_ハッチ
  6
Continuous
 62
     5
100
AcDbLine
 10
29515.08363575896
 20
16393.04327831677
 30
0.0
 11
29515.08363575896
 21
16556.58615468923
 31
0.0
  0
LINE
  5
579
330
22
100
AcDbEntity
  8
_0-4_ハッチ
  6
Continuous
 62
     5
100
AcDbLine
 10
29415.0833058392
 20
16566.24867976314
 30
0.0
 11
29415.0833058392
 21
16756.58681452876
 31
0.0
  0
LINE
  5
57A
330
22
100
AcDbEntity
  8
_0-4_ハッチ
  6
Continuous
 62
     5
100
AcDbLine
 10
29218.58886828642
 20
16906.58730940841
 30
0.0
 11
29365.08314087932
 21
16906.58730940841
 31
0.0
  0
LINE
  5
57B
330
22
100
AcDbEntity
  8
_0-4_ハッチ
  6
Continuous
 62
     5
100
AcDbLine
 10
29160.85373447096
 20
17006.58763932817
 30
0.0
 11
29265.08281095956
 21
17006.58763932817
 31
0.0
  0
LINE
  5
57C
330
22
100
AcDbEntity
  8
_0-4_ハッチ
  6
Continuous
 62
     5
100
AcDbLine
 10
29103.1186006555
 20
17106.58796924793
 30
0.0
 11
29265.08528535778
 21
17106.58796924793
 31
0.0
  0
LINE
  5
57D
330
22
100
AcDbEntity
  8
_0-4_ハッチ
  6
Continuous
 62
     5
100
AcDbLine
 10
29045.38346684004
 20
17206.5882991677
 30
0.0
 11
29165.08495543802
 21
17206.5882991677
 31
0.0
  0
LINE
  5
57E
330
22
100
AcDbEntity
  8
_0-4_ハッチ
  6
Continuous
 62
     5
100
AcDbLine
 10
29115.08479047813
 20
17085.8611725049
 30
0.0
 11
29115.08479047813
 21
17256.58846412758
 31
0.0
  0
LINE
  5
57F
330
22
100
AcDbEntity
  8
_0-4_ハッチ
  6
Continuous
 62
     5
100
AcDbLine
 10
28929.91319920913
 20
17406.58895900723
 30
0.0
 11
29065.08462551825
 21
17406.58895900723
 31
0.0
  0
LINE
  5
580
330
22
100
AcDbEntity
  8
_0-4_ハッチ
  6
Continuous
 62
     5
100
AcDbLine
 10
29015.08446055837
 20
17259.06657395127
 30
0.0
 11
29015.08446055837
 21
17456.5891239671
 31
0.0
  0
LINE
  5
581
330
22
100
AcDbEntity
  8
_0-4_ハッチ
  6
Continuous
 62
     5
100
AcDbLine
 10
28814.44293157822
 20
17606.58961884675
 30
0.0
 11
28965.08429559849
 21
17606.58961884675
 31
0.0
  0
LINE
  5
582
330
22
100
AcDbEntity
  8
_0-4_ハッチ
  6
Continuous
 62
     5
100
AcDbLine
 10
28756.70779776276
 20
17706.58994876651
 30
0.0
 11
28865.08396567873
 21
17706.58994876651
 31
0.0
  0
LINE
  5
583
330
22
100
AcDbEntity
  8
_0-4_ハッチ
  6
Continuous
 62
     5
100
AcDbLine
 10
28815.08380071884
 20
17605.477376844
 30
0.0
 11
28815.08380071884
 21
17756.59011372639
 31
0.0
  0
LINE
  5
584
330
22
100
AcDbEntity
  8
_0-4_ハッチ
  6
Continuous
 62
     5
100
AcDbLine
 10
28698.97266394731
 20
17806.59027868628
 30
0.0
 11
28865.08396567873
 21
17806.59027868628
 31
0.0
  0
LINE
  5
585
330
22
100
AcDbEntity
  8
_0-4_ハッチ
  6
Continuous
 62
     5
100
AcDbLine
 10
28641.23753013185
 20
17906.59060860604
 30
0.0
 11
28765.08363575896
 21
17906.59060860604
 31
0.0
  0
LINE
  5
586
330
22
100
AcDbEntity
  8
_0-4_ハッチ
  6
Continuous
 62
     5
100
AcDbLine
 10
28715.08347079908
 20
17778.68401548949
 30
0.0
 11
28715.08347079908
 21
17956.59077356592
 31
0.0
  0
LINE
  5
587
330
22
100
AcDbEntity
  8
_0-4_ハッチ
  6
Continuous
 62
     5
100
AcDbLine
 10
28525.76478810271
 20
18106.59126844557
 30
0.0
 11
28665.0833058392
 21
18106.59126844557
 31
0.0
  0
LINE
  5
588
330
22
100
AcDbEntity
  8
_0-4_ハッチ
  6
Continuous
 62
     5
100
AcDbLine
 10
28615.08314087932
 20
17951.88941693585
 30
0.0
 11
28615.08314087932
 21
18156.59143340545
 31
0.0
  0
LINE
  5
589
330
22
100
AcDbEntity
  8
_0-4_ハッチ
  6
Continuous
 62
     5
100
AcDbLine
 10
28410.2945204718
 20
18306.59192828509
 30
0.0
 11
28565.08545031767
 21
18306.59192828509
 31
0.0
  0
LINE
  5
58A
330
22
100
AcDbEntity
  8
_0-4_ハッチ
  6
Continuous
 62
     5
100
AcDbLine
 10
28352.55938665635
 20
18406.59225820486
 30
0.0
 11
28465.0851203979
 21
18406.59225820486
 31
0.0
  0
LINE
  5
58B
330
22
100
AcDbEntity
  8
_0-4_ハッチ
  6
Continuous
 62
     5
100
AcDbLine
 10
28415.08495543802
 20
18298.29527103214
 30
0.0
 11
28415.08495543802
 21
18456.59242316474
 31
0.0
  0
LINE
  5
58C
330
22
100
AcDbEntity
  8
_0-4_ハッチ
  6
Continuous
 62
     5
100
AcDbLine
 10
28294.82425284088
 20
18506.59258812462
 30
0.0
 11
28465.0851203979
 21
18506.59258812462
 31
0.0
  0
LINE
  5
58D
330
22
100
AcDbEntity
  8
_0-4_ハッチ
  6
Continuous
 62
     5
100
AcDbLine
 10
28237.08911902544
 20
18606.59291804438
 30
0.0
 11
28365.08479047813
 21
18606.59291804438
 31
0.0
  0
LINE
  5
58E
330
22
100
AcDbEntity
  8
_0-4_ハッチ
  6
Continuous
 62
     5
100
AcDbLine
 10
28315.08462551825
 20
18471.50190967762
 30
0.0
 11
28315.08462551825
 21
18656.59308300426
 31
0.0
  0
LINE
  5
58F
330
22
100
AcDbEntity
  8
_0-4_ハッチ
  6
Continuous
 62
     5
100
AcDbLine
 10
28121.61885139452
 20
18806.59357788391
 30
0.0
 11
28265.08446055838
 21
18806.59357788391
 31
0.0
  0
LINE
  5
590
330
22
100
AcDbEntity
  8
_0-4_ハッチ
  6
Continuous
 62
     5
100
AcDbLine
 10
28215.08429559849
 20
18644.70731112399
 30
0.0
 11
28215.08429559849
 21
18856.5937428438
 31
0.0
  0
LINE
  5
591
330
22
100
AcDbEntity
  8
_0-4_ハッチ
  6
Continuous
 62
     5
100
AcDbLine
 10
28063.88371757906
 20
18906.59390780367
 30
0.0
 11
28165.0841306386
 21
18906.59390780367
 31
0.0
  0
LINE
  5
592
330
22
100
AcDbEntity
  8
_0-4_ハッチ
  6
Continuous
 62
     5
100
AcDbLine
 10
28006.14858376361
 20
19006.59423772344
 30
0.0
 11
28165.0841306386
 21
19006.59423772344
 31
0.0
  0
LINE
  5
593
330
22
100
AcDbEntity
  8
_0-4_ハッチ
  6
Continuous
 62
     5
100
AcDbLine
 10
27948.41344994816
 20
19106.59456764321
 30
0.0
 11
28065.08380071885
 21
19106.59456764321
 31
0.0
  0
LINE
  5
594
330
22
100
AcDbEntity
  8
_0-4_ハッチ
  6
Continuous
 62
     5
100
AcDbLine
 10
28015.08363575896
 20
18991.11811401672
 30
0.0
 11
28015.08363575896
 21
19156.59473260308
 31
0.0
  0
LINE
  5
595
330
22
100
AcDbEntity
  8
_0-4_ハッチ
  6
Continuous
 62
     5
100
AcDbLine
 10
27890.6783161327
 20
19206.59489756297
 30
0.0
 11
28065.08380071885
 21
19206.59489756297
 31
0.0
  0
LINE
  5
596
330
22
100
AcDbEntity
  8
_0-4_ハッチ
  6
Continuous
 62
     5
100
AcDbLine
 10
27832.94318231724
 20
19306.59522748273
 30
0.0
 11
27965.08347079909
 21
19306.59522748273
 31
0.0
  0
LINE
  5
597
330
22
100
AcDbEntity
  8
_0-4_ハッチ
  6
Continuous
 62
     5
100
AcDbLine
 10
27915.0833058392
 20
19164.32351546309
 30
0.0
 11
27915.0833058392
 21
19356.59539244261
 31
0.0
  0
LINE
  5
598
330
22
100
AcDbEntity
  8
_0-4_ハッチ
  6
Continuous
 62
     5
100
AcDbLine
 10
27717.47291468633
 20
19506.59588732225
 30
0.0
 11
27865.08314087932
 21
19506.59588732225
 31
0.0
  0
LINE
  5
599
330
22
100
AcDbEntity
  8
_0-4_ハッチ
  6
Continuous
 62
     5
100
AcDbLine
 10
27815.08297591944
 20
19337.52891690946
 30
0.0
 11
27815.08297591944
 21
19655.0845248856
 31
0.0
  0
LINE
  5
59A
330
22
100
AcDbEntity
  8
_0-4_ハッチ
  6
Continuous
 62
     5
100
AcDbLine
 10
30026.88074170281
 20
15506.58269053172
 30
0.0
 11
30252.91701967999
 21
15506.58269053172
 31
0.0
  0
LINE
  5
59B
330
22
100
AcDbEntity
  8
_0-4_ハッチ
  6
Continuous
 62
     5
100
AcDbLine
 10
27659.73778087088
 20
19606.59621724202
 30
0.0
 11
30252.91701967999
 21
19606.59621724202
 31
0.0
  0
LINE
  5
59C
330
22
100
AcDbEntity
  8
_0-4_ハッチ
  6
Continuous
 62
     5
100
AcDbLine
 10
30084.61587551825
 20
15406.58236061195
 30
0.0
 11
30252.91701967999
 21
15406.58236061195
 31
0.0
  0
LINE
  5
59D
330
22
100
AcDbEntity
  8
_0-4_ハッチ
  6
Continuous
 62
     5
100
AcDbLine
 10
30142.35348373194
 20
15306.58203069219
 30
0.0
 11
30252.91701967999
 21
15306.58203069219
 31
0.0
  0
LINE
  5
59E
330
22
100
AcDbEntity
  8
_0-4_ハッチ
  6
Continuous
 62
     5
100
AcDbLine
 10
27715.08264599968
 20
19510.73555555494
 30
0.0
 11
27715.08264599968
 21
19655.0845248856
 31
0.0
  0
LINE
  5
59F
330
22
100
AcDbEntity
  8
_0-4_ハッチ
  6
Continuous
 62
     5
100
AcDbLine
 10
27775.20804850178
 20
19406.5955574025
 30
0.0
 11
27965.08347079909
 21
19406.5955574025
 31
0.0
  0
LINE
  5
5A0
330
22
100
AcDbEntity
  8
_0-4_ハッチ
  6
Continuous
 62
     5
100
AcDbLine
 10
28179.35398520997
 20
18706.59324796415
 30
0.0
 11
28365.08479047813
 21
18706.59324796415
 31
0.0
  0
LINE
  5
5A1
330
22
100
AcDbEntity
  8
_0-4_ハッチ
  6
Continuous
 62
     5
100
AcDbLine
 10
28468.02965428726
 20
18206.59159836533
 30
0.0
 11
28665.0833058392
 21
18206.59159836533
 31
0.0
  0
LINE
  5
5A2
330
22
100
AcDbEntity
  8
_0-4_ハッチ
  6
Continuous
 62
     5
100
AcDbLine
 10
28515.08528535778
 20
18125.08986958577
 30
0.0
 11
28515.08528535778
 21
18356.59209324498
 31
0.0
  0
LINE
  5
5A3
330
22
100
AcDbEntity
  8
_0-4_ハッチ
  6
Continuous
 62
     5
100
AcDbLine
 10
28583.5023963164
 20
18006.5909385258
 30
0.0
 11
28765.08363575896
 21
18006.5909385258
 31
0.0
  0
LINE
  5
5A4
330
22
100
AcDbEntity
  8
_0-4_ハッチ
  6
Continuous
 62
     5
100
AcDbLine
 10
28915.0841306386
 20
17432.27197539764
 30
0.0
 11
28915.0841306386
 21
17656.58978380663
 31
0.0
  0
LINE
  5
5A5
330
22
100
AcDbEntity
  8
_0-4_ハッチ
  6
Continuous
 62
     5
100
AcDbLine
 10
28987.64833302459
 20
17306.58862908746
 30
0.0
 11
29165.08495543802
 21
17306.58862908746
 31
0.0
  0
LINE
  5
5A6
330
22
100
AcDbEntity
  8
_0-4_ハッチ
  6
Continuous
 62
     5
100
AcDbLine
 10
29215.08264599968
 20
16912.65948265587
 30
0.0
 11
29215.08264599968
 21
17056.58780428805
 31
0.0
  0
LINE
  5
5A7
330
22
100
AcDbEntity
  8
_0-4_ハッチ
  6
Continuous
 62
     5
100
AcDbLine
 10
29276.32400210187
 20
16806.58697948864
 30
0.0
 11
29465.08347079909
 21
16806.58697948864
 31
0.0
  0
LINE
  5
5A8
330
22
100
AcDbEntity
  8
_0-4_ハッチ
  6
Continuous
 62
     5
100
AcDbLine
 10
29334.05913591732
 20
16706.58664956888
 30
0.0
 11
29465.08347079909
 21
16706.58664956888
 31
0.0
  0
LINE
  5
5A9
330
22
100
AcDbEntity
  8
_0-4_ハッチ
  6
Continuous
 62
     5
100
AcDbLine
 10
29391.79426973278
 20
16606.58631964911
 30
0.0
 11
29565.08380071884
 21
16606.58631964911
 31
0.0
  0
LINE
  5
5AA
330
22
100
AcDbEntity
  8
_0-4_ハッチ
  6
Continuous
 62
     5
100
AcDbLine
 10
29507.26453736369
 20
16406.58565980959
 30
0.0
 11
29665.08413063861
 21
16406.58565980959
 31
0.0
  0
LINE
  5
5AB
330
22
100
AcDbEntity
  8
_0-4_ハッチ
  6
Continuous
 62
     5
100
AcDbLine
 10
29680.46993881007
 20
16106.5846700503
 30
0.0
 11
29865.08479047813
 21
16106.5846700503
 31
0.0
  0
LINE
  5
5AC
330
22
100
AcDbEntity
  8
_0-4_ハッチ
  6
Continuous
 62
     5
100
AcDbLine
 10
29795.94020644097
 20
15906.58401021077
 30
0.0
 11
29965.0851203979
 21
15906.58401021077
 31
0.0
  0
LINE
  5
5AD
330
22
100
AcDbEntity
  8
_0-4_ハッチ
  6
Continuous
 62
     5
100
AcDbLine
 10
29911.41047407189
 20
15706.58335037124
 30
0.0
 11
30065.08545031767
 21
15706.58335037124
 31
0.0
  0
LINE
  5
5AE
330
22
100
AcDbEntity
  8
_0-4_ハッチ
  6
Continuous
 62
     5
100
AcDbLine
 10
29969.14560788735
 20
15606.58302045148
 30
0.0
 11
30252.91701967999
 21
15606.58302045148
 31
0.0
  0
LINE
  5
5AF
330
22
100
AcDbEntity
  8
_0-4_ハッチ
  6
Continuous
 62
     5
100
AcDbLine
 10
30015.08528535778
 20
15527.01503388581
 30
0.0
 11
30015.08528535778
 21
15756.58351533113
 31
0.0
  0
LINE
  5
5B0
330
22
100
AcDbEntity
  8
_0-4_ハッチ
  6
Continuous
 62
     5
100
AcDbLine
 10
30115.08314087932
 20
15353.81334403679
 30
0.0
 11
30115.08314087932
 21
15556.5828554916
 31
0.0
  0
LINE
  5
5B1
330
22
100
AcDbEntity
  8
_0-4_ハッチ
  6
Continuous
 62
     5
100
AcDbLine
 10
30215.09089399376
 20
19655.0845248856
 30
0.0
 11
30215.09089399376
 21
15180.59557059929
 31
0.0
  0
LINE
  5
5B2
330
22
100
AcDbEntity
  8
_0-4_ハッチ
  6
Continuous
 62
     5
100
AcDbLine
 10
30200.0886175474
 20
15206.58170077242
 30
0.0
 11
30252.91701967999
 21
15206.58170077242
 31
0.0
  0
LINE
  5
5B3
330
22
100
AcDbEntity
  8
_0-4_ハッチ
  6
DASHED1
 62
     5
100
AcDbLine
 10
36102.91899919858
 20
19715.08620747639
 30
0.0
 11
36052.91388544224
 21
17530.08370008619
 31
0.0
  0
LINE
  5
5B4
330
22
100
AcDbEntity
  8
_0-4_ハッチ
  6
DASHED1
 62
     5
100
AcDbLine
 10
36052.91388544224
 20
17430.08337016643
 30
0.0
 11
36002.91866927881
 21
15260.07942762525
 31
0.0
  0
LINE
  5
5B5
330
22
100
AcDbEntity
  8
_0-2_メッセン
  6
Continuous
 62
     6
100
AcDbLine
 10
9302.914710241649
 20
15610.0781079462
 30
0.0
 11
9302.914710241649
 21
15410.0799225049
 31
0.0
  0
LINE
  5
5B6
330
22
100
AcDbEntity
  8
_0-2_メッセン
  6
Continuous
 62
     6
100
AcDbLine
 10
9202.916854720113
 20
15610.0781079462
 30
0.0
 11
9202.916854720113
 21
15410.0799225049
 31
0.0
  0
LINE
  5
5B7
330
22
100
AcDbEntity
  8
_0-2_メッセン
  6
Continuous
 62
     6
100
AcDbLine
 10
9780.465526133221
 20
15065.07828940207
 30
0.0
 11
9580.467340691924
 21
15065.07828940207
 31
0.0
  0
LINE
  5
5B8
330
22
100
AcDbEntity
  8
_0-2_メッセン
  6
Continuous
 62
     6
100
AcDbLine
 10
9780.465526133221
 20
15165.07614492361
 30
0.0
 11
9580.467340691924
 21
15165.07614492361
 31
0.0
  0
LINE
  5
5B9
330
22
100
AcDbEntity
  8
_0-2_メッセン
  6
Continuous
 62
     6
100
AcDbLine
 10
9824.224021567133
 20
15370.21365548104
 30
0.0
 11
9646.646358454802
 21
15278.22418981909
 31
0.0
  0
LINE
  5
5BA
330
22
100
AcDbEntity
  8
_0-2_メッセン
  6
Continuous
 62
     6
100
AcDbLine
 10
9600.646058227818
 20
15367.01673297259
 30
0.0
 11
9778.215060946358
 21
15459.0012498381
 31
0.0
  0
LINE
  5
5BB
330
22
100
AcDbEntity
  8
_0-2_メッセン
  6
Continuous
 62
     6
100
AcDbLine
 10
18302.91471024165
 20
15610.0781079462
 30
0.0
 11
18302.91471024165
 21
15410.0799225049
 31
0.0
  0
LINE
  5
5BC
330
22
100
AcDbEntity
  8
_0-2_メッセン
  6
Continuous
 62
     6
100
AcDbLine
 10
18202.91685472011
 20
15610.0781079462
 30
0.0
 11
18202.91685472011
 21
15410.0799225049
 31
0.0
  0
LINE
  5
5BD
330
22
100
AcDbEntity
  8
_0-2_メッセン
  6
Continuous
 62
     6
100
AcDbLine
 10
18824.22340296757
 20
15370.21365548104
 30
0.0
 11
18646.64573985524
 21
15278.22418981909
 31
0.0
  0
LINE
  5
5BE
330
22
100
AcDbEntity
  8
_0-2_メッセン
  6
Continuous
 62
     6
100
AcDbLine
 10
18600.64667682737
 20
15367.01673297259
 30
0.0
 11
18778.2144423468
 21
15459.0012498381
 31
0.0
  0
LINE
  5
5BF
330
22
100
AcDbEntity
  8
_0-2_メッセン
  6
Continuous
 62
     6
100
AcDbLine
 10
27302.91965903811
 20
15610.0781079462
 30
0.0
 11
27302.91965903811
 21
15410.0799225049
 31
0.0
  0
LINE
  5
5C0
330
22
100
AcDbEntity
  8
_0-2_メッセン
  6
Continuous
 62
     6
100
AcDbLine
 10
27202.92180351656
 20
15610.0781079462
 30
0.0
 11
27202.92180351656
 21
15410.0799225049
 31
0.0
  0
LINE
  5
5C1
330
22
100
AcDbEntity
  8
_0-2_メッセン
  6
Continuous
 62
     6
100
AcDbLine
 10
27824.22835176403
 20
15370.21365548104
 30
0.0
 11
27646.65068865169
 21
15278.22418981909
 31
0.0
  0
LINE
  5
5C2
330
22
100
AcDbEntity
  8
_0-2_メッセン
  6
Continuous
 62
     6
100
AcDbLine
 10
27600.65162562383
 20
15367.01673297259
 30
0.0
 11
27778.21939114325
 21
15459.0012498381
 31
0.0
  0
LINE
  5
5C3
330
22
100
AcDbEntity
  8
_0-2_メッセン
  6
Continuous
 62
     6
100
AcDbLine
 10
17681.60568759595
 20
15370.21365548104
 30
0.0
 11
17859.18335070829
 21
15278.22418981909
 31
0.0
  0
LINE
  5
5C4
330
22
100
AcDbEntity
  8
_0-2_メッセン
  6
Continuous
 62
     6
100
AcDbLine
 10
17905.18241373615
 20
15367.01673297259
 30
0.0
 11
17727.61464821673
 21
15459.0012498381
 31
0.0
  0
LINE
  5
5C5
330
22
100
AcDbEntity
  8
_0-2_メッセン
  6
Continuous
 62
     6
100
AcDbLine
 10
26681.60568759596
 20
15370.21365548104
 30
0.0
 11
26859.18335070828
 21
15278.22418981909
 31
0.0
  0
LINE
  5
5C6
330
22
100
AcDbEntity
  8
_0-2_メッセン
  6
Continuous
 62
     6
100
AcDbLine
 10
26905.18241373616
 20
15367.01673297259
 30
0.0
 11
26727.61464821673
 21
15459.0012498381
 31
0.0
  0
LINE
  5
5C7
330
22
100
AcDbEntity
  8
ADD_LINE
  6
DOT
 62
     2
100
AcDbLine
 10
2752.915370081175
 20
19655.0845248856
 30
0.0
 11
2752.915370081175
 21
17385.08272682289
 31
0.0
  0
LINE
  5
5C8
330
22
100
AcDbEntity
  8
_0-3_寸法
  6
Continuous
 62
     4
100
AcDbLine
 10
8752.915370081174
 20
20015.07977404101
 30
0.0
 11
5752.915370081176
 21
20015.07977404101
 31
0.0
  0
LINE
  5
5C9
330
22
100
AcDbEntity
  8
_0-3_寸法
  6
Continuous
 62
     4
100
AcDbLine
 10
8752.915370081174
 20
19655.0845248856
 30
0.0
 11
5752.915370081176
 21
19655.0845248856
 31
0.0
  0
LINE
  5
5CA
330
22
100
AcDbEntity
  8
_0-3_寸法
  6
Continuous
 62
     4
100
AcDbLine
 10
8752.915370081174
 20
13015.0789492416
 30
0.0
 11
5752.915370081176
 21
13015.0789492416
 31
0.0
  0
LINE
  5
5CB
330
22
100
AcDbEntity
  8
_0-3_寸法
  6
Continuous
 62
     4
100
AcDbLine
 10
8438.58390299397
 20
17385.08272682289
 30
0.0
 11
5752.915370081176
 21
17385.08272682289
 31
0.0
  0
CIRCLE
  5
5CC
330
22
100
AcDbEntity
  8
_0-0_パイプ
  6
Continuous
 62
     7
100
AcDbCircle
 10
9047.378656609893
 20
15212.46334535646
 30
0.0
 40
15.00000019331236
  0
CIRCLE
  5
5CD
330
22
100
AcDbEntity
  8
_0-0_パイプ
  6
Continuous
 62
     7
100
AcDbCircle
 10
9459.811352978137
 20
15211.02200838961
 30
0.0
 40
15.00000019331236
  0
CIRCLE
  5
5CE
330
22
100
AcDbEntity
  8
_0-0_パイプ
  6
Continuous
 62
     7
100
AcDbCircle
 10
9252.914545281766
 20
15210.08049986449
 30
0.0
 40
15.00000019331236
  0
CIRCLE
  5
5CF
330
22
100
AcDbEntity
  8
_0-0_パイプ
  6
Continuous
 62
     7
100
AcDbCircle
 10
9252.914545281766
 20
15115.07845436195
 30
0.0
 40
15.00000019331236
  0
CIRCLE
  5
5D0
330
22
100
AcDbEntity
  8
_0-0_パイプ
  6
Continuous
 62
     7
100
AcDbCircle
 10
18252.91454528176
 20
19790.08274331888
 30
0.0
 40
10.00000012887491
  0
CIRCLE
  5
5D1
330
22
100
AcDbEntity
  8
_0-0_パイプ
  6
Continuous
 62
     7
100
AcDbCircle
 10
18252.38502406133
 20
19738.64000419304
 30
0.0
 40
10.00000012887491
  0
CIRCLE
  5
5D2
330
22
100
AcDbEntity
  8
_0-0_パイプ
  6
Continuous
 62
     7
100
AcDbCircle
 10
18377.69349904021
 20
19790.3004903628
 30
0.0
 40
10.00000012887491
  0
CIRCLE
  5
5D3
330
22
100
AcDbEntity
  8
_0-0_パイプ
  6
Continuous
 62
     7
100
AcDbCircle
 10
18377.69349904021
 20
19740.33744137631
 30
0.0
 40
10.00000012887491
  0
CIRCLE
  5
5D4
330
22
100
AcDbEntity
  8
_0-0_パイプ
  6
Continuous
 62
     7
100
AcDbCircle
 10
18123.49114605246
 20
19790.3004903628
 30
0.0
 40
10.00000012887491
  0
CIRCLE
  5
5D5
330
22
100
AcDbEntity
  8
_0-0_パイプ
  6
Continuous
 62
     7
100
AcDbCircle
 10
18123.49114605246
 20
19738.58556743205
 30
0.0
 40
10.00000012887491
  0
CIRCLE
  5
5D6
330
22
100
AcDbEntity
  8
_0-0_パイプ
  6
Continuous
 62
     7
100
AcDbCircle
 10
18252.91454528176
 20
19684.72286684084
 30
0.0
 40
10.00000012887491
  0
CIRCLE
  5
5D7
330
22
100
AcDbEntity
  8
_0-0_パイプ
  6
Continuous
 62
     7
100
AcDbCircle
 10
17952.91355552248
 20
19790.08274331888
 30
0.0
 40
15.00000019331236
  0
ARC
  5
5D8
330
22
100
AcDbEntity
  8
_0-0_パイプ
  6
Continuous
 62
     2
100
AcDbCircle
 10
18288.48154538734
 20
19655.83674194641
 30
0.0
 40
60.5918797286781
100
AcDbArc
 50
180.7089691162109
 51
234.0557556152344
  0
ARC
  5
5D9
330
22
100
AcDbEntity
  8
_0-0_パイプ
  6
Continuous
 62
     2
100
AcDbCircle
 10
18217.34754517619
 20
19655.83674194641
 30
0.0
 40
60.5918797286781
100
AcDbArc
 50
305.9442443847656
 51
359.2910308837891
  0
CIRCLE
  5
5DA
330
22
100
AcDbEntity
  8
_0-0_パイプ
  6
Continuous
 62
     7
100
AcDbCircle
 10
27252.38502406133
 20
19738.64000419304
 30
0.0
 40
10.00000012887491
  0
CIRCLE
  5
5DB
330
22
100
AcDbEntity
  8
_0-0_パイプ
  6
Continuous
 62
     7
100
AcDbCircle
 10
27377.69349904021
 20
19740.33496697808
 30
0.0
 40
10.00000012887491
  0
CIRCLE
  5
5DC
330
22
100
AcDbEntity
  8
_0-0_パイプ
  6
Continuous
 62
     7
100
AcDbCircle
 10
27123.49114605246
 20
19738.58309303383
 30
0.0
 40
10.00000012887491
  0
CIRCLE
  5
5DD
330
22
100
AcDbEntity
  8
_0-0_パイプ
  6
Continuous
 62
     7
100
AcDbCircle
 10
27252.91454528177
 20
19684.72039244261
 30
0.0
 40
10.00000012887491
  0
ARC
  5
5DE
330
22
100
AcDbEntity
  8
_0-0_パイプ
  6
Continuous
 62
     2
100
AcDbCircle
 10
27288.48154538735
 20
19655.83426754819
 30
0.0
 40
60.5918797286781
100
AcDbArc
 50
180.7089691162109
 51
234.0557556152344
  0
ARC
  5
5DF
330
22
100
AcDbEntity
  8
_0-0_パイプ
  6
Continuous
 62
     2
100
AcDbCircle
 10
27217.34754517619
 20
19655.83426754819
 30
0.0
 40
60.5918797286781
100
AcDbArc
 50
305.9442443847656
 51
359.2910308837891
  0
CIRCLE
  5
5E0
330
22
100
AcDbEntity
  8
_0-0_パイプ
  6
Continuous
 62
     7
100
AcDbCircle
 10
18047.37865660989
 20
15212.46334535646
 30
0.0
 40
15.00000019331236
  0
CIRCLE
  5
5E1
330
22
100
AcDbEntity
  8
_0-0_パイプ
  6
Continuous
 62
     7
100
AcDbCircle
 10
18459.81382737636
 20
15211.02200838961
 30
0.0
 40
15.00000019331236
  0
CIRCLE
  5
5E2
330
22
100
AcDbEntity
  8
_0-0_パイプ
  6
Continuous
 62
     7
100
AcDbCircle
 10
18252.91454528176
 20
15210.08049986449
 30
0.0
 40
15.00000019331236
  0
CIRCLE
  5
5E3
330
22
100
AcDbEntity
  8
_0-0_パイプ
  6
Continuous
 62
     7
100
AcDbCircle
 10
18252.91454528176
 20
15115.07845436195
 30
0.0
 40
15.00000019331236
  0
CIRCLE
  5
5E4
330
22
100
AcDbEntity
  8
_0-0_パイプ
  6
Continuous
 62
     7
100
AcDbCircle
 10
27047.3786566099
 20
15212.46334535646
 30
0.0
 40
15.00000019331236
  0
CIRCLE
  5
5E5
330
22
100
AcDbEntity
  8
_0-0_パイプ
  6
Continuous
 62
     7
100
AcDbCircle
 10
27459.81382737636
 20
15211.02200838961
 30
0.0
 40
15.00000019331236
  0
CIRCLE
  5
5E6
330
22
100
AcDbEntity
  8
_0-0_パイプ
  6
Continuous
 62
     7
100
AcDbCircle
 10
27252.91701967999
 20
15210.08049986449
 30
0.0
 40
15.00000019331236
  0
CIRCLE
  5
5E7
330
22
100
AcDbEntity
  8
_0-0_パイプ
  6
Continuous
 62
     7
100
AcDbCircle
 10
27252.91701967999
 20
15115.07845436195
 30
0.0
 40
15.00000019331236
  0
CIRCLE
  5
5E8
330
22
100
AcDbEntity
  8
_0-0_パイプ
  6
Continuous
 62
     7
100
AcDbCircle
 10
9083.418266776698
 20
17481.02628085055
 30
0.0
 40
15.00000019331236
  0
CIRCLE
  5
5E9
330
22
100
AcDbEntity
  8
_0-0_パイプ
  6
Continuous
 62
     7
100
AcDbCircle
 10
9422.326694247137
 20
17481.02628085055
 30
0.0
 40
15.00000019331236
  0
CIRCLE
  5
5EA
330
22
100
AcDbEntity
  8
_0-0_パイプ
  6
Continuous
 62
     7
100
AcDbCircle
 10
9252.912070883541
 20
17480.08477232543
 30
0.0
 40
15.00000019331236
  0
CIRCLE
  5
5EB
330
22
100
AcDbEntity
  8
_0-0_パイプ
  6
Continuous
 62
     7
100
AcDbCircle
 10
9252.912070883541
 20
17385.08272682289
 30
0.0
 40
15.00000019331236
  0
CIRCLE
  5
5EC
330
22
100
AcDbEntity
  8
_0-0_パイプ
  6
Continuous
 62
     7
100
AcDbCircle
 10
18083.4182667767
 20
17481.02628085055
 30
0.0
 40
15.00000019331236
  0
CIRCLE
  5
5ED
330
22
100
AcDbEntity
  8
_0-0_パイプ
  6
Continuous
 62
     7
100
AcDbCircle
 10
18422.32669424713
 20
17481.02628085055
 30
0.0
 40
15.00000019331236
  0
CIRCLE
  5
5EE
330
22
100
AcDbEntity
  8
_0-0_パイプ
  6
Continuous
 62
     7
100
AcDbCircle
 10
18252.91207088354
 20
17480.08477232543
 30
0.0
 40
15.00000019331236
  0
CIRCLE
  5
5EF
330
22
100
AcDbEntity
  8
_0-0_パイプ
  6
Continuous
 62
     7
100
AcDbCircle
 10
18252.91207088354
 20
17385.08272682289
 30
0.0
 40
15.00000019331236
  0
CIRCLE
  5
5F0
330
22
100
AcDbEntity
  8
_0-0_パイプ
  6
Continuous
 62
     7
100
AcDbCircle
 10
27083.4182667767
 20
17481.02628085055
 30
0.0
 40
15.00000019331236
  0
CIRCLE
  5
5F1
330
22
100
AcDbEntity
  8
_0-0_パイプ
  6
Continuous
 62
     7
100
AcDbCircle
 10
27422.32669424713
 20
17481.02628085055
 30
0.0
 40
15.00000019331236
  0
CIRCLE
  5
5F2
330
22
100
AcDbEntity
  8
_0-0_パイプ
  6
Continuous
 62
     7
100
AcDbCircle
 10
27252.91207088354
 20
17480.08477232543
 30
0.0
 40
15.00000019331236
  0
CIRCLE
  5
5F3
330
22
100
AcDbEntity
  8
_0-0_パイプ
  6
Continuous
 62
     7
100
AcDbCircle
 10
27252.91207088354
 20
17385.08272682289
 30
0.0
 40
15.00000019331236
  0
CIRCLE
  5
5F4
330
22
100
AcDbEntity
  8
_0-0_パイプ
  6
Continuous
 62
     7
100
AcDbCircle
 10
9252.914545281766
 20
19790.08274331888
 30
0.0
 40
10.00000012887491
  0
CIRCLE
  5
5F5
330
22
100
AcDbEntity
  8
_0-0_パイプ
  6
Continuous
 62
     7
100
AcDbCircle
 10
9252.385024061327
 20
19738.64000419304
 30
0.0
 40
10.00000012887491
  0
CIRCLE
  5
5F6
330
22
100
AcDbEntity
  8
_0-0_パイプ
  6
Continuous
 62
     7
100
AcDbCircle
 10
9377.693499040214
 20
19790.3004903628
 30
0.0
 40
10.00000012887491
  0
CIRCLE
  5
5F7
330
22
100
AcDbEntity
  8
_0-0_パイプ
  6
Continuous
 62
     7
100
AcDbCircle
 10
9377.693499040214
 20
19740.33249257985
 30
0.0
 40
10.00000012887491
  0
CIRCLE
  5
5F8
330
22
100
AcDbEntity
  8
_0-0_パイプ
  6
Continuous
 62
     7
100
AcDbCircle
 10
9123.491146052458
 20
19790.3004903628
 30
0.0
 40
10.00000012887491
  0
CIRCLE
  5
5F9
330
22
100
AcDbEntity
  8
_0-0_パイプ
  6
Continuous
 62
     7
100
AcDbCircle
 10
9123.491146052458
 20
19738.5806186356
 30
0.0
 40
10.00000012887491
  0
CIRCLE
  5
5FA
330
22
100
AcDbEntity
  8
_0-0_パイプ
  6
Continuous
 62
     7
100
AcDbCircle
 10
9252.914545281766
 20
19684.71791804438
 30
0.0
 40
10.00000012887491
  0
CIRCLE
  5
5FB
330
22
100
AcDbEntity
  8
_0-0_パイプ
  6
Continuous
 62
     7
100
AcDbCircle
 10
9552.915535041057
 20
19790.08274331888
 30
0.0
 40
15.00000019331236
  0
ARC
  5
5FC
330
22
100
AcDbEntity
  8
_0-0_パイプ
  6
Continuous
 62
     2
100
AcDbCircle
 10
9288.481545387339
 20
19655.83179314996
 30
0.0
 40
60.5918797286781
100
AcDbArc
 50
180.7089691162109
 51
234.0557556152344
  0
ARC
  5
5FD
330
22
100
AcDbEntity
  8
_0-0_パイプ
  6
Continuous
 62
     2
100
AcDbCircle
 10
9217.347545176192
 20
19655.83179314996
 30
0.0
 40
60.5918797286781
100
AcDbArc
 50
305.9442443847656
 51
359.2910308837891
  0
ARC
  5
5FE
330
22
100
AcDbEntity
  8
_0-2_メッセン
  6
Continuous
 62
     6
100
AcDbCircle
 10
9260.298149589198
 20
15417.46228961322
 30
0.0
 40
57.85485699370101
100
AcDbArc
 50
187.3310089111329
 51
262.6702728271484
  0
ARC
  5
5FF
330
22
100
AcDbEntity
  8
_0-2_メッセン
  6
Continuous
 62
     6
100
AcDbCircle
 10
9260.298149589198
 20
15602.69574083788
 30
0.0
 40
57.85485699370101
100
AcDbArc
 50
97.32972717285157
 51
172.6689910888672
  0
ARC
  5
600
330
22
100
AcDbEntity
  8
_0-2_メッセン
  6
Continuous
 62
     6
100
AcDbCircle
 10
9245.533415372561
 20
15602.69574083788
 30
0.0
 40
57.85485699370101
100
AcDbArc
 50
7.331008911132831
 51
82.67027282714845
  0
ARC
  5
601
330
22
100
AcDbEntity
  8
_0-2_メッセン
  6
Continuous
 62
     6
100
AcDbCircle
 10
9245.533415372561
 20
15417.46228961322
 30
0.0
 40
57.85485699370101
100
AcDbArc
 50
277.3297271728516
 51
352.6689910888672
  0
CIRCLE
  5
602
330
22
100
AcDbEntity
  8
_0-2_メッセン
  6
Continuous
 62
     6
100
AcDbCircle
 10
9252.914545281766
 20
15760.07984002496
 30
0.0
 40
50.00000064437454
  0
ARC
  5
603
330
22
100
AcDbEntity
  8
_0-2_メッセン
  6
Continuous
 62
     6
100
AcDbCircle
 10
9587.849707800243
 20
15107.69485005452
 30
0.0
 40
57.85485699370101
100
AcDbArc
 50
97.33100891113288
 51
172.6702728271484
  0
ARC
  5
604
330
22
100
AcDbEntity
  8
_0-2_メッセン
  6
Continuous
 62
     6
100
AcDbCircle
 10
9773.083159024904
 20
15107.69485005452
 30
0.0
 40
57.85485699370101
100
AcDbArc
 50
7.329727172851574
 51
82.6689910888672
  0
ARC
  5
605
330
22
100
AcDbEntity
  8
_0-2_メッセン
  6
Continuous
 62
     6
100
AcDbCircle
 10
9773.083159024904
 20
15122.45958427116
 30
0.0
 40
57.85485699370101
100
AcDbArc
 50
277.3310089111328
 51
352.6702728271484
  0
ARC
  5
606
330
22
100
AcDbEntity
  8
_0-2_メッセン
  6
Continuous
 62
     6
100
AcDbCircle
 10
9587.849707800243
 20
15122.45958427116
 30
0.0
 40
57.85485699370101
100
AcDbArc
 50
187.3297271728516
 51
262.6689910888672
  0
CIRCLE
  5
607
330
22
100
AcDbEntity
  8
_0-2_メッセン
  6
Continuous
 62
     6
100
AcDbCircle
 10
9930.467258211983
 20
15115.07845436195
 30
0.0
 40
50.00000064437454
  0
ARC
  5
608
330
22
100
AcDbEntity
  8
_0-2_メッセン
  6
Continuous
 62
     6
100
AcDbCircle
 10
9631.854405857673
 20
15320.00935266748
 30
0.0
 40
56.42372208672602
100
AcDbArc
 50
123.5803070068359
 51
201.184799194336
  0
ARC
  5
609
330
22
100
AcDbEntity
  8
_0-2_メッセン
  6
Continuous
 62
     6
100
AcDbCircle
 10
9626.248656675876
 20
15330.83237050954
 30
0.0
 40
56.42372208672602
100
AcDbArc
 50
213.5855255126953
 51
291.1927337646485
  0
ARC
  5
60A
330
22
100
AcDbEntity
  8
_0-2_メッセン
  6
Continuous
 62
     6
100
AcDbCircle
 10
9793.013818138607
 20
15417.21979858704
 30
0.0
 40
56.42372208672602
100
AcDbArc
 50
303.5825805664063
 51
21.18479919433593
  0
ARC
  5
60B
330
22
100
AcDbEntity
  8
_0-2_メッセン
  6
Continuous
 62
     6
100
AcDbCircle
 10
9798.620804519522
 20
15406.39678074498
 30
0.0
 40
56.42372208672602
100
AcDbArc
 50
33.58502197265629
 51
111.2017211914063
  0
CIRCLE
  5
60C
330
22
100
AcDbEntity
  8
_0-2_メッセン
  6
Continuous
 62
     6
100
AcDbCircle
 10
9934.417016380795
 20
15483.60790300004
 30
0.0
 40
50.00000064437454
  0
ARC
  5
60D
330
22
100
AcDbEntity
  8
_0-2_メッセン
  6
Continuous
 62
     6
100
AcDbCircle
 10
18260.2981495892
 20
15417.46228961322
 30
0.0
 40
57.85485699370101
100
AcDbArc
 50
187.3310089111329
 51
262.6702728271484
  0
ARC
  5
60E
330
22
100
AcDbEntity
  8
_0-2_メッセン
  6
Continuous
 62
     6
100
AcDbCircle
 10
18260.2981495892
 20
15602.69574083788
 30
0.0
 40
57.85485699370101
100
AcDbArc
 50
97.32972717285157
 51
172.6689910888672
  0
ARC
  5
60F
330
22
100
AcDbEntity
  8
_0-2_メッセン
  6
Continuous
 62
     6
100
AcDbCircle
 10
18245.53341537256
 20
15602.69574083788
 30
0.0
 40
57.85485699370101
100
AcDbArc
 50
7.331008911132831
 51
82.67027282714845
  0
ARC
  5
610
330
22
100
AcDbEntity
  8
_0-2_メッセン
  6
Continuous
 62
     6
100
AcDbCircle
 10
18245.53341537256
 20
15417.46228961322
 30
0.0
 40
57.85485699370101
100
AcDbArc
 50
277.3297271728516
 51
352.6689910888672
  0
CIRCLE
  5
611
330
22
100
AcDbEntity
  8
_0-2_メッセン
  6
Continuous
 62
     6
100
AcDbCircle
 10
18252.91454528176
 20
15760.07984002496
 30
0.0
 40
50.00000064437454
  0
ARC
  5
612
330
22
100
AcDbEntity
  8
_0-2_メッセン
  6
Continuous
 62
     6
100
AcDbCircle
 10
18631.85378725812
 20
15320.00935266748
 30
0.0
 40
56.42372208672602
100
AcDbArc
 50
123.5803070068359
 51
201.184799194336
  0
ARC
  5
613
330
22
100
AcDbEntity
  8
_0-2_メッセン
  6
Continuous
 62
     6
100
AcDbCircle
 10
18626.24927527543
 20
15330.83237050954
 30
0.0
 40
56.42372208672602
100
AcDbArc
 50
213.5855255126953
 51
291.1927337646485
  0
ARC
  5
614
330
22
100
AcDbEntity
  8
_0-2_メッセン
  6
Continuous
 62
     6
100
AcDbCircle
 10
18793.01381813861
 20
15417.21979858704
 30
0.0
 40
56.42372208672602
100
AcDbArc
 50
303.5825805664063
 51
21.18479919433593
  0
ARC
  5
615
330
22
100
AcDbEntity
  8
_0-2_メッセン
  6
Continuous
 62
     6
100
AcDbCircle
 10
18798.62080451952
 20
15406.39678074498
 30
0.0
 40
56.42372208672602
100
AcDbArc
 50
33.58502197265629
 51
111.2017211914063
  0
CIRCLE
  5
616
330
22
100
AcDbEntity
  8
_0-2_メッセン
  6
Continuous
 62
     6
100
AcDbCircle
 10
18934.4170163808
 20
15483.60790300004
 30
0.0
 40
50.00000064437454
  0
ARC
  5
617
330
22
100
AcDbEntity
  8
_0-2_メッセン
  6
Continuous
 62
     6
100
AcDbCircle
 10
27260.30309838566
 20
15417.46228961322
 30
0.0
 40
57.85485699370101
100
AcDbArc
 50
187.3310089111329
 51
262.6702728271484
  0
ARC
  5
618
330
22
100
AcDbEntity
  8
_0-2_メッセン
  6
Continuous
 62
     6
100
AcDbCircle
 10
27260.30309838566
 20
15602.69574083788
 30
0.0
 40
57.85485699370101
100
AcDbArc
 50
97.32972717285157
 51
172.6689910888672
  0
ARC
  5
619
330
22
100
AcDbEntity
  8
_0-2_メッセン
  6
Continuous
 62
     6
100
AcDbCircle
 10
27245.53836416901
 20
15602.69574083788
 30
0.0
 40
57.85485699370101
100
AcDbArc
 50
7.331008911132831
 51
82.67027282714845
  0
ARC
  5
61A
330
22
100
AcDbEntity
  8
_0-2_メッセン
  6
Continuous
 62
     6
100
AcDbCircle
 10
27245.53836416901
 20
15417.46228961322
 30
0.0
 40
57.85485699370101
100
AcDbArc
 50
277.3297271728516
 51
352.6689910888672
  0
CIRCLE
  5
61B
330
22
100
AcDbEntity
  8
_0-2_メッセン
  6
Continuous
 62
     6
100
AcDbCircle
 10
27252.91949407822
 20
15760.07984002496
 30
0.0
 40
50.00000064437454
  0
ARC
  5
61C
330
22
100
AcDbEntity
  8
_0-2_メッセン
  6
Continuous
 62
     6
100
AcDbCircle
 10
27631.85873605457
 20
15320.00935266748
 30
0.0
 40
56.42372208672602
100
AcDbArc
 50
123.5803070068359
 51
201.184799194336
  0
ARC
  5
61D
330
22
100
AcDbEntity
  8
_0-2_メッセン
  6
Continuous
 62
     6
100
AcDbCircle
 10
27626.25422407189
 20
15330.83237050954
 30
0.0
 40
56.42372208672602
100
AcDbArc
 50
213.5855255126953
 51
291.1927337646485
  0
ARC
  5
61E
330
22
100
AcDbEntity
  8
_0-2_メッセン
  6
Continuous
 62
     6
100
AcDbCircle
 10
27793.01876693506
 20
15417.21979858704
 30
0.0
 40
56.42372208672602
100
AcDbArc
 50
303.5825805664063
 51
21.18479919433593
  0
ARC
  5
61F
330
22
100
AcDbEntity
  8
_0-2_メッセン
  6
Continuous
 62
     6
100
AcDbCircle
 10
27798.62575331597
 20
15406.39678074498
 30
0.0
 40
56.42372208672602
100
AcDbArc
 50
33.58502197265629
 51
111.2017211914063
  0
CIRCLE
  5
620
330
22
100
AcDbEntity
  8
_0-2_メッセン
  6
Continuous
 62
     6
100
AcDbCircle
 10
27934.42320237636
 20
15483.60790300004
 30
0.0
 40
50.00000064437454
  0
ARC
  5
621
330
22
100
AcDbEntity
  8
_0-2_メッセン
  6
Continuous
 62
     6
100
AcDbCircle
 10
17873.97530330541
 20
15320.00935266748
 30
0.0
 40
56.42372208672602
100
AcDbArc
 50
338.815200805664
 51
56.41969299316406
  0
ARC
  5
622
330
22
100
AcDbEntity
  8
_0-2_メッセン
  6
Continuous
 62
     6
100
AcDbCircle
 10
17879.5798152881
 20
15330.83237050954
 30
0.0
 40
56.42372208672602
100
AcDbArc
 50
248.8072662353516
 51
326.4144744873047
  0
ARC
  5
623
330
22
100
AcDbEntity
  8
_0-2_メッセン
  6
Continuous
 62
     6
100
AcDbCircle
 10
17712.81527242492
 20
15417.21979858704
 30
0.0
 40
56.42372208672602
100
AcDbArc
 50
158.815200805664
 51
236.4174194335937
  0
ARC
  5
624
330
22
100
AcDbEntity
  8
_0-2_メッセン
  6
Continuous
 62
     6
100
AcDbCircle
 10
17707.20828604401
 20
15406.39678074498
 30
0.0
 40
56.42372208672602
100
AcDbArc
 50
68.79777526855466
 51
146.4144744873047
  0
CIRCLE
  5
625
330
22
100
AcDbEntity
  8
_0-2_メッセン
  6
Continuous
 62
     6
100
AcDbCircle
 10
17571.41207418273
 20
15483.60790300004
 30
0.0
 40
50.00000064437454
  0
ARC
  5
626
330
22
100
AcDbEntity
  8
_0-2_メッセン
  6
Continuous
 62
     6
100
AcDbCircle
 10
26873.97530330541
 20
15320.00935266748
 30
0.0
 40
56.42372208672602
100
AcDbArc
 50
338.815200805664
 51
56.41969299316406
  0
ARC
  5
627
330
22
100
AcDbEntity
  8
_0-2_メッセン
  6
Continuous
 62
     6
100
AcDbCircle
 10
26879.57981528811
 20
15330.83237050954
 30
0.0
 40
56.42372208672602
100
AcDbArc
 50
248.8072662353516
 51
326.4144744873047
  0
ARC
  5
628
330
22
100
AcDbEntity
  8
_0-2_メッセン
  6
Continuous
 62
     6
100
AcDbCircle
 10
26712.81527242493
 20
15417.21979858704
 30
0.0
 40
56.42372208672602
100
AcDbArc
 50
158.815200805664
 51
236.4174194335937
  0
ARC
  5
629
330
22
100
AcDbEntity
  8
_0-2_メッセン
  6
Continuous
 62
     6
100
AcDbCircle
 10
26707.20828604401
 20
15406.39678074498
 30
0.0
 40
56.42372208672602
100
AcDbArc
 50
68.79777526855466
 51
146.4144744873047
  0
CIRCLE
  5
62A
330
22
100
AcDbEntity
  8
_0-2_メッセン
  6
Continuous
 62
     6
100
AcDbCircle
 10
26571.41083698362
 20
15483.60790300004
 30
0.0
 40
50.00000064437454
  0
CIRCLE
  5
62B
330
22
100
AcDbEntity
  8
_0-3_寸法
  6
Continuous
 62
     4
100
AcDbCircle
 10
8752.915370081174
 20
20315.08200099942
 30
0.0
 40
300.0000038662473
  0
CIRCLE
  5
62C
330
22
100
AcDbEntity
  8
_0-3_寸法
  6
Continuous
 62
     4
100
AcDbCircle
 10
8731.095507921656
 20
17451.69352707627
 30
0.0
 40
300.0000038662473
  0
CIRCLE
  5
62D
330
22
100
AcDbEntity
  8
_0-3_寸法
  6
Continuous
 62
     4
100
AcDbCircle
 10
8723.288162917956
 20
15556.74740297365
 30
0.0
 40
300.0000038662473
  0
TEXT
  5
62E
330
22
100
AcDbEntity
  8
_0-3_寸法
 62
     4
100
AcDbText
 10
5702.915205121295
 20
13502.57849560192
 30
0.0
 40
250.0
  1
1,600
 50
90.0
100
AcDbText
  0
TEXT
  5
62F
330
22
100
AcDbEntity
  8
_0-3_寸法
 62
     4
100
AcDbText
 10
5202.916029920701
 20
17202.57956784115
 30
0.0
 40
250.0
  1
5,000
 50
90.0
100
AcDbText
  0
TEXT
  5
630
330
22
100
AcDbEntity
  8
_0-3_寸法
 62
     4
100
AcDbText
 10
5202.916029920701
 20
13702.57915544145
 30
0.0
 40
250.0
  1
2,000
 50
90.0
100
AcDbText
  0
TEXT
  5
631
330
22
100
AcDbEntity
  8
_0-3_寸法
 62
     4
100
AcDbText
 10
4702.914380321883
 20
16202.57874304174
 30
0.0
 40
250.0
  1
7,000
 50
90.0
100
AcDbText
  0
TEXT
  5
632
330
22
100
AcDbEntity
  8
_0-3_寸法
 62
     4
100
AcDbText
 10
5699.799937754317
 20
15056.93112704195
 30
0.0
 40
250.0
  1
50
 50
90.0
100
AcDbText
  0
TEXT
  5
633
330
22
100
AcDbEntity
  8
_0-3_寸法
 62
     4
100
AcDbText
 10
5702.915205121295
 20
14607.37152868627
 30
0.0
 40
250.0
  1
400
 50
90.0
100
AcDbText
  0
TEXT
  5
634
330
22
100
AcDbEntity
  8
_0-3_寸法
 62
     4
100
AcDbText
 10
5702.915205121295
 20
19647.58276806286
 30
0.0
 40
250.0
  1
200
 50
90.0
100
AcDbText
  0
TEXT
  5
635
330
22
100
AcDbEntity
  8
_0-3_寸法
 62
     4
100
AcDbText
 10
5702.915205121295
 20
18207.58362585425
 30
0.0
 40
250.0
  1
2,350
 50
90.0
100
AcDbText
  0
TEXT
  5
636
330
22
100
AcDbEntity
  8
_0-3_寸法
 62
     4
100
AcDbText
 10
5702.915205121295
 20
15937.58059059242
 30
0.0
 40
250.0
  1
2,400
 50
90.0
100
AcDbText
  0
TEXT
  5
637
330
22
100
AcDbEntity
  8
_0-1_ＧＬ
 62
     4
100
AcDbText
 10
6937.654663360049
 20
15271.21174524561
 30
0.0
 40
250.0
  1
ＧＬ
100
AcDbText
  0
TEXT
  5
638
330
22
100
AcDbEntity
  8
_0-6_仕上
 62
     7
100
AcDbText
 10
30367.21648455014
 20
21025.88258429756
 30
0.0
 40
300.0
  1
NET
100
AcDbText
  0
TEXT
  5
639
330
22
100
AcDbEntity
  8
_0-6_仕上
 62
     7
100
AcDbText
 10
10383.00180493522
 20
13870.20375788813
 30
0.0
 40
300.0
  1
ﾈｶｾ
100
AcDbText
  0
TEXT
  5
63A
330
22
100
AcDbEntity
  8
_0-6_仕上
 62
     7
100
AcDbText
 10
36878.60094334976
 20
20523.73315703826
 30
0.0
 40
300.0
  1
ﾊﾞﾝﾄﾞ
100
AcDbText
  0
TEXT
  5
63B
330
22
100
AcDbEntity
  8
_0-6_仕上
 62
     7
100
AcDbText
 10
36928.5961595132
 20
18288.73172188729
 30
0.0
 40
300.0
  1
ﾊﾞﾝﾄﾞ
100
AcDbText
  0
TEXT
  5
63C
330
22
100
AcDbEntity
  8
_0-6_仕上
 62
     7
100
AcDbText
 10
36978.60127326952
 20
16018.72868662547
 30
0.0
 40
300.0
  1
ﾊﾞﾝﾄﾞ
100
AcDbText
  0
TEXT
  5
63D
330
22
100
AcDbEntity
  8
_0-6_仕上
 62
     7
100
AcDbText
 10
10395.13363509912
 20
20535.04610572914
 30
0.0
 40
300.0
  1
ｼﾞｮｲﾝﾄﾋﾞｰﾑ
100
AcDbText
  0
TEXT
  5
63E
330
22
100
AcDbEntity
  8
_0-3_寸法
 62
     7
100
AcDbText
 10
8602.915370086277
 20
20165.07903172052
 30
0.0
 40
300.0
  1
Ａ
 50
0.0004725756404722
100
AcDbText
  0
TEXT
  5
63F
330
22
100
AcDbEntity
  8
_0-3_寸法
 62
     7
100
AcDbText
 10
8581.095507921656
 20
17301.69303219662
 30
0.0
 40
300.0
  1
Ｂ
100
AcDbText
  0
TEXT
  5
640
330
22
100
AcDbEntity
  8
_0-3_寸法
 62
     7
100
AcDbText
 10
8573.288162917956
 20
15406.746908094
 30
0.0
 40
300.0
  1
Ｃ
100
AcDbText
  0
POINT
  5
641
330
22
100
AcDbEntity
  8
_0-3_寸法
 62
     4
100
AcDbPoint
 10
9252.914545281766
 20
10515.07812444218
 30
0.0
  0
POINT
  5
642
330
22
100
AcDbEntity
  8
_0-3_寸法
 62
     4
100
AcDbPoint
 10
18252.91454528176
 20
10515.07812444218
 30
0.0
  0
POINT
  5
643
330
22
100
AcDbEntity
  8
_0-3_寸法
 62
     4
100
AcDbPoint
 10
27252.91701967999
 20
10515.07812444218
 30
0.0
  0
POINT
  5
644
330
22
100
AcDbEntity
  8
_0-3_寸法
 62
     4
100
AcDbPoint
 10
5752.915370081176
 20
20015.07977404101
 30
0.0
  0
POINT
  5
645
330
22
100
AcDbEntity
  8
_0-3_寸法
 62
     4
100
AcDbPoint
 10
5752.915370081176
 20
19655.0845248856
 30
0.0
  0
POINT
  5
646
330
22
100
AcDbEntity
  8
_0-3_寸法
 62
     4
100
AcDbPoint
 10
5752.915370081176
 20
17385.08272682289
 30
0.0
  0
POINT
  5
647
330
22
100
AcDbEntity
  8
_0-3_寸法
 62
     4
100
AcDbPoint
 10
5752.915370081176
 20
15115.07845436195
 30
0.0
  0
POINT
  5
648
330
22
100
AcDbEntity
  8
_0-3_寸法
 62
     4
100
AcDbPoint
 10
5752.915370081176
 20
15015.0793616413
 30
0.0
  0
POINT
  5
649
330
22
100
AcDbEntity
  8
_0-3_寸法
 62
     4
100
AcDbPoint
 10
5752.915370081176
 20
14615.07927916136
 30
0.0
  0
POINT
  5
64A
330
22
100
AcDbEntity
  8
_0-3_寸法
 62
     4
100
AcDbPoint
 10
5752.915370081176
 20
13015.0789492416
 30
0.0
  0
POINT
  5
64B
330
22
100
AcDbEntity
  8
_0-3_寸法
 62
     4
100
AcDbPoint
 10
5252.916194880583
 20
20015.07977404101
 30
0.0
  0
POINT
  5
64C
330
22
100
AcDbEntity
  8
_0-3_寸法
 62
     4
100
AcDbPoint
 10
5252.916194880583
 20
15015.0793616413
 30
0.0
  0
POINT
  5
64D
330
22
100
AcDbEntity
  8
_0-3_寸法
 62
     4
100
AcDbPoint
 10
5252.916194880583
 20
13015.0789492416
 30
0.0
  0
POINT
  5
64E
330
22
100
AcDbEntity
  8
_0-3_寸法
 62
     4
100
AcDbPoint
 10
4752.914545281766
 20
20015.07977404101
 30
0.0
  0
POINT
  5
64F
330
22
100
AcDbEntity
  8
_0-3_寸法
 62
     4
100
AcDbPoint
 10
4752.914545281766
 20
13015.0789492416
 30
0.0
  0
TEXT
  5
650
330
22
100
AcDbEntity
  8
_0-6_仕上
 62
     7
100
AcDbText
 10
8568.603523217175
 20
17905.67240066421
 30
0.0
 40
300.0
  1
PC　POLE
 50
90.0
100
AcDbText
  0
LINE
  5
651
330
22
100
AcDbEntity
  8
_0-6_仕上
  6
Continuous
 62
     4
100
AcDbLine
 10
30111.58186738903
 20
20915.52937219874
 30
0.0
 11
30111.58186738903
 21
19740.24038805063
 31
0.0
  0
LINE
  5
652
330
22
100
AcDbEntity
  8
_0-6_仕上
  6
Continuous
 62
     4
100
AcDbLine
 10
30111.58186738903
 20
19740.24038805063
 30
0.0
 11
30293.98708144097
 21
19740.24038805063
 31
0.0
  0
TEXT
  5
653
330
22
100
AcDbEntity
  8
_0-6_仕上
 62
     7
100
AcDbText
 10
30350.11121705119
 20
20578.77861998168
 30
0.0
 40
300.0
  1
ｸﾚﾓﾅ250D/80本×37.5㎜目
100
AcDbText
  0
TEXT
  5
654
330
22
100
AcDbEntity
  8
_0-6_仕上
 62
     7
100
AcDbText
 10
30156.07019961157
 20
20165.86761922167
 30
0.0
 40
300.0
  1
（KRP-40 1000D/18本×40㎜目 ｴｺﾛﾈｯﾄ）
100
AcDbText
  0
TEXT
  5
655
330
22
100
AcDbEntity
  8
_0-6_仕上
 62
     7
100
AcDbText
 10
30168.05071460742
 20
19770.51062435877
 30
0.0
 40
300.0
  1
（KSP-24 37.5㎜目 ｽｰﾊﾟｰﾎﾟﾘｴﾁﾚﾝ）
100
AcDbText
  0
TEXT
  5
656
330
22
100
AcDbEntity
  8
_0-3_寸法
 62
     4
100
AcDbText
 10
13127.55451005048
 20
10104.73640597479
 30
0.0
 40
250.0
  1
（11,000）
100
AcDbText
  0
TEXT
  5
657
330
22
100
AcDbEntity
  8
_0-3_寸法
 62
     4
100
AcDbText
 10
22408.80141007824
 20
10104.73640597479
 30
0.0
 40
250.0
  1
（11,000）
100
AcDbText
  0
TEXT
  5
658
330
22
100
AcDbEntity
  8
_0-3_寸法
 62
     4
100
AcDbText
 10
13466.56302807159
 20
10565.07828940207
 30
0.0
 40
250.0
  1
8,000
100
AcDbText
  0
TEXT
  5
659
330
22
100
AcDbEntity
  8
_0-3_寸法
 62
     4
100
AcDbText
 10
22747.80992809934
 20
10565.07828940207
 30
0.0
 40
250.0
  1
8,000
100
AcDbText
  0
TEXT
  5
65A
330
22
100
AcDbEntity
  8
_0-6_仕上
 62
     7
100
AcDbText
 10
12663.54860157927
 20
19043.74732709211
 30
0.0
 40
300.0
  1
ﾌﾞﾚｰｽﾜｲﾔｰ　55m㎡
100
AcDbText
  0
TEXT
  5
65B
330
22
100
AcDbEntity
  8
_0-6_仕上
 62
     7
100
AcDbText
 10
18873.16064892936
 20
18410.4461334424
 30
0.0
 40
300.0
  1
縦ﾜｲﾔｰ 38m㎡
100
AcDbText
  0
TEXT
  5
65C
330
22
100
AcDbEntity
  8
_0-B_
 62
     7
100
AcDbText
 10
6490.042940080454
 20
5423.219204819478
 30
0.0
 40
300.0
  1
基準風速・・・３４ｍ／ｓｅｃ
100
AcDbText
  0
TEXT
  5
65D
330
22
100
AcDbEntity
  8
_0-B_
 62
     7
100
AcDbText
 10
6490.042940080454
 20
4923.219204819478
 30
0.0
 40
300.0
  1
地表面粗度区分・・・Ⅲ
100
AcDbText
  0
TEXT
  5
65E
330
22
100
AcDbEntity
  8
_0-B_
 62
     7
100
AcDbText
 10
6490.042940080454
 20
4423.219204819477
 30
0.0
 40
300.0
  1
基礎　普通土質（Ｂ）を選定
100
AcDbText
  0
TEXT
  5
65F
330
22
100
AcDbEntity
  8
_0-B_
 62
     7
100
AcDbText
 10
5990.042940080454
 20
6423.219204819478
 30
0.0
 40
300.0
  1
・設計荷重　建築基準法・同施工令
100
AcDbText
  0
TEXT
  5
660
330
22
100
AcDbEntity
  8
_0-B_
 62
     7
100
AcDbText
 10
6246.959449170959
 20
5923.219204819478
 30
0.0
 40
300.0
  1
（平成１２年６月）に基づく風圧力による。
100
AcDbText
  0
TEXT
  5
661
330
22
100
AcDbEntity
  8
_0-6_仕上
 62
     7
100
AcDbText
 10
8977.080180174253
 20
17885.35882842498
 30
0.0
 40
300.0
  1
7-19-500
 50
90.0
100
AcDbText
  0
LINE
  5
662
330
22
100
AcDbEntity
  8
_0-6_仕上
  6
Continuous
 62
     4
100
AcDbLine
 10
20920.56209563672
 20
19674.89950588222
 30
0.0
 11
21320.56341531577
 21
20367.71740007036
 31
0.0
  0
LINE
  5
663
330
22
100
AcDbEntity
  8
_0-6_仕上
  6
Continuous
 62
     4
100
AcDbLine
 10
20920.56209563672
 20
19674.89950588222
 30
0.0
 11
20920.56209563672
 21
19774.89983580199
 31
0.0
  0
LINE
  5
664
330
22
100
AcDbEntity
  8
_0-6_仕上
  6
Continuous
 62
     4
100
AcDbLine
 10
21320.56341531577
 20
20367.71740007036
 30
0.0
 11
21520.5640751553
 21
20367.71740007036
 31
0.0
  0
LINE
  5
665
330
22
100
AcDbEntity
  8
_0-6_仕上
  6
Continuous
 62
     4
100
AcDbLine
 10
20920.56209563672
 20
17386.13805766643
 30
0.0
 11
21320.56341531577
 21
18078.95471465545
 31
0.0
  0
LINE
  5
666
330
22
100
AcDbEntity
  8
_0-6_仕上
  6
Continuous
 62
     4
100
AcDbLine
 10
20920.56209563672
 20
17386.13805766643
 30
0.0
 11
20920.56209563672
 21
17486.13838758619
 31
0.0
  0
LINE
  5
667
330
22
100
AcDbEntity
  8
_0-6_仕上
  6
Continuous
 62
     4
100
AcDbLine
 10
21320.56341531577
 20
18078.95471465545
 30
0.0
 11
21520.5640751553
 21
18078.95471465545
 31
0.0
  0
LINE
  5
668
330
22
100
AcDbEntity
  8
_0-6_仕上
  6
Continuous
 62
     4
100
AcDbLine
 10
20920.56209563672
 20
15136.39415788286
 30
0.0
 11
21320.56341531577
 21
15829.21081487188
 31
0.0
  0
LINE
  5
669
330
22
100
AcDbEntity
  8
_0-6_仕上
  6
Continuous
 62
     4
100
AcDbLine
 10
20920.56209563672
 20
15136.39415788286
 30
0.0
 11
20920.56209563672
 21
15236.39448780262
 31
0.0
  0
LINE
  5
66A
330
22
100
AcDbEntity
  8
_0-6_仕上
  6
Continuous
 62
     4
100
AcDbLine
 10
21320.56341531577
 20
15829.21081487188
 30
0.0
 11
21520.5640751553
 21
15829.21081487188
 31
0.0
  0
TEXT
  5
66B
330
22
100
AcDbEntity
  8
_0-6_仕上
 62
     7
100
AcDbText
 10
21551.65472390952
 20
20255.2757958685
 30
0.0
 40
300.0
  1
横ﾜｲﾔｰ 38m㎡
100
AcDbText
  0
TEXT
  5
66C
330
22
100
AcDbEntity
  8
_0-6_仕上
 62
     7
100
AcDbText
 10
21551.65472390952
 20
17878.06384184226
 30
0.0
 40
300.0
  1
横ﾜｲﾔｰ 38m㎡
100
AcDbText
  0
TEXT
  5
66D
330
22
100
AcDbEntity
  8
_0-6_仕上
 62
     7
100
AcDbText
 10
21551.65472390952
 20
15714.63959883075
 30
0.0
 40
300.0
  1
横ﾜｲﾔｰ 38m㎡
100
AcDbText
  0
TEXT
  5
66E
330
22
100
AcDbEntity
  8
_0-6_仕上
 62
     7
100
AcDbText
 10
24320.64320283356
 20
20409.06459443269
 30
0.0
 40
300.0
  1
ポリロープ4φにてかがりどめ
100
AcDbText
  0
LINE
  5
66F
330
22
100
AcDbEntity
  8
_0-6_仕上
  6
Continuous
 62
     4
100
AcDbLine
 10
23834.62388273221
 20
19666.55212346563
 30
0.0
 11
24234.62272801304
 21
20359.3737292511
 31
0.0
  0
LINE
  5
670
330
22
100
AcDbEntity
  8
_0-6_仕上
  6
Continuous
 62
     4
100
AcDbLine
 10
23834.62388273221
 20
19666.55212346563
 30
0.0
 11
23834.62388273221
 21
19766.55121618628
 31
0.0
  0
LINE
  5
671
330
22
100
AcDbEntity
  8
_0-6_仕上
  6
Continuous
 62
     4
100
AcDbLine
 10
24234.62272801304
 20
20359.3737292511
 30
0.0
 11
29076.354662632
 21
20359.3737292511
 31
0.0
  0
TEXT
  5
672
330
22
100
AcDbEntity
  8
_0-6_仕上
 62
     7
100
AcDbText
 10
18901.83290333709
 20
19105.94751250701
 30
0.0
 40
300.0
  1
ﾎﾟﾘﾛｰﾌﾟ6φ押え
100
AcDbText
  0
ENDSEC
  0
SECTION
  2
OBJECTS
  0
DICTIONARY
  5
C
330
0
100
AcDbDictionary
281
     1
  3
ACAD_COLOR
350
1B
  3
ACAD_GROUP
350
D
  3
ACAD_LAYOUT
350
19
  3
ACAD_MATERIAL
350
1A
  3
ACAD_MLINESTYLE
350
16
  3
ACAD_PLOTSETTINGS
350
18
  3
ACAD_PLOTSTYLENAME
350
E
  3
ACAD_TABLESTYLE
350
1C
  3
ACDBHEADERROUNDTRIPXREC
350
963
  3
AcDbVariableDictionary
350
95E
  3
ADE_QUERY_LIBRARY
350
95C
  3
AEC_VARS
350
69A
  3
ASE_INDEX_DICTIONARY
350
958
  3
Autodesk_MAP
350
69C
  3
Root
350
675
1001
ADE
1000
ADE02C004
1000
[Query]
1000
CaseSensitiveMatch=0
1000
SaveCurrQueryInSession=1
1000
MkSelSetWithQryObj=0
1000
ShowBlockAsInsPt=0
1000
CreateAssociativeHatchObjects=0
1000
ReferenceBoundaryForAreaLocation=1
1000
ShowImageAsBoundary=1
1000
DefaultJoinOperator=2
1000
ColorForAdd=red
1000
ColorForRemove=red
1000
BlockLocnForQuery=1
1000
TextLocnForQuery=1
1000
IncludeAllObjectsInGroups=0
1000
AlwaysUseLibraryDefinitions=0
1000
PreviewDefinitionsFrom=2
1000
[Save Back]
1000
RedefineBlockDefinitions=1
1000
RedefineLayerDefinitions=1
1000
RedefineTextStyleDefinitions=1
1000
RemoveUnusedGroups=1
1000
EraseSavedBackObjects=1
1000
RemoveLockAfterSave=1
1000
CreateHistoryFileOfChanges=0
1000
CreateBackupFileOfSourceDwg=1
1000
DontAddObjectsToSaveSet=0
1000
MarkObjectsForEditingWithoutPrompting=0
1000
[Coordinate Transformation]
1000
RestoreLastActiveDwgsOnStartup=1
1000
ActivateDwgsOnAttach=1
1000
AdjustSizesAndScalesForChangesInUnits=1
1000
AdjustRotationsForMapDistortions=1
1000
AdjustSizesAndScalesForMapDistortions=1
1000
AdjustElevations=1
1000
AdjustZeroRotationObjects=1
1000
ReconnectDbOnWSOpen=1
1000
NoOfSQLConditionsInHistory=10
  0
DICTIONARY
  5
1B
102
{ACAD_REACTORS
330
C
102
}
330
C
100
AcDbDictionary
281
     1
  0
DICTIONARY
  5
D
102
{ACAD_REACTORS
330
C
102
}
330
C
100
AcDbDictionary
281
     1
  0
DICTIONARY
  5
19
102
{ACAD_REACTORS
330
C
102
}
330
C
100
AcDbDictionary
281
     1
  3
Model
350
25
  3
レイアウト1
350
21
  0
DICTIONARY
  5
1A
102
{ACAD_REACTORS
330
C
102
}
330
C
100
AcDbDictionary
281
     1
  0
DICTIONARY
  5
16
102
{ACAD_REACTORS
330
C
102
}
330
C
100
AcDbDictionary
281
     1
  3
Standard
350
17
  0
DICTIONARY
  5
18
102
{ACAD_REACTORS
330
C
102
}
330
C
100
AcDbDictionary
281
     1
  0
ACDBDICTIONARYWDFLT
  5
E
102
{ACAD_REACTORS
330
C
102
}
330
C
100
AcDbDictionary
281
     1
  3
Normal
350
F
100
AcDbDictionaryWithDefault
340
F
  0
DICTIONARY
  5
1C
102
{ACAD_REACTORS
330
C
102
}
330
C
100
AcDbDictionary
281
     1
  3
Legend
350
6A0
  3
Standard
350
1D
  0
DICTIONARY
  5
963
102
{ACAD_REACTORS
330
C
102
}
330
C
100
AcDbDictionary
281
     1
  0
DICTIONARY
  5
95E
102
{ACAD_REACTORS
330
C
102
}
330
C
100
AcDbDictionary
281
     1
  3
CTABLESTYLE
350
95F
  3
DIMASSOC
350
960
  3
PROJECTNAME
350
961
  0
DICTIONARY
  5
95C
102
{ACAD_REACTORS
330
C
102
}
330
C
100
AcDbDictionary
281
     1
  3
_CurrQry
350
95D
  0
DICTIONARY
  5
69A
102
{ACAD_REACTORS
330
C
102
}
330
C
100
AcDbDictionary
281
     1
  3
AEC_VARS_DWG_SETUP
350
69B
  0
DICTIONARY
  5
958
102
{ACAD_REACTORS
330
C
102
}
330
C
100
AcDbDictionary
281
     1
  3
ASEBlockHierarchyIndexRecord
350
95A
1001
DCO15
1040
1621943167.015
  0
DICTIONARY
  5
69C
102
{ACAD_REACTORS
330
C
102
}
330
C
100
AcDbDictionary
281
     1
  3
MAP_DISPLAY_MANAGEMENT_DICTIONARY
350
69D
  3
MAP_DISPLAY_STYLELIBRARY_DICTIONARY
350
69E
  0
LAYOUT
  5
25
102
{ACAD_XDICTIONARY
360
966
102
}
102
{ACAD_REACTORS
330
19
102
}
330
19
100
AcDbPlotSettings
  1

  2
DCColor a450_newosk
  4

  6

 40
0.0
 41
0.0
 42
0.0
 43
0.0
 44
0.0
 45
0.0
 46
0.0
 47
0.0
 48
0.0
 49
0.0
140
0.0
141
0.0
142
1.0
143
1.0
 70
  1712
 72
     0
 73
     0
 74
     0
  7

 75
     0
147
1.0
148
0.0
149
0.0
100
AcDbLayout
  1
Model
 70
     1
 71
     0
 10
0.0
 20
0.0
 11
12.0
 21
9.0
 12
0.0
 22
0.0
 32
0.0
 14
0.0
 24
0.0
 34
0.0
 15
0.0
 25
0.0
 35
0.0
146
0.0
 13
0.0
 23
0.0
 33
0.0
 16
1.0
 26
0.0
 36
0.0
 17
0.0
 27
1.0
 37
0.0
 76
     0
330
22
  0
LAYOUT
  5
21
102
{ACAD_XDICTIONARY
360
964
102
}
102
{ACAD_REACTORS
330
19
102
}
330
19
100
AcDbPlotSettings
  1

  2
DCColor a450_newosk
  4

  6

 40
0.0
 41
0.0
 42
0.0
 43
0.0
 44
0.0
 45
0.0
 46
0.0
 47
0.0
 48
0.0
 49
0.0
140
0.0
141
0.0
142
1.0
143
1.0
 70
   688
 72
     0
 73
     0
 74
     5
  7

 75
    16
147
1.0
148
0.0
149
0.0
100
AcDbLayout
  1
レイアウト1
 70
     1
 71
     1
 10
0.0
 20
0.0
 11
12.0
 21
9.0
 12
0.0
 22
0.0
 32
0.0
 14
1.000000000000000E+20
 24
1.000000000000000E+20
 34
1.000000000000000E+20
 15
-1.000000000000000E+20
 25
-1.000000000000000E+20
 35
-1.000000000000000E+20
146
0.0
 13
0.0
 23
0.0
 33
0.0
 16
1.0
 26
0.0
 36
0.0
 17
0.0
 27
1.0
 37
0.0
 76
     0
330
1E
  0
MLINESTYLE
  5
17
102
{ACAD_REACTORS
330
16
102
}
330
16
100
AcDbMlineStyle
  2
STANDARD
 70
     0
  3

 62
   256
 51
90.0
 52
90.0
 71
     2
 49
0.5
 62
   256
  6
BYLAYER
 49
-0.5
 62
   256
  6
BYLAYER
  0
ACDBPLACEHOLDER
  5
F
102
{ACAD_REACTORS
330
E
102
}
330
E
  0
TABLESTYLE
  5
6A0
102
{ACAD_REACTORS
330
1C
102
}
330
1C
100
AcDbTableStyle
  3

 70
     0
 71
     1
 40
0.06
 41
0.06
280
     0
281
     0
  7
STANDARD
140
0.4
170
     4
 62
     0
 63
     7
283
     0
274
    -2
284
     0
 64
     0
275
    -2
285
     0
 65
     0
276
    -2
286
     1
 66
     0
277
    -2
287
     1
 67
     0
278
    -2
288
     0
 68
     0
279
    -2
289
     1
 69
     0
  7
STANDARD
140
0.5
170
     5
 62
     0
 63
     7
283
     0
274
    -2
284
     1
 64
     0
275
    -2
285
     0
 65
     0
276
    -2
286
     1
 66
     0
277
    -2
287
     1
 67
     0
278
    -2
288
     0
 68
     0
279
    -2
289
     1
 69
     0
  7
STANDARD
140
0.4
170
     4
 62
     0
 63
     7
283
     0
274
    -2
284
     1
 64
     0
275
    -2
285
     0
 65
     0
276
    -2
286
     1
 66
     0
277
    -2
287
     1
 67
     0
278
    -2
288
     0
 68
     0
279
    -2
289
     1
 69
     0
  0
TABLESTYLE
  5
1D
102
{ACAD_REACTORS
330
1C
102
}
330
1C
100
AcDbTableStyle
  3
Standard
 70
     0
 71
     0
 40
0.06
 41
0.06
280
     0
281
     0
  7
STANDARD
140
0.18
170
     2
 62
     0
 63
     7
283
     0
274
    -2
284
     1
 64
     0
275
    -2
285
     1
 65
     0
276
    -2
286
     1
 66
     0
277
    -2
287
     1
 67
     0
278
    -2
288
     1
 68
     0
279
    -2
289
     1
 69
     0
  7
STANDARD
140
0.25
170
     5
 62
     0
 63
     7
283
     0
274
    -2
284
     1
 64
     0
275
    -2
285
     1
 65
     0
276
    -2
286
     1
 66
     0
277
    -2
287
     1
 67
     0
278
    -2
288
     1
 68
     0
279
    -2
289
     1
 69
     0
  7
STANDARD
140
0.18
170
     5
 62
     0
 63
     7
283
     0
274
    -2
284
     1
 64
     0
275
    -2
285
     1
 65
     0
276
    -2
286
     1
 66
     0
277
    -2
287
     1
 67
     0
278
    -2
288
     1
 68
     0
279
    -2
289
     1
 69
     0
  0
DICTIONARYVAR
  5
95F
102
{ACAD_REACTORS
330
95E
102
}
330
95E
100
DictionaryVariables
280
     0
  1
STANDARD
  0
DICTIONARYVAR
  5
960
102
{ACAD_REACTORS
330
95E
102
}
330
95E
100
DictionaryVariables
280
     0
  1
1
  0
DICTIONARYVAR
  5
961
102
{ACAD_REACTORS
330
95E
102
}
330
95E
100
DictionaryVariables
280
     0
  1

  0
XRECORD
  5
95D
102
{ACAD_REACTORS
330
95C
102
}
330
95C
100
AcDbXrecord
280
     1
1000
ADE02C001
1070
     1
1070
     0
1002
{
1002
}
1002
{
1002
}
1002
{
1002
}
1000

  0
XRECORD
  5
95A
102
{ACAD_REACTORS
330
958
102
}
330
958
100
AcDbXrecord
280
     1
  0
DMMAPMANAGER
  5
69D
102
{ACAD_REACTORS
330
69C
102
}
330
69C
100
AcDbDictionary
281
     1
  3
DisplayMap1
350
69F
100
AcDbDictionaryWithDefault
340
69F
100
AcMapDMMapManager
 70
     1
340
69F
  0
DMSTYLELIBRARY
  5
69E
102
{ACAD_REACTORS
330
69C
102
}
330
69C
100
AcMapDMStyleLibrary
 70
     1
 70
     1
360
6A4
  0
DICTIONARY
  5
966
330
25
100
AcDbDictionary
280
     1
281
     1
  3
ACAD_XREC_ROUNDTRIP
360
967
  0
DICTIONARY
  5
964
330
21
100
AcDbDictionary
280
     1
281
     1
  3
ACAD_XREC_ROUNDTRIP
360
965
  0
DMMAP
  5
69F
102
{ACAD_REACTORS
330
69D
330
6A1
102
}
330
69D
100
AcMapDMMap
 70
     1
  1
既定値
 70
     1
330
0
100
AcMapDMMap
 70
     1
 90
        1
360
6A1
 90
        1
 40
1.797693134862314E+99
 70
     1
100
AcMapDMMap
 70
     2
 70
     0
 40
1.797693134862314E+99
290
     0
290
     1
 40
1.0
 40
3.0
  1
Legend
 90
        1
 40
1.797693134862314E+99
  1

 70
     0
 40
100.0
 70
     1
 90
        0
 90
        1
360
6A2
  0
DMSTYLECATEGORY
  5
6A4
102
{ACAD_REACTORS
330
69E
102
}
330
69E
100
AcMapDMStyleCategory
 70
     1
  1
スタイルを表示
 70
     0
  0
XRECORD
  5
967
102
{ACAD_REACTORS
330
966
102
}
330
966
100
AcDbXrecord
280
     1
102
SHADEPLOT
 70
     0
102
SHADEPLOTRESLEVEL
 70
     2
102
SHADEPLOTCUSTOMDPI
 70
   300
  0
XRECORD
  5
965
102
{ACAD_REACTORS
330
964
102
}
330
964
100
AcDbXrecord
280
     1
102
SHADEPLOT
 70
     0
102
SHADEPLOTRESLEVEL
 70
     2
102
SHADEPLOTCUSTOMDPI
 70
   300
  0
DMBASEELEMENT
  5
6A1
102
{ACAD_REACTORS
330
69F
102
}
330
69F
100
AcMapDMBaseElement
 70
     1
  1
マップ ベース
 70
     1
330
69F
100
AcMapDMBaseElement
 70
     1
  1

 70
     2
  1

 70
     1
 40
1.797693134862314E+99
 70
     1
 70
     1
 70
     1
 70
     1
360
6A3
100
AcMapDMBaseElement
 70
     1
  0
DMDEFAULTSTYLE
  5
6A2
102
{ACAD_REACTORS
330
69F
102
}
330
69F
100
AcMapDMDefaultStyle
 70
     1
 90
        1
  1
既定値
100
AcMapDMDefaultStyle
 70
     1
280
   100
 90
     0
  0
DMSTYLEREFERENCE
  5
6A3
330
6A1
100
AcMapDMStyleReference
 70
     1
 70
     0
340
6A2
330
69F
  0
ENDSEC
  0
EOF
