  0
SECTION
  2
HEADER
  9
$ACADVER
  1
AC1015
  9
$ACADMAINTVER
 70
    20
  9
$DWGCODEPAGE
  3
ANSI_932
  9
$INSBASE
 10
0.0
 20
0.0
 30
0.0
  9
$EXTMIN
 10
-3972.972972972974
 20
540.5399863784367
 30
0.0
  9
$EXTMAX
 10
38986.48483688767
 20
29756.75675675677
 30
0.0
  9
$LIMMIN
 10
0.0
 20
0.0
  9
$LIMMAX
 10
42000.0
 20
29700.0
  9
$ORTHOMODE
 70
     0
  9
$REGENMODE
 70
     1
  9
$FILLMODE
 70
     1
  9
$QTEXTMODE
 70
     0
  9
$MIRRTEXT
 70
     0
  9
$LTSCALE
 40
100.0
  9
$ATTMODE
 70
     1
  9
$TEXTSIZE
 40
0.2
  9
$TRACEWID
 40
0.05
  9
$TEXTSTYLE
  7
STANDARD
  9
$CLAYER
  8
0
  9
$CELTYPE
  6
CONTINUOUS
  9
$CECOLOR
 62
   256
  9
$CELTSCALE
 40
1.0
  9
$DISPSILH
 70
     0
  9
$DIMSCALE
 40
40.0
  9
$DIMASZ
 40
0.18
  9
$DIMEXO
 40
0.0625
  9
$DIMDLI
 40
0.38
  9
$DIMRND
 40
0.0
  9
$DIMDLE
 40
0.0
  9
$DIMEXE
 40
0.18
  9
$DIMTP
 40
0.0
  9
$DIMTM
 40
0.0
  9
$DIMTXT
 40
0.18
  9
$DIMCEN
 40
0.09
  9
$DIMTSZ
 40
0.0
  9
$DIMTOL
 70
     0
  9
$DIMLIM
 70
     0
  9
$DIMTIH
 70
     1
  9
$DIMTOH
 70
     1
  9
$DIMSE1
 70
     0
  9
$DIMSE2
 70
     0
  9
$DIMTAD
 70
     0
  9
$DIMZIN
 70
     0
  9
$DIMBLK
  1

  9
$DIMASO
 70
     1
  9
$DIMSHO
 70
     1
  9
$DIMPOST
  1

  9
$DIMAPOST
  1

  9
$DIMALT
 70
     0
  9
$DIMALTD
 70
     2
  9
$DIMALTF
 40
25.4
  9
$DIMLFAC
 40
1.0
  9
$DIMTOFL
 70
     0
  9
$DIMTVP
 40
0.0
  9
$DIMTIX
 70
     0
  9
$DIMSOXD
 70
     0
  9
$DIMSAH
 70
     0
  9
$DIMBLK1
  1

  9
$DIMBLK2
  1

  9
$DIMSTYLE
  2
Standard
  9
$DIMCLRD
 70
     0
  9
$DIMCLRE
 70
     0
  9
$DIMCLRT
 70
     0
  9
$DIMTFAC
 40
1.0
  9
$DIMGAP
 40
0.09
  9
$DIMJUST
 70
     0
  9
$DIMSD1
 70
     0
  9
$DIMSD2
 70
     0
  9
$DIMTOLJ
 70
     1
  9
$DIMTZIN
 70
     0
  9
$DIMALTZ
 70
     0
  9
$DIMALTTZ
 70
     0
  9
$DIMUPT
 70
     0
  9
$DIMDEC
 70
     4
  9
$DIMTDEC
 70
     4
  9
$DIMALTU
 70
     2
  9
$DIMALTTD
 70
     2
  9
$DIMTXSTY
  7
STANDARD
  9
$DIMAUNIT
 70
     0
  9
$DIMADEC
 70
     0
  9
$DIMALTRND
 40
0.0
  9
$DIMAZIN
 70
     0
  9
$DIMDSEP
 70
    46
  9
$DIMATFIT
 70
     3
  9
$DIMFRAC
 70
     0
  9
$DIMLDRBLK
  1

  9
$DIMLUNIT
 70
     2
  9
$DIMLWD
 70
    -2
  9
$DIMLWE
 70
    -2
  9
$DIMTMOVE
 70
     0
  9
$LUNITS
 70
     2
  9
$LUPREC
 70
     4
  9
$SKETCHINC
 40
0.1
  9
$FILLETRAD
 40
0.0
  9
$AUNITS
 70
     0
  9
$AUPREC
 70
     0
  9
$MENU
  1
.
  9
$ELEVATION
 40
0.0
  9
$PELEVATION
 40
0.0
  9
$THICKNESS
 40
0.0
  9
$LIMCHECK
 70
     0
  9
$CHAMFERA
 40
0.0
  9
$CHAMFERB
 40
0.0
  9
$CHAMFERC
 40
0.0
  9
$CHAMFERD
 40
0.0
  9
$SKPOLY
 70
     0
  9
$TDCREATE
 40
2454575.702275752
  9
$TDUCREATE
 40
2454575.327275752
  9
$TDUPDATE
 40
2454575.702887002
  9
$TDUUPDATE
 40
2454575.327887003
  9
$TDINDWG
 40
0.0006117940
  9
$TDUSRTIMER
 40
0.0006117940
  9
$USRTIMER
 70
     1
  9
$ANGBASE
 50
0.0
  9
$ANGDIR
 70
     0
  9
$PDMODE
 70
     0
  9
$PDSIZE
 40
0.0
  9
$PLINEWID
 40
0.0
  9
$SPLFRAME
 70
     0
  9
$SPLINETYPE
 70
     6
  9
$SPLINESEGS
 70
     8
  9
$HANDSEED
  5
66E
  9
$SURFTAB1
 70
     6
  9
$SURFTAB2
 70
     6
  9
$SURFTYPE
 70
     6
  9
$SURFU
 70
     6
  9
$SURFV
 70
     6
  9
$UCSBASE
  2

  9
$UCSNAME
  2

  9
$UCSORG
 10
0.0
 20
0.0
 30
0.0
  9
$UCSXDIR
 10
1.0
 20
0.0
 30
0.0
  9
$UCSYDIR
 10
0.0
 20
1.0
 30
0.0
  9
$UCSORTHOREF
  2

  9
$UCSORTHOVIEW
 70
     0
  9
$UCSORGTOP
 10
0.0
 20
0.0
 30
0.0
  9
$UCSORGBOTTOM
 10
0.0
 20
0.0
 30
0.0
  9
$UCSORGLEFT
 10
0.0
 20
0.0
 30
0.0
  9
$UCSORGRIGHT
 10
0.0
 20
0.0
 30
0.0
  9
$UCSORGFRONT
 10
0.0
 20
0.0
 30
0.0
  9
$UCSORGBACK
 10
0.0
 20
0.0
 30
0.0
  9
$PUCSBASE
  2

  9
$PUCSNAME
  2

  9
$PUCSORG
 10
0.0
 20
0.0
 30
0.0
  9
$PUCSXDIR
 10
1.0
 20
0.0
 30
0.0
  9
$PUCSYDIR
 10
0.0
 20
1.0
 30
0.0
  9
$PUCSORTHOREF
  2

  9
$PUCSORTHOVIEW
 70
     0
  9
$PUCSORGTOP
 10
0.0
 20
0.0
 30
0.0
  9
$PUCSORGBOTTOM
 10
0.0
 20
0.0
 30
0.0
  9
$PUCSORGLEFT
 10
0.0
 20
0.0
 30
0.0
  9
$PUCSORGRIGHT
 10
0.0
 20
0.0
 30
0.0
  9
$PUCSORGFRONT
 10
0.0
 20
0.0
 30
0.0
  9
$PUCSORGBACK
 10
0.0
 20
0.0
 30
0.0
  9
$USERI1
 70
     0
  9
$USERI2
 70
     0
  9
$USERI3
 70
     0
  9
$USERI4
 70
     0
  9
$USERI5
 70
     0
  9
$USERR1
 40
0.0
  9
$USERR2
 40
0.0
  9
$USERR3
 40
0.0
  9
$USERR4
 40
0.0
  9
$USERR5
 40
0.0
  9
$WORLDVIEW
 70
     1
  9
$SHADEDGE
 70
     3
  9
$SHADEDIF
 70
    70
  9
$TILEMODE
 70
     1
  9
$MAXACTVP
 70
    64
  9
$PINSBASE
 10
0.0
 20
0.0
 30
0.0
  9
$PLIMCHECK
 70
     0
  9
$PEXTMIN
 10
1.000000000000000E+20
 20
1.000000000000000E+20
 30
1.000000000000000E+20
  9
$PEXTMAX
 10
-1.000000000000000E+20
 20
-1.000000000000000E+20
 30
-1.000000000000000E+20
  9
$PLIMMIN
 10
0.0
 20
0.0
  9
$PLIMMAX
 10
12.0
 20
9.0
  9
$UNITMODE
 70
     0
  9
$VISRETAIN
 70
     1
  9
$PLINEGEN
 70
     0
  9
$PSLTSCALE
 70
     1
  9
$TREEDEPTH
 70
  3020
  9
$CMLSTYLE
  2
Standard
  9
$CMLJUST
 70
     0
  9
$CMLSCALE
 40
1.0
  9
$PROXYGRAPHICS
 70
     1
  9
$MEASUREMENT
 70
     0
  9
$CELWEIGHT
370
    -1
  9
$ENDCAPS
280
     0
  9
$JOINSTYLE
280
     0
  9
$LWDISPLAY
290
     0
  9
$INSUNITS
 70
     2
  9
$HYPERLINKBASE
  1

  9
$STYLESHEET
  1

  9
$XEDIT
290
     1
  9
$CEPSNTYPE
380
     0
  9
$PSTYLEMODE
290
     1
  9
$FINGERPRINTGUID
  2
{EA5C5FC4-0B13-49A6-985C-88572F983219}
  9
$VERSIONGUID
  2
{8AECC15C-D2D9-41A4-9ABC-F518BB3EADA4}
  9
$EXTNAMES
290
     1
  9
$PSVPSCALE
 40
0.0
  9
$OLESTARTUP
290
     0
  0
ENDSEC
  0
SECTION
  2
CLASSES
  0
CLASS
  1
ACDBDICTIONARYWDFLT
  2
AcDbDictionaryWithDefault
  3
ObjectDBX Classes
 90
        0
280
     0
281
     0
  0
CLASS
  1
TABLESTYLE
  2
AcDbTableStyle
  3
ObjectDBX Classes
 90
     2047
280
     0
281
     0
  0
CLASS
  1
AECC_TREE_NODE
  2
AeccDbTreeNode
  3
AeccvBase10|Product Desc: Autodesk Civil 3D |Company: Autodesk,Inc. |WEB Address: www.autodesk.com
 90
     1023
280
     0
281
     0
  0
CLASS
  1
AECC_CLASS_NODE
  2
AeccDbClassNode
  3
AeccLand10|Product Desc: Autodesk Civil 3D |Company: Autodesk,Inc. |WEB Address: www.autodesk.com
 90
     1023
280
     0
281
     0
  0
CLASS
  1
AECC_ROOT_SETTINGS_NODE
  2
AeccDbRootSettingsNode
  3
AeccvBase10|Product Desc: Autodesk Civil 3D |Company: Autodesk,Inc. |WEB Address: www.autodesk.com
 90
     1023
280
     0
281
     0
  0
CLASS
  1
AEC_VARS_DWG_SETUP
  2
AecDbVarsDwgSetup
  3
AecBase40|Product Desc: Autodesk Architectural Desktop 2005 |Company: Autodesk,Inc. |WEB Address: www.autodesk.com
 90
      129
280
     0
281
     0
  0
CLASS
  1
DMMAPMANAGER
  2
AcMapDMMapManager
  3
AcMapDisplayManagement
 90
     1024
280
     0
281
     0
  0
CLASS
  1
DMSTYLELIBRARY
  2
AcMapDMStyleLibrary
  3
AcMapDisplayManagement
 90
     1024
280
     0
281
     0
  0
CLASS
  1
DMMAP
  2
AcMapDMMap
  3
AcMapDisplayManagement
 90
     1024
280
     0
281
     0
  0
CLASS
  1
DMBASEELEMENT
  2
AcMapDMBaseElement
  3
AcMapDisplayManagement
 90
     1024
280
     0
281
     0
  0
CLASS
  1
DMDEFAULTSTYLE
  2
AcMapDMDefaultStyle
  3
AcMapDisplayManagement
 90
     1024
280
     0
281
     0
  0
CLASS
  1
DMSTYLEREFERENCE
  2
AcMapDMStyleReference
  3
AcMapDisplayManagement
 90
     1024
280
     0
281
     0
  0
CLASS
  1
DMSTYLECATEGORY
  2
AcMapDMStyleCategory
  3
AcMapDisplayManagement
 90
     1024
280
     0
281
     0
  0
CLASS
  1
AECC_SETTINGS_NODE
  2
AeccDbSettingsNode
  3
AeccvBase10|Product Desc: Autodesk Civil 3D |Company: Autodesk,Inc. |WEB Address: www.autodesk.com
 90
     1023
280
     0
281
     0
  0
CLASS
  1
AECC_PROFILE_VIEW_STYLE
  2
AeccDbGraphStyleProfile
  3
AeccLand10|Product Desc: Autodesk Civil 3D |Company: Autodesk,Inc. |WEB Address: www.autodesk.com
 90
      129
280
     0
281
     0
  0
CLASS
  1
AECC_PROFILE_VIEW_BAND_STYLE_SET
  2
AeccDbGraphProfileBandStyleSet
  3
AeccLand10|Product Desc: Autodesk Civil 3D |Company: Autodesk,Inc. |WEB Address: www.autodesk.com
 90
      129
280
     0
281
     0
  0
CLASS
  1
AECC_PROFILE_VIEW_DATA_BAND_STYLE
  2
AeccDbGraphStyleProfileDataBands
  3
AeccLand10|Product Desc: Autodesk Civil 3D |Company: Autodesk,Inc. |WEB Address: www.autodesk.com
 90
      129
280
     0
281
     0
  0
CLASS
  1
AECC_LABEL_NODE
  2
AeccDbLabelNode
  3
AeccLand10|Product Desc: Autodesk Civil 3D |Company: Autodesk,Inc. |WEB Address: www.autodesk.com
 90
     1023
280
     0
281
     0
  0
CLASS
  1
AECC_LABEL_COLLECTOR_STYLE
  2
AeccDbLabelStyleCollector
  3
AeccLand10|Product Desc: Autodesk Civil 3D |Company: Autodesk,Inc. |WEB Address: www.autodesk.com
 90
     1023
280
     0
281
     0
  0
CLASS
  1
AECC_LABEL_TEXT_STYLE
  2
AeccDbLabelStyleText
  3
AeccLand10|Product Desc: Autodesk Civil 3D |Company: Autodesk,Inc. |WEB Address: www.autodesk.com
 90
     1023
280
     0
281
     0
  0
CLASS
  1
AECC_PROFILE_VIEW_HORIZONTAL_GEOMETRY_BAND_STYLE
  2
AeccDbGraphStyleHorGeometryBands
  3
AeccLand10|Product Desc: Autodesk Civil 3D |Company: Autodesk,Inc. |WEB Address: www.autodesk.com
 90
      129
280
     0
281
     0
  0
CLASS
  1
AECC_PROFILE_VIEW_VERTICAL_GEOMETRY_BAND_STYLE
  2
AeccDbGraphStyleVertGeometryBands
  3
AeccLand10|Product Desc: Autodesk Civil 3D |Company: Autodesk,Inc. |WEB Address: www.autodesk.com
 90
      129
280
     0
281
     0
  0
CLASS
  1
AECC_LABEL_RADIAL_LINE_STYLE
  2
AeccDbLabelStyleRadialLine
  3
AeccLand10|Product Desc: Autodesk Civil 3D |Company: Autodesk,Inc. |WEB Address: www.autodesk.com
 90
     1023
280
     0
281
     0
  0
CLASS
  1
AECC_POINT_STYLE
  2
AeccDbPointStyle
  3
AeccLand10|Product Desc: Autodesk Civil 3D |Company: Autodesk,Inc. |WEB Address: www.autodesk.com
 90
      895
280
     0
281
     0
  0
CLASS
  1
AECC_PROFILE_LABEL_SET
  2
AeccDbVAlignStnLabelsDlgTemplate
  3
AeccLand10|Product Desc: Autodesk Civil 3D |Company: Autodesk,Inc. |WEB Address: www.autodesk.com
 90
     1023
280
     0
281
     0
  0
CLASS
  1
AECC_SECTION_VIEW_STYLE
  2
AeccDbGraphStyleCrossSection
  3
AeccLand10|Product Desc: Autodesk Civil 3D |Company: Autodesk,Inc. |WEB Address: www.autodesk.com
 90
      129
280
     0
281
     0
  0
CLASS
  1
AECC_SECTION_VIEW_BAND_STYLE_SET
  2
AeccDbGraphSectionBandStyleSet
  3
AeccLand10|Product Desc: Autodesk Civil 3D |Company: Autodesk,Inc. |WEB Address: www.autodesk.com
 90
      129
280
     0
281
     0
  0
CLASS
  1
AECC_SECTION_VIEW_DATA_BAND_STYLE
  2
AeccDbGraphStyleSectionDataBands
  3
AeccLand10|Product Desc: Autodesk Civil 3D |Company: Autodesk,Inc. |WEB Address: www.autodesk.com
 90
      129
280
     0
281
     0
  0
CLASS
  1
AECC_SECTION_LABEL_SET
  2
AeccDbSectionLabelsDlgTemplate
  3
AeccLand10|Product Desc: Autodesk Civil 3D |Company: Autodesk,Inc. |WEB Address: www.autodesk.com
 90
     1023
280
     0
281
     0
  0
CLASS
  1
AECC_ALIGNMENT_STYLE
  2
AeccDbAlignmentStyle
  3
AeccLand10|Product Desc: Autodesk Civil 3D |Company: Autodesk,Inc. |WEB Address: www.autodesk.com
 90
     1023
280
     0
281
     0
  0
CLASS
  1
AECC_LABEL_VECTOR_ARROW_STYLE
  2
AeccDbLabelStyleVectorArrow
  3
AeccLand10|Product Desc: Autodesk Civil 3D |Company: Autodesk,Inc. |WEB Address: www.autodesk.com
 90
     1023
280
     0
281
     0
  0
CLASS
  1
AECC_ALIGNMENT_LABEL_SET
  2
AeccDbAlignStnLabelsDlgTemplate
  3
AeccLand10|Product Desc: Autodesk Civil 3D |Company: Autodesk,Inc. |WEB Address: www.autodesk.com
 90
     1023
280
     0
281
     0
  0
CLASS
  1
AECC_SURFACE_STYLE
  2
AeccDbSurfaceStyle
  3
AeccLand10|Product Desc: Autodesk Civil 3D |Company: Autodesk,Inc. |WEB Address: www.autodesk.com
 90
      129
280
     0
281
     0
  0
CLASS
  1
AECC_LEGEND_TABLE_STYLE
  2
AeccDbLegendScheduleTableStyle
  3
AeccLand10|Product Desc: Autodesk Civil 3D |Company: Autodesk,Inc. |WEB Address: www.autodesk.com
 90
     1023
280
     0
281
     0
  0
CLASS
  1
AECC_SECTION_STYLE
  2
AeccDbSectionStyle
  3
AeccLand10|Product Desc: Autodesk Civil 3D |Company: Autodesk,Inc. |WEB Address: www.autodesk.com
 90
     1023
280
     0
281
     0
  0
CLASS
  1
AECC_GRADING_STYLE
  2
AeccDbGradingStyle
  3
AeccLand10|Product Desc: Autodesk Civil 3D |Company: Autodesk,Inc. |WEB Address: www.autodesk.com
 90
     1023
280
     0
281
     0
  0
CLASS
  1
AECC_GRADING_CRITERIA
  2
AeccDbGradingCriteria
  3
AeccLand10|Product Desc: Autodesk Civil 3D |Company: Autodesk,Inc. |WEB Address: www.autodesk.com
 90
     1023
280
     0
281
     0
  0
CLASS
  1
AECC_PARCEL_STYLE
  2
AeccDbParcelStyle
  3
AeccLand10|Product Desc: Autodesk Civil 3D |Company: Autodesk,Inc. |WEB Address: www.autodesk.com
 90
      129
280
     0
281
     0
  0
CLASS
  1
AECC_SAMPLE_LINE_GROUP_STYLE
  2
AeccDbSampleLineGroupStyle
  3
AeccLand10|Product Desc: Autodesk Civil 3D |Company: Autodesk,Inc. |WEB Address: www.autodesk.com
 90
      129
280
     0
281
     0
  0
CLASS
  1
AECC_SHEET_STYLE
  2
AeccDbSheetStyle
  3
AeccLand10|Product Desc: Autodesk Civil 3D |Company: Autodesk,Inc. |WEB Address: www.autodesk.com
 90
      129
280
     0
281
     0
  0
CLASS
  1
AECC_SAMPLE_LINE_STYLE
  2
AeccDbSampleLineStyle
  3
AeccLand10|Product Desc: Autodesk Civil 3D |Company: Autodesk,Inc. |WEB Address: www.autodesk.com
 90
     1023
280
     0
281
     0
  0
CLASS
  1
AECC_PROFILE_STYLE
  2
AeccDbVAlignmentStyle
  3
AeccLand10|Product Desc: Autodesk Civil 3D |Company: Autodesk,Inc. |WEB Address: www.autodesk.com
 90
     1023
280
     0
281
     0
  0
CLASS
  1
AECC_STATION_FORMAT_STYLE
  2
AeccDbStationFormatStyle
  3
AeccLand10|Product Desc: Autodesk Civil 3D |Company: Autodesk,Inc. |WEB Address: www.autodesk.com
 90
     1023
280
     0
281
     0
  0
CLASS
  1
AECC_TABLE_STYLE
  2
AeccDbScheduleTableStyle
  3
AeccLand10|Product Desc: Autodesk Civil 3D |Company: Autodesk,Inc. |WEB Address: www.autodesk.com
 90
     1023
280
     0
281
     0
  0
CLASS
  1
AECC_GRADING_CRITERIA_SET
  2
AeccDbGradingCriteriaSet
  3
AeccLand10|Product Desc: Autodesk Civil 3D |Company: Autodesk,Inc. |WEB Address: www.autodesk.com
 90
     1023
280
     0
281
     0
  0
CLASS
  1
AECC_FORMAT_MANAGER_OBJECT
  2
AeccDbFormatManagerObject
  3
AeccLand10|Product Desc: Autodesk Civil 3D |Company: Autodesk,Inc. |WEB Address: www.autodesk.com
 90
     1023
280
     0
281
     0
  0
CLASS
  1
AECC_POINT_DESCRIPTION_KEY_SET_NODE
  2
AeccDbPointDescKeySetsNode
  3
AeccvBase10|Product Desc: Autodesk Civil 3D |Company: Autodesk,Inc. |WEB Address: www.autodesk.com
 90
     1023
280
     0
281
     0
  0
CLASS
  1
DICTIONARYVAR
  2
AcDbDictionaryVar
  3
ObjectDBX Classes
 90
        0
280
     0
281
     0
  0
CLASS
  1
ACDBPLACEHOLDER
  2
AcDbPlaceHolder
  3
ObjectDBX Classes
 90
        0
280
     0
281
     0
  0
CLASS
  1
LAYOUT
  2
AcDbLayout
  3
ObjectDBX Classes
 90
        0
280
     0
281
     0
  0
ENDSEC
  0
SECTION
  2
TABLES
  0
TABLE
  2
VPORT
  5
8
330
0
100
AcDbSymbolTable
 70
     2
  0
VPORT
  5
668
330
8
100
AcDbSymbolTableRecord
100
AcDbViewportTableRecord
  2
*Active
 70
     0
 10
0.0
 20
0.0
 11
1.0
 21
1.0
 12
33618.37031194513
 22
22316.84376718599
 13
0.0
 23
0.0
 14
1.0
 24
1.0
 15
0.0
 25
0.0
 16
0.0
 26
0.0
 36
1.0
 17
0.0
 27
0.0
 37
0.0
 40
39061.27033856312
 41
1.937399678972712
 42
50.0
 43
0.0
 44
0.0
 50
0.0
 51
0.0
 71
     0
 72
   100
 73
     1
 74
     1
 75
     0
 76
     0
 77
     0
 78
     0
281
     0
 65
     1
110
0.0
120
0.0
130
0.0
111
1.0
121
0.0
131
0.0
112
0.0
122
1.0
132
0.0
 79
     0
146
0.0
  0
ENDTAB
  0
TABLE
  2
LTYPE
  5
5
330
0
100
AcDbSymbolTable
 70
    35
  0
LTYPE
  5
13
330
5
100
AcDbSymbolTableRecord
100
AcDbLinetypeTableRecord
  2
ByBlock
 70
     0
  3

 72
    65
 73
     0
 40
0.0
  0
LTYPE
  5
14
330
5
100
AcDbSymbolTableRecord
100
AcDbLinetypeTableRecord
  2
ByLayer
 70
     0
  3

 72
    65
 73
     0
 40
0.0
  0
LTYPE
  5
15
330
5
100
AcDbSymbolTableRecord
100
AcDbLinetypeTableRecord
  2
CONTINUOUS
 70
     0
  3
実線
 72
    65
 73
     0
 40
0.0
  0
LTYPE
  5
26
330
5
100
AcDbSymbolTableRecord
100
AcDbLinetypeTableRecord
  2
DASHED1
 70
     0
  3
--  --  --  --  --  --  --  --  
 72
    65
 73
     2
 40
2.5
 49
1.25
 74
     0
 49
-1.25
 74
     0
  0
LTYPE
  5
27
330
5
100
AcDbSymbolTableRecord
100
AcDbLinetypeTableRecord
  2
DASHED2
 70
     0
  3
----    ----    ----    ----    
 72
    65
 73
     2
 40
5.0
 49
2.5
 74
     0
 49
-2.5
 74
     0
  0
LTYPE
  5
28
330
5
100
AcDbSymbolTableRecord
100
AcDbLinetypeTableRecord
  2
DASHED3
 70
     0
  3
------  ------  ------  ------  
 72
    65
 73
     2
 40
5.0
 49
3.75
 74
     0
 49
-1.25
 74
     0
  0
LTYPE
  5
29
330
5
100
AcDbSymbolTableRecord
100
AcDbLinetypeTableRecord
  2
CENTER1
 70
     0
  3
----- - ----- - ----- - ----- - 
 72
    65
 73
     4
 40
10.0
 49
6.25
 74
     0
 49
-1.25
 74
     0
 49
1.25
 74
     0
 49
-1.25
 74
     0
  0
LTYPE
  5
2A
330
5
100
AcDbSymbolTableRecord
100
AcDbLinetypeTableRecord
  2
CENTER2
 70
     0
  3
----------  --  ----------  --  
 72
    65
 73
     4
 40
20.0
 49
12.5
 74
     0
 49
-2.5
 74
     0
 49
2.5
 74
     0
 49
-2.5
 74
     0
  0
LTYPE
  5
2B
330
5
100
AcDbSymbolTableRecord
100
AcDbLinetypeTableRecord
  2
PHANTOM1
 70
     0
  3
--- - - --- - - --- - - --- - - 
 72
    65
 73
     6
 40
10.0
 49
3.25
 74
     0
 49
-1.25
 74
     0
 49
1.25
 74
     0
 49
-1.25
 74
     0
 49
1.25
 74
     0
 49
-1.25
 74
     0
  0
LTYPE
  5
2C
330
5
100
AcDbSymbolTableRecord
100
AcDbLinetypeTableRecord
  2
PHANTOM2
 70
     0
  3
--------  -  -  --------  -  -  
 72
    65
 73
     6
 40
20.0
 49
10.0
 74
     0
 49
-2.5
 74
     0
 49
1.25
 74
     0
 49
-2.5
 74
     0
 49
1.25
 74
     0
 49
-2.5
 74
     0
  0
LTYPE
  5
2D
330
5
100
AcDbSymbolTableRecord
100
AcDbLinetypeTableRecord
  2
DOT
 70
     0
  3
-   -   -   -   -   -   -   -   
 72
    65
 73
     2
 40
2.5
 49
0.625
 74
     0
 49
-1.875
 74
     0
  0
LTYPE
  5
2E
330
5
100
AcDbSymbolTableRecord
100
AcDbLinetypeTableRecord
  2
DUMMY
 70
     0
  3
ダミー
 72
    65
 73
     0
 40
0.0
  0
LTYPE
  5
2F
330
5
100
AcDbSymbolTableRecord
100
AcDbLinetypeTableRecord
  2
RAND1
 70
     0
  3
ランダム線1
 72
    65
 73
     4
 40
10.0
 49
1.0
 74
     0
 49
-2.0
 74
     0
 49
3.0
 74
     0
 49
-4.0
 74
     0
  0
LTYPE
  5
30
330
5
100
AcDbSymbolTableRecord
100
AcDbLinetypeTableRecord
  2
RAND2
 70
     0
  3
ランダム線2
 72
    65
 73
     4
 40
14.0
 49
2.0
 74
     0
 49
-3.0
 74
     0
 49
4.0
 74
     0
 49
-5.0
 74
     0
  0
LTYPE
  5
31
330
5
100
AcDbSymbolTableRecord
100
AcDbLinetypeTableRecord
  2
RAND3
 70
     0
  3
ランダム線3
 72
    65
 73
     4
 40
18.0
 49
3.0
 74
     0
 49
-4.0
 74
     0
 49
5.0
 74
     0
 49
-6.0
 74
     0
  0
LTYPE
  5
32
330
5
100
AcDbSymbolTableRecord
100
AcDbLinetypeTableRecord
  2
RAND4
 70
     0
  3
ランダム線4
 72
    65
 73
     4
 40
22.0
 49
4.0
 74
     0
 49
-5.0
 74
     0
 49
6.0
 74
     0
 49
-7.0
 74
     0
  0
LTYPE
  5
33
330
5
100
AcDbSymbolTableRecord
100
AcDbLinetypeTableRecord
  2
RAND5
 70
     0
  3
ランダム線5
 72
    65
 73
     4
 40
26.0
 49
5.0
 74
     0
 49
-6.0
 74
     0
 49
7.0
 74
     0
 49
-8.0
 74
     0
  0
LTYPE
  5
34
330
5
100
AcDbSymbolTableRecord
100
AcDbLinetypeTableRecord
  2
LONG1
 70
     0
  3
----------  --  ----------  --  
 72
    65
 73
     4
 40
40.0
 49
32.5
 74
     0
 49
-2.5
 74
     0
 49
2.5
 74
     0
 49
-2.5
 74
     0
  0
LTYPE
  5
35
330
5
100
AcDbSymbolTableRecord
100
AcDbLinetypeTableRecord
  2
LONG2
 70
     0
  3
--------  -  -  --------  -  -  
 72
    65
 73
     6
 40
40.0
 49
30.0
 74
     0
 49
-2.5
 74
     0
 49
1.25
 74
     0
 49
-2.5
 74
     0
 49
1.25
 74
     0
 49
-2.5
 74
     0
  0
LTYPE
  5
36
330
5
100
AcDbSymbolTableRecord
100
AcDbLinetypeTableRecord
  2
LONG3
 70
     0
  3
+++++++++++++++..+++++++++++++++
 72
    65
 73
     2
 40
40.0
 49
37.5
 74
     0
 49
-2.5
 74
     0
  0
LTYPE
  5
37
330
5
100
AcDbSymbolTableRecord
100
AcDbLinetypeTableRecord
  2
LONG4
 70
     0
  3
+++++++++++++++..+++++++++++++++
 72
    65
 73
     2
 40
80.0
 49
75.0
 74
     0
 49
-5.0
 74
     0
  0
LTYPE
  5
38
330
5
100
AcDbSymbolTableRecord
100
AcDbLinetypeTableRecord
  2
LONG5
 70
     0
  3
----------  --  ----------  --  
 72
    65
 73
     4
 40
60.0
 49
37.5
 74
     0
 49
-7.5
 74
     0
 49
7.5
 74
     0
 49
-7.5
 74
     0
  0
LTYPE
  5
39
330
5
100
AcDbSymbolTableRecord
100
AcDbLinetypeTableRecord
  2
DASHED
 70
     0
  3
-------   -------------   ------
 72
    65
 73
     2
 40
7.5
 49
6.0
 74
     0
 49
-1.5
 74
     0
  0
LTYPE
  5
3A
330
5
100
AcDbSymbolTableRecord
100
AcDbLinetypeTableRecord
  2
DASHED_SPACED
 70
     0
  3
----        --------        ----
 72
    65
 73
     2
 40
12.0
 49
6.0
 74
     0
 49
-6.0
 74
     0
  0
LTYPE
  5
3B
330
5
100
AcDbSymbolTableRecord
100
AcDbLinetypeTableRecord
  2
LONG_DASHED_DOTTED
 70
     0
  3
------------- --- --------------
 72
    65
 73
     4
 40
15.25
 49
12.0
 74
     0
 49
-1.5
 74
     0
 49
0.25
 74
     0
 49
-1.5
 74
     0
  0
LTYPE
  5
3C
330
5
100
AcDbSymbolTableRecord
100
AcDbLinetypeTableRecord
  2
LONG_DASHED_DOUBLE-DOTTED
 70
     0
  3
----------- --- --- ------------
 72
    65
 73
     6
 40
17.0
 49
12.0
 74
     0
 49
-1.5
 74
     0
 49
0.25
 74
     0
 49
-1.5
 74
     0
 49
0.25
 74
     0
 49
-1.5
 74
     0
  0
LTYPE
  5
3D
330
5
100
AcDbSymbolTableRecord
100
AcDbLinetypeTableRecord
  2
LONG_DASHED_TRIPLICATE-DOTTED
 70
     0
  3
--------- --- --- --- ----------
 72
    65
 73
     8
 40
18.75
 49
12.0
 74
     0
 49
-1.5
 74
     0
 49
0.25
 74
     0
 49
-1.5
 74
     0
 49
0.25
 74
     0
 49
-1.5
 74
     0
 49
0.25
 74
     0
 49
-1.5
 74
     0
  0
LTYPE
  5
3E
330
5
100
AcDbSymbolTableRecord
100
AcDbLinetypeTableRecord
  2
DOTTED
 70
     0
  3
   -       -       -       -    
 72
    65
 73
     2
 40
1.75
 49
0.25
 74
     0
 49
-1.5
 74
     0
  0
LTYPE
  5
3F
330
5
100
AcDbSymbolTableRecord
100
AcDbLinetypeTableRecord
  2
CHAIN
 70
     0
  3
-------------- -- --------------
 72
    65
 73
     4
 40
18.5
 49
12.0
 74
     0
 49
-1.5
 74
     0
 49
3.5
 74
     0
 49
-1.5
 74
     0
  0
LTYPE
  5
40
330
5
100
AcDbSymbolTableRecord
100
AcDbLinetypeTableRecord
  2
CHAIN_DOUBLE_DASH
 70
     0
  3
------------ -- -- -------------
 72
    65
 73
     6
 40
23.5
 49
12.0
 74
     0
 49
-1.5
 74
     0
 49
3.5
 74
     0
 49
-1.5
 74
     0
 49
3.5
 74
     0
 49
-1.5
 74
     0
  0
LTYPE
  5
41
330
5
100
AcDbSymbolTableRecord
100
AcDbLinetypeTableRecord
  2
DASHED_DOTTED
 70
     0
  3
-----------     -     ----------
 72
    65
 73
     4
 40
9.25
 49
6.0
 74
     0
 49
-1.5
 74
     0
 49
0.25
 74
     0
 49
-1.5
 74
     0
  0
LTYPE
  5
42
330
5
100
AcDbSymbolTableRecord
100
AcDbLinetypeTableRecord
  2
DOUBLE-DASHED_DOTTED
 70
     0
  3
------   -----------   -   -----
 72
    65
 73
     6
 40
16.75
 49
6.0
 74
     0
 49
-1.5
 74
     0
 49
6.0
 74
     0
 49
-1.5
 74
     0
 49
0.25
 74
     0
 49
-1.5
 74
     0
  0
LTYPE
  5
43
330
5
100
AcDbSymbolTableRecord
100
AcDbLinetypeTableRecord
  2
DASHED_DOUBLE-DOTTED
 70
     0
  3
---------    -    -    ---------
 72
    65
 73
     6
 40
11.0
 49
6.0
 74
     0
 49
-1.5
 74
     0
 49
0.25
 74
     0
 49
-1.5
 74
     0
 49
0.25
 74
     0
 49
-1.5
 74
     0
  0
LTYPE
  5
44
330
5
100
AcDbSymbolTableRecord
100
AcDbLinetypeTableRecord
  2
DOUBLE-DASHED_DOUBLE-DOTTED
 70
     0
  3
-----   ---------   -   -   ----
 72
    65
 73
     8
 40
18.5
 49
6.0
 74
     0
 49
-1.5
 74
     0
 49
6.0
 74
     0
 49
-1.5
 74
     0
 49
0.25
 74
     0
 49
-1.5
 74
     0
 49
0.25
 74
     0
 49
-1.5
 74
     0
  0
LTYPE
  5
45
330
5
100
AcDbSymbolTableRecord
100
AcDbLinetypeTableRecord
  2
DASHED_TRIPLICATE-DOTTED
 70
     0
  3
-------    -    -    -    ------
 72
    65
 73
     8
 40
12.75
 49
6.0
 74
     0
 49
-1.5
 74
     0
 49
0.25
 74
     0
 49
-1.5
 74
     0
 49
0.25
 74
     0
 49
-1.5
 74
     0
 49
0.25
 74
     0
 49
-1.5
 74
     0
  0
LTYPE
  5
46
330
5
100
AcDbSymbolTableRecord
100
AcDbLinetypeTableRecord
  2
DOUBLE-DASHED_TRIPLICATE-DOTTED
 70
     0
  3
-----  ---------  -  -  -  -----
 72
    65
 73
    10
 40
20.25
 49
6.0
 74
     0
 49
-1.5
 74
     0
 49
6.0
 74
     0
 49
-1.5
 74
     0
 49
0.25
 74
     0
 49
-1.5
 74
     0
 49
0.25
 74
     0
 49
-1.5
 74
     0
 49
0.25
 74
     0
 49
-1.5
 74
     0
  0
LTYPE
  5
47
330
5
100
AcDbSymbolTableRecord
100
AcDbLinetypeTableRecord
  2
UNDEFINED
 70
     0
  3
--------------------------------
 72
    65
 73
     0
 40
0.0
  0
ENDTAB
  0
TABLE
  2
LAYER
  5
2
330
0
100
AcDbSymbolTable
 70
     9
  0
LAYER
  5
10
330
2
100
AcDbSymbolTableRecord
100
AcDbLayerTableRecord
  2
0
 70
     0
 62
     7
  6
CONTINUOUS
370
    -3
390
F
  0
LAYER
  5
49
330
2
100
AcDbSymbolTableRecord
100
AcDbLayerTableRecord
  2
_0-0_パイプ
 70
     0
 62
     7
  6
CONTINUOUS
370
    -3
390
F
  0
LAYER
  5
4A
330
2
100
AcDbSymbolTableRecord
100
AcDbLayerTableRecord
  2
_0-1_ＧＬ
 70
     0
 62
     7
  6
CONTINUOUS
370
    -3
390
F
  0
LAYER
  5
4B
330
2
100
AcDbSymbolTableRecord
100
AcDbLayerTableRecord
  2
_0-2_メッセン
 70
     0
 62
     7
  6
CONTINUOUS
370
    -3
390
F
  0
LAYER
  5
4C
330
2
100
AcDbSymbolTableRecord
100
AcDbLayerTableRecord
  2
_0-3_寸法
 70
     0
 62
     7
  6
CONTINUOUS
370
    -3
390
F
  0
LAYER
  5
4D
330
2
100
AcDbSymbolTableRecord
100
AcDbLayerTableRecord
  2
_0-4_ハッチ
 70
     0
 62
     7
  6
CONTINUOUS
370
    -3
390
F
  0
LAYER
  5
4E
330
2
100
AcDbSymbolTableRecord
100
AcDbLayerTableRecord
  2
_0-5_枠
 70
     0
 62
     7
  6
CONTINUOUS
370
    -3
390
F
  0
LAYER
  5
4F
330
2
100
AcDbSymbolTableRecord
100
AcDbLayerTableRecord
  2
_0-6_仕上
 70
     0
 62
     7
  6
CONTINUOUS
370
    -3
390
F
  0
LAYER
  5
50
330
2
100
AcDbSymbolTableRecord
100
AcDbLayerTableRecord
  2
ADD_LINE
 70
     0
 62
     7
  6
CONTINUOUS
370
    -3
390
F
  0
ENDTAB
  0
TABLE
  2
STYLE
  5
3
330
0
100
AcDbSymbolTable
 70
     2
  0
STYLE
  5
11
330
3
100
AcDbSymbolTableRecord
100
AcDbTextStyleTableRecord
  2
STANDARD
 70
     0
 40
0.0
 41
1.0
 50
0.0
 71
     0
 42
0.2
  3
MS Gothic.ttf
  4

1001
ACAD
1000
MS Gothic
1071
    32817
  0
STYLE
  5
48
330
3
100
AcDbSymbolTableRecord
100
AcDbTextStyleTableRecord
  2
TATEGAKI
 70
     4
 40
0.0
 41
1.0
 50
0.0
 71
     0
 42
1.0
  3
txt
  4
bigfont.shx
  0
ENDTAB
  0
TABLE
  2
VIEW
  5
6
330
0
100
AcDbSymbolTable
 70
     0
  0
ENDTAB
  0
TABLE
  2
UCS
  5
7
330
0
100
AcDbSymbolTable
 70
     0
  0
ENDTAB
  0
TABLE
  2
APPID
  5
9
330
0
100
AcDbSymbolTable
 70
     3
  0
APPID
  5
12
330
9
100
AcDbSymbolTableRecord
100
AcDbRegAppTableRecord
  2
ACAD
 70
     0
  0
APPID
  5
65F
330
9
100
AcDbSymbolTableRecord
100
AcDbRegAppTableRecord
  2
DCO15
 70
     0
  0
APPID
  5
661
330
9
100
AcDbSymbolTableRecord
100
AcDbRegAppTableRecord
  2
ADE
 70
     0
  0
ENDTAB
  0
TABLE
  2
DIMSTYLE
  5
A
330
0
100
AcDbSymbolTable
 70
     1
100
AcDbDimStyleTable
 71
     0
  0
DIMSTYLE
105
379
330
A
100
AcDbSymbolTableRecord
100
AcDbDimStyleTableRecord
  2
Standard
 70
     0
340
11
  0
ENDTAB
  0
TABLE
  2
BLOCK_RECORD
  5
1
330
0
100
AcDbSymbolTable
 70
     0
  0
BLOCK_RECORD
  5
22
330
1
100
AcDbSymbolTableRecord
100
AcDbBlockTableRecord
  2
*Model_Space
340
25
  0
BLOCK_RECORD
  5
1E
330
1
100
AcDbSymbolTableRecord
100
AcDbBlockTableRecord
  2
*Paper_Space
340
21
  0
ENDTAB
  0
ENDSEC
  0
SECTION
  2
BLOCKS
  0
BLOCK
  5
23
330
22
100
AcDbEntity
  8
0
100
AcDbBlockBegin
  2
*Model_Space
 70
     0
 10
0.0
 20
0.0
 30
0.0
  3
*Model_Space
  1

  0
ENDBLK
  5
24
330
22
100
AcDbEntity
  8
0
100
AcDbBlockEnd
  0
BLOCK
  5
1F
330
1E
100
AcDbEntity
 67
     1
  8
0
100
AcDbBlockBegin
  2
*Paper_Space
 70
     0
 10
0.0
 20
0.0
 30
0.0
  3
*Paper_Space
  1

  0
ENDBLK
  5
20
330
1E
100
AcDbEntity
 67
     1
  8
0
100
AcDbBlockEnd
  0
ENDSEC
  0
SECTION
  2
ENTITIES
  0
LINE
  5
54
330
22
100
AcDbEntity
  8
_0-6_仕上
  6
Continuous
 62
     4
100
AcDbLine
 10
30826.95031293665
 20
24650.48657107112
 30
0.0
 11
31009.3555269886
 21
24650.48657107112
 31
0.0
  0
TEXT
  5
55
330
22
100
AcDbEntity
  8
_0-6_仕上
 62
     7
100
AcDbText
 10
31082.58493009776
 20
24760.83978316993
 30
0.0
 40
300.0
  1
NET
100
AcDbText
  0
LINE
  5
56
330
22
100
AcDbEntity
  8
_0-6_仕上
  6
Continuous
 62
     4
100
AcDbLine
 10
30826.95031293665
 20
24650.48657107112
 30
0.0
 11
30826.95031293665
 21
23424.38177714352
 31
0.0
  0
LINE
  5
57
330
22
100
AcDbEntity
  8
_0-6_仕上
  6
Continuous
 62
     4
100
AcDbLine
 10
30826.95031293665
 20
23424.38177714352
 30
0.0
 11
31009.3555269886
 21
23424.38177714352
 31
0.0
  0
TEXT
  5
58
330
22
100
AcDbEntity
  8
_0-5_枠
 62
     7
100
AcDbText
 10
30922.56090943085
 20
23430.4812253307
 30
0.0
 40
300.0
  1
（KSP-24 37.5㎜目ｽｰﾊﾟｰﾎﾟﾘｴﾁﾚﾝ）
100
AcDbText
  0
TEXT
  5
59
330
22
100
AcDbEntity
  8
_0-6_仕上
 62
     7
100
AcDbText
 10
31065.47966259882
 20
24313.73581885405
 30
0.0
 40
300.0
  1
ｸﾚﾓﾅ250D/80本×37.5m/m
100
AcDbText
  0
TEXT
  5
5A
330
22
100
AcDbEntity
  8
_0-6_仕上
 62
     7
100
AcDbText
 10
30888.50892666896
 20
23892.80109018007
 30
0.0
 40
300.0
  1
（KRP-40 1100D/18本×40㎜目 ｴｺﾛﾈｯﾄ）
100
AcDbText
  0
LINE
  5
5D
330
22
100
AcDbEntity
  8
_0-5_枠
  6
Continuous
 62
     2
100
AcDbLine
 10
36486.48401208826
 20
28756.75345755913
 30
0.0
 11
36486.48401208826
 21
29756.75675675677
 31
0.0
  0
LINE
  5
5E
330
22
100
AcDbEntity
  8
_0-5_枠
  6
Continuous
 62
     2
100
AcDbLine
 10
36486.48401208826
 20
28756.75345755913
 30
0.0
 11
38986.48483688767
 21
28756.75345755913
 31
0.0
  0
LINE
  5
5F
330
22
100
AcDbEntity
  8
_0-5_枠
  6
Continuous
 62
     2
100
AcDbLine
 10
1986.483702788481
 20
29756.75675675677
 30
0.0
 11
38986.48483688767
 21
29756.75675675677
 31
0.0
  0
LINE
  5
60
330
22
100
AcDbEntity
  8
_0-5_枠
  6
Continuous
 62
     2
100
AcDbLine
 10
1986.483702788481
 20
4756.754694758234
 30
0.0
 11
1986.483702788481
 21
29756.75675675677
 31
0.0
  0
LINE
  5
61
330
22
100
AcDbEntity
  8
_0-5_枠
  6
Continuous
 62
     2
100
AcDbLine
 10
38986.48483688767
 20
4756.754694758234
 30
0.0
 11
1986.483702788481
 21
4756.754694758234
 31
0.0
  0
LINE
  5
62
330
22
100
AcDbEntity
  8
_0-5_枠
  6
Continuous
 62
     2
100
AcDbLine
 10
38986.48483688767
 20
29756.75675675677
 30
0.0
 11
38986.48483688767
 21
4756.754694758234
 31
0.0
  0
TEXT
  5
65
330
22
100
AcDbEntity
  8
_0-5_枠
 62
     7
100
AcDbText
 10
37222.05843538851
 20
29016.80033915752
 30
0.0
 40
400.0
  1
６Ｍ
100
AcDbText
  0
LINE
  5
66
330
22
100
AcDbEntity
  8
_0-0_パイプ
  6
Continuous
 62
     7
100
AcDbLine
 10
36285.13480521538
 20
22431.33993204125
 30
0.0
 11
35985.13381545608
 21
22431.33993204125
 31
0.0
  0
LINE
  5
67
330
22
100
AcDbEntity
  8
_0-0_パイプ
  6
Continuous
 62
     7
100
AcDbLine
 10
36285.13480521538
 20
22381.3422414796
 30
0.0
 11
36285.13480521538
 21
22431.33993204125
 31
0.0
  0
LINE
  5
68
330
22
100
AcDbEntity
  8
_0-0_パイプ
  6
Continuous
 62
     7
100
AcDbLine
 10
36285.13480521538
 20
22381.3422414796
 30
0.0
 11
35985.13381545608
 21
22381.3422414796
 31
0.0
  0
LINE
  5
69
330
22
100
AcDbEntity
  8
_0-0_パイプ
  6
Continuous
 62
     7
100
AcDbLine
 10
35985.13381545608
 20
22431.33993204125
 30
0.0
 11
35985.13381545608
 21
22381.3422414796
 31
0.0
  0
LINE
  5
6A
330
22
100
AcDbEntity
  8
_0-0_パイプ
  6
Continuous
 62
     7
100
AcDbLine
 10
36230.13388144004
 20
22681.33828244244
 30
0.0
 11
36040.13473923142
 21
22681.33828244244
 31
0.0
  0
LINE
  5
6B
330
22
100
AcDbEntity
  8
_0-0_パイプ
  6
Continuous
 62
     7
100
AcDbLine
 10
36283.63284549198
 20
14681.33663284361
 30
0.0
 11
35986.63330078125
 21
14681.33663284361
 31
0.0
  0
LINE
  5
6C
330
22
100
AcDbEntity
  8
_0-0_パイプ
  6
Continuous
 62
     7
100
AcDbLine
 10
36283.63284549198
 20
14681.33663284361
 30
0.0
 11
36230.13388144004
 21
22681.33828244244
 31
0.0
  0
LINE
  5
6D
330
22
100
AcDbEntity
  8
_0-0_パイプ
  6
Continuous
 62
     7
100
AcDbLine
 10
36040.13473923142
 20
22681.33828244244
 30
0.0
 11
35986.63330078125
 21
14681.33663284361
 31
0.0
  0
LINE
  5
6E
330
22
100
AcDbEntity
  8
_0-0_パイプ
  6
Continuous
 62
     7
100
AcDbLine
 10
35910.13480521538
 20
16306.33580804421
 30
0.0
 11
35910.13480521538
 21
16256.33564308432
 31
0.0
  0
LINE
  5
6F
330
22
100
AcDbEntity
  8
ADD_LINE
  6
DOT
 62
     7
100
AcDbLine
 10
36270.25872307855
 20
16681.33704524332
 30
0.0
 11
36000.00989759291
 21
16681.33704524332
 31
0.0
  0
LINE
  5
70
330
22
100
AcDbEntity
  8
_0-0_パイプ
  6
Continuous
 62
     7
100
AcDbLine
 10
35885.13348553632
 20
16826.33801850662
 30
0.0
 11
35885.13348553632
 21
16926.33834842638
 31
0.0
  0
LINE
  5
71
330
22
100
AcDbEntity
  8
_0-0_パイプ
  6
Continuous
 62
     7
100
AcDbLine
 10
36385.13266073691
 20
16826.33801850662
 30
0.0
 11
35885.13348553632
 21
16826.33801850662
 31
0.0
  0
LINE
  5
72
330
22
100
AcDbEntity
  8
_0-0_パイプ
  6
Continuous
 62
     7
100
AcDbLine
 10
35885.13348553632
 20
16926.33834842638
 30
0.0
 11
36385.13266073691
 21
16926.33834842638
 31
0.0
  0
LINE
  5
73
330
22
100
AcDbEntity
  8
_0-0_パイプ
  6
Continuous
 62
     7
100
AcDbLine
 10
36385.13266073691
 20
16926.33834842638
 30
0.0
 11
36385.13266073691
 21
16826.33801850662
 31
0.0
  0
LINE
  5
74
330
22
100
AcDbEntity
  8
_0-0_パイプ
  6
Continuous
 62
     7
100
AcDbLine
 10
35935.13117609798
 20
19611.34003101717
 30
0.0
 11
35935.13117609798
 21
19711.34036093694
 31
0.0
  0
LINE
  5
75
330
22
100
AcDbEntity
  8
_0-0_パイプ
  6
Continuous
 62
     7
100
AcDbLine
 10
35935.13117609798
 20
19711.34036093694
 30
0.0
 11
36335.12754698058
 21
19711.34036093694
 31
0.0
  0
LINE
  5
76
330
22
100
AcDbEntity
  8
_0-0_パイプ
  6
Continuous
 62
     7
100
AcDbLine
 10
36335.12754698058
 20
19711.34036093694
 30
0.0
 11
36335.12754698058
 21
19611.34003101717
 31
0.0
  0
LINE
  5
77
330
22
100
AcDbEntity
  8
_0-0_パイプ
  6
Continuous
 62
     7
100
AcDbLine
 10
36335.12754698058
 20
19611.34003101717
 30
0.0
 11
35935.13117609798
 21
19611.34003101717
 31
0.0
  0
LINE
  5
78
330
22
100
AcDbEntity
  8
ADD_LINE
  6
DOT
 62
     7
100
AcDbLine
 10
36135.13431033573
 20
22524.44411410417
 30
0.0
 11
36135.13431033573
 21
22231.85642143103
 31
0.0
  0
LINE
  5
79
330
22
100
AcDbEntity
  8
_0-1_ＧＬ
  6
Continuous
 62
     3
100
AcDbLine
 10
35335.1390941723
 20
16681.33704524332
 30
0.0
 11
35735.14041385136
 21
16281.33696276338
 31
0.0
  0
LINE
  5
7A
330
22
100
AcDbEntity
  8
_0-1_ＧＬ
  6
Continuous
 62
     3
100
AcDbLine
 10
35335.1390941723
 20
16681.33704524332
 30
0.0
 11
34935.14024889148
 21
16281.33696276338
 31
0.0
  0
LINE
  5
7B
330
22
100
AcDbEntity
  8
_0-1_ＧＬ
  6
Continuous
 62
     3
100
AcDbLine
 10
34935.14024889148
 20
16281.33696276338
 30
0.0
 11
34535.13892921241
 21
16681.33704524332
 31
0.0
  0
LINE
  5
7C
330
22
100
AcDbEntity
  8
_0-1_ＧＬ
  6
Continuous
 62
     3
100
AcDbLine
 10
34619.7509765625
 20
16588.82919315295
 30
0.0
 11
34312.25750897382
 21
16281.33696276338
 31
0.0
  0
LINE
  5
7D
330
22
100
AcDbEntity
  8
_0-1_ＧＬ
  6
Continuous
 62
     3
100
AcDbLine
 10
34723.36145349451
 20
16488.92041596756
 30
0.0
 11
34515.77676309122
 21
16281.33696276338
 31
0.0
  0
LINE
  5
7E
330
22
100
AcDbEntity
  8
_0-1_ＧＬ
  6
Continuous
 62
     3
100
AcDbLine
 10
34826.96945602829
 20
16389.01163878217
 30
0.0
 11
34719.29601720862
 21
16281.33696276338
 31
0.0
  0
LINE
  5
7F
330
22
100
AcDbEntity
  8
_0-1_ＧＬ
  6
Continuous
 62
     3
100
AcDbLine
 10
35435.13942409207
 20
16581.33671532355
 30
0.0
 11
35135.140908731
 21
16281.33696276338
 31
0.0
  0
LINE
  5
80
330
22
100
AcDbEntity
  8
_0-1_ＧＬ
  6
Continuous
 62
     3
100
AcDbLine
 10
35535.13975401183
 20
16481.33638540379
 30
0.0
 11
35335.1390941723
 21
16281.33696276338
 31
0.0
  0
LINE
  5
81
330
22
100
AcDbEntity
  8
_0-1_ＧＬ
  6
Continuous
 62
     3
100
AcDbLine
 10
35635.13760953336
 20
16381.33729268314
 30
0.0
 11
35535.1372796136
 21
16281.33696276338
 31
0.0
  0
LINE
  5
82
330
22
100
AcDbEntity
  8
_0-1_ＧＬ
  6
Continuous
 62
     3
100
AcDbLine
 10
35235.13876425254
 20
16581.33671532355
 30
0.0
 11
35135.140908731
 21
16681.33704524332
 31
0.0
  0
LINE
  5
83
330
22
100
AcDbEntity
  8
_0-1_ＧＬ
  6
Continuous
 62
     3
100
AcDbLine
 10
35135.140908731
 20
16481.33638540379
 30
0.0
 11
34935.14024889148
 21
16681.33704524332
 31
0.0
  0
LINE
  5
84
330
22
100
AcDbEntity
  8
_0-1_ＧＬ
  6
Continuous
 62
     3
100
AcDbLine
 10
35035.14057881123
 20
16381.33729268314
 30
0.0
 11
34735.13958905194
 21
16681.33704524332
 31
0.0
  0
LINE
  5
85
330
22
100
AcDbEntity
  8
_0-1_ＧＬ
  6
Continuous
 62
     3
100
AcDbLine
 10
34535.13892921241
 20
16681.33704524332
 30
0.0
 11
34235.13793945313
 21
16381.33729268314
 31
0.0
  0
LINE
  5
86
330
22
100
AcDbEntity
  8
_0-1_ＧＬ
  6
Continuous
 62
     3
100
AcDbLine
 10
34335.13826937289
 20
16481.33638540379
 30
0.0
 11
34135.13760953336
 21
16681.33704524332
 31
0.0
  0
LINE
  5
87
330
22
100
AcDbEntity
  8
_0-1_ＧＬ
  6
Continuous
 62
     3
100
AcDbLine
 10
34435.13859929266
 20
16581.33671532355
 30
0.0
 11
34335.13826937289
 21
16681.33704524332
 31
0.0
  0
LINE
  5
88
330
22
100
AcDbEntity
  8
_0-1_ＧＬ
  6
Continuous
 62
     3
100
AcDbLine
 10
34135.13513513513
 20
16681.33704524332
 30
0.0
 11
38135.13348553632
 21
16681.33704524332
 31
0.0
  0
LINE
  5
89
330
22
100
AcDbEntity
  8
_0-6_仕上
  6
Continuous
 62
     4
100
AcDbLine
 10
36285.13480521538
 20
22431.33993204125
 30
0.0
 11
36285.13480521538
 21
22531.34026196101
 31
0.0
  0
LINE
  5
8A
330
22
100
AcDbEntity
  8
_0-6_仕上
  6
Continuous
 62
     4
100
AcDbLine
 10
36685.13612489443
 20
23124.15906342849
 30
0.0
 11
37685.13694969384
 21
23124.15906342849
 31
0.0
  0
LINE
  5
8B
330
22
100
AcDbEntity
  8
_0-6_仕上
  6
Continuous
 62
     4
100
AcDbLine
 10
36285.13480521538
 20
22431.33993204125
 30
0.0
 11
36685.13612489443
 21
23124.15906342849
 31
0.0
  0
LINE
  5
8C
330
22
100
AcDbEntity
  8
_0-6_仕上
  6
Continuous
 62
     4
100
AcDbLine
 10
36335.12754698058
 20
19711.34036093694
 30
0.0
 11
36335.12754698058
 21
19811.34069085671
 31
0.0
  0
LINE
  5
8D
330
22
100
AcDbEntity
  8
_0-6_仕上
  6
Continuous
 62
     4
100
AcDbLine
 10
36735.12886665963
 20
20404.1607295233
 30
0.0
 11
37735.12969145904
 21
20404.1607295233
 31
0.0
  0
LINE
  5
8E
330
22
100
AcDbEntity
  8
_0-6_仕上
  6
Continuous
 62
     4
100
AcDbLine
 10
36335.12754698058
 20
19711.34036093694
 30
0.0
 11
36735.12886665963
 21
20404.1607295233
 31
0.0
  0
LINE
  5
8F
330
22
100
AcDbEntity
  8
_0-6_仕上
  6
Continuous
 62
     4
100
AcDbLine
 10
36385.13266073691
 20
16926.33834842638
 30
0.0
 11
36385.13266073691
 21
17026.33867834615
 31
0.0
  0
LINE
  5
90
330
22
100
AcDbEntity
  8
_0-6_仕上
  6
Continuous
 62
     4
100
AcDbLine
 10
36785.13398041597
 20
17619.15747981363
 30
0.0
 11
37785.13480521538
 21
17619.15747981363
 31
0.0
  0
LINE
  5
91
330
22
100
AcDbEntity
  8
_0-6_仕上
  6
Continuous
 62
     4
100
AcDbLine
 10
36385.13266073691
 20
16926.33834842638
 30
0.0
 11
36785.13398041597
 21
17619.15747981363
 31
0.0
  0
LINE
  5
92
330
22
100
AcDbEntity
  8
_0-0_パイプ
  6
Continuous
 62
     7
100
AcDbLine
 10
36272.76528848184
 20
16306.33580804421
 30
0.0
 11
35910.13480521538
 21
16306.33580804421
 31
0.0
  0
LINE
  5
93
330
22
100
AcDbEntity
  8
_0-0_パイプ
  6
Continuous
 62
     7
100
AcDbLine
 10
35910.13480521538
 20
16256.33564308432
 30
0.0
 11
36273.0993322424
 21
16256.33564308432
 31
0.0
  0
LINE
  5
94
330
22
100
AcDbEntity
  8
_0-0_パイプ
  6
Continuous
 62
     7
100
AcDbLine
 10
36272.26546004012
 20
16381.33729268314
 30
0.0
 11
36322.265625
 21
16381.33729268314
 31
0.0
  0
LINE
  5
95
330
22
100
AcDbEntity
  8
_0-0_パイプ
  6
Continuous
 62
     7
100
AcDbLine
 10
36322.265625
 20
16381.33729268314
 30
0.0
 11
36323.26775628168
 21
16231.33679780349
 31
0.0
  0
LINE
  5
96
330
22
100
AcDbEntity
  8
_0-0_パイプ
  6
Continuous
 62
     7
100
AcDbLine
 10
36323.26775628168
 20
16231.33679780349
 30
0.0
 11
36473.27319995778
 21
16231.33679780349
 31
0.0
  0
LINE
  5
97
330
22
100
AcDbEntity
  8
_0-0_パイプ
  6
Continuous
 62
     7
100
AcDbLine
 10
36473.27319995778
 20
16231.33679780349
 30
0.0
 11
36473.60724371834
 21
16181.33663284361
 31
0.0
  0
LINE
  5
98
330
22
100
AcDbEntity
  8
_0-0_パイプ
  6
Continuous
 62
     7
100
AcDbLine
 10
36273.60163508234
 20
16181.33663284361
 30
0.0
 11
36473.60724371834
 21
16181.33663284361
 31
0.0
  0
LINE
  5
99
330
22
100
AcDbEntity
  8
_0-4_ハッチ
  6
DASHED1
 62
     5
100
AcDbLine
 10
35885.13348553632
 20
16926.33834842638
 30
0.0
 11
35935.13117609798
 21
19611.34003101717
 31
0.0
  0
LINE
  5
9A
330
22
100
AcDbEntity
  8
_0-4_ハッチ
  6
DASHED1
 62
     5
100
AcDbLine
 10
35935.13117609798
 20
19711.34036093694
 30
0.0
 11
35985.13381545608
 21
22381.3422414796
 31
0.0
  0
LINE
  5
9B
330
22
100
AcDbEntity
  8
_0-0_パイプ
  6
CENTER1
 62
     4
100
AcDbLine
 10
36135.13431033573
 20
23091.33369655772
 30
0.0
 11
36135.13431033573
 21
12681.33622044391
 31
0.0
  0
TEXT
  5
9C
330
22
100
AcDbEntity
  8
_0-6_仕上
 62
     7
100
AcDbText
 10
36760.81823400549
 20
23189.98795384235
 30
0.0
 40
300.0
  1
ﾊﾞﾝﾄﾞ
100
AcDbText
  0
TEXT
  5
9D
330
22
100
AcDbEntity
  8
_0-6_仕上
 62
     7
100
AcDbText
 10
36810.8109757707
 20
20469.98961993716
 30
0.0
 40
300.0
  1
ﾊﾞﾝﾄﾞ
100
AcDbText
  0
TEXT
  5
9E
330
22
100
AcDbEntity
  8
_0-6_仕上
 62
     7
100
AcDbText
 10
36860.81608952704
 20
17684.98637022748
 30
0.0
 40
300.0
  1
ﾊﾞﾝﾄﾞ
100
AcDbText
  0
LINE
  5
9F
330
22
100
AcDbEntity
  8
_0-1_ＧＬ
  6
Continuous
 62
     3
100
AcDbLine
 10
5642.879431204192
 20
16681.33704524332
 30
0.0
 11
6042.880750883248
 21
16281.33696276338
 31
0.0
  0
LINE
  5
A0
330
22
100
AcDbEntity
  8
_0-1_ＧＬ
  6
Continuous
 62
     3
100
AcDbLine
 10
5642.879431204192
 20
16681.33704524332
 30
0.0
 11
5242.880585923366
 21
16281.33696276338
 31
0.0
  0
LINE
  5
A1
330
22
100
AcDbEntity
  8
_0-1_ＧＬ
  6
Continuous
 62
     3
100
AcDbLine
 10
5242.880585923366
 20
16281.33696276338
 30
0.0
 11
4842.87926624431
 21
16681.33704524332
 31
0.0
  0
LINE
  5
A2
330
22
100
AcDbEntity
  8
_0-1_ＧＬ
  6
Continuous
 62
     3
100
AcDbLine
 10
4927.491313594396
 20
16588.82919315295
 30
0.0
 11
4619.997846005714
 21
16281.33696276338
 31
0.0
  0
LINE
  5
A3
330
22
100
AcDbEntity
  8
_0-1_ＧＬ
  6
Continuous
 62
     3
100
AcDbLine
 10
5031.099316128181
 20
16488.92041596756
 30
0.0
 11
4823.517100123112
 21
16281.33696276338
 31
0.0
  0
LINE
  5
A4
330
22
100
AcDbEntity
  8
_0-1_ＧＬ
  6
Continuous
 62
     3
100
AcDbLine
 10
5134.709793060189
 20
16389.01040158306
 30
0.0
 11
5027.036354240511
 21
16281.33696276338
 31
0.0
  0
LINE
  5
A5
330
22
100
AcDbEntity
  8
_0-1_ＧＬ
  6
Continuous
 62
     3
100
AcDbLine
 10
5742.879761123956
 20
16581.33547812444
 30
0.0
 11
5442.878771364667
 21
16281.33696276338
 31
0.0
  0
LINE
  5
A6
330
22
100
AcDbEntity
  8
_0-1_ＧＬ
  6
Continuous
 62
     3
100
AcDbLine
 10
5842.880091043722
 20
16481.33638540379
 30
0.0
 11
5642.879431204192
 21
16281.33696276338
 31
0.0
  0
LINE
  5
A7
330
22
100
AcDbEntity
  8
_0-1_ＧＬ
  6
Continuous
 62
     3
100
AcDbLine
 10
5942.880420963482
 20
16381.33729268314
 30
0.0
 11
5842.880091043722
 21
16281.33696276338
 31
0.0
  0
LINE
  5
A8
330
22
100
AcDbEntity
  8
_0-1_ＧＬ
  6
Continuous
 62
     3
100
AcDbLine
 10
5542.87910128443
 20
16581.33547812444
 30
0.0
 11
5442.878771364667
 21
16681.33704524332
 31
0.0
  0
LINE
  5
A9
330
22
100
AcDbEntity
  8
_0-1_ＧＬ
  6
Continuous
 62
     3
100
AcDbLine
 10
5442.881245762895
 20
16481.33638540379
 30
0.0
 11
5242.878111525137
 21
16681.33704524332
 31
0.0
  0
LINE
  5
AA
330
22
100
AcDbEntity
  8
_0-1_ＧＬ
  6
Continuous
 62
     3
100
AcDbLine
 10
5342.880915843128
 20
16381.33729268314
 30
0.0
 11
5042.879926083839
 21
16681.33704524332
 31
0.0
  0
LINE
  5
AB
330
22
100
AcDbEntity
  8
_0-1_ＧＬ
  6
Continuous
 62
     3
100
AcDbLine
 10
4842.87926624431
 20
16681.33704524332
 30
0.0
 11
4542.878276485021
 21
16381.33729268314
 31
0.0
  0
LINE
  5
AC
330
22
100
AcDbEntity
  8
_0-1_ＧＬ
  6
Continuous
 62
     3
100
AcDbLine
 10
4642.878606404785
 20
16481.33638540379
 30
0.0
 11
4442.877946565258
 21
16681.33704524332
 31
0.0
  0
LINE
  5
AD
330
22
100
AcDbEntity
  8
_0-1_ＧＬ
  6
Continuous
 62
     3
100
AcDbLine
 10
4742.878936324546
 20
16581.33547812444
 30
0.0
 11
4642.878606404785
 21
16681.33704524332
 31
0.0
  0
LINE
  5
AE
330
22
100
AcDbEntity
  8
_0-1_ＧＬ
  6
Continuous
 62
     3
100
AcDbLine
 10
7278.00631834524
 20
16681.33704524332
 30
0.0
 11
31142.88190560241
 21
16681.33704524332
 31
0.0
  0
LINE
  5
AF
330
22
100
AcDbEntity
  8
_0-0_パイプ
  6
Continuous
 62
     7
100
AcDbLine
 10
6992.881410722773
 20
22381.3422414796
 30
0.0
 11
6992.881410722773
 21
22481.33762260291
 31
0.0
  0
LINE
  5
B0
330
22
100
AcDbEntity
  8
_0-0_パイプ
  6
Continuous
 62
     7
100
AcDbLine
 10
6992.881410722773
 20
22481.33762260291
 30
0.0
 11
7292.879926083838
 21
22481.33762260291
 31
0.0
  0
LINE
  5
B1
330
22
100
AcDbEntity
  8
_0-0_パイプ
  6
Continuous
 62
     7
100
AcDbLine
 10
6992.881410722773
 20
22431.33993204125
 30
0.0
 11
7292.879926083838
 21
22431.33993204125
 31
0.0
  0
LINE
  5
B2
330
22
100
AcDbEntity
  8
_0-0_パイプ
  6
Continuous
 62
     7
100
AcDbLine
 10
7292.879926083838
 20
22481.33762260291
 30
0.0
 11
7292.879926083838
 21
22381.3422414796
 31
0.0
  0
LINE
  5
B3
330
22
100
AcDbEntity
  8
_0-0_パイプ
  6
Continuous
 62
     7
100
AcDbLine
 10
7117.863265135781
 20
22421.34088880856
 30
0.0
 11
7167.863430095666
 21
22421.34088880856
 31
0.0
  0
LINE
  5
B4
330
22
100
AcDbEntity
  8
_0-0_パイプ
  6
Continuous
 62
     7
100
AcDbLine
 10
7167.863430095666
 20
22321.3405588888
 30
0.0
 11
7117.863265135781
 21
22321.3405588888
 31
0.0
  0
LINE
  5
B5
330
22
100
AcDbEntity
  8
_0-0_パイプ
  6
Continuous
 62
     7
100
AcDbLine
 10
6992.881410722773
 20
22381.3422414796
 30
0.0
 11
7117.863265135781
 21
22381.3422414796
 31
0.0
  0
LINE
  5
B6
330
22
100
AcDbEntity
  8
_0-0_パイプ
  6
Continuous
 62
     7
100
AcDbLine
 10
7167.863430095666
 20
22381.3422414796
 30
0.0
 11
7292.879926083838
 21
22381.3422414796
 31
0.0
  0
LINE
  5
B7
330
22
100
AcDbEntity
  8
_0-0_パイプ
  6
Continuous
 62
     7
100
AcDbLine
 10
6942.878771364667
 20
19611.34003101717
 30
0.0
 11
6942.878771364667
 21
19711.34036093694
 31
0.0
  0
LINE
  5
B8
330
22
100
AcDbEntity
  8
_0-0_パイプ
  6
Continuous
 62
     7
100
AcDbLine
 10
6942.878771364667
 20
19711.34036093694
 30
0.0
 11
7342.880091043719
 21
19711.34036093694
 31
0.0
  0
LINE
  5
B9
330
22
100
AcDbEntity
  8
_0-0_パイプ
  6
Continuous
 62
     7
100
AcDbLine
 10
7342.880091043719
 20
19711.34036093694
 30
0.0
 11
7342.880091043719
 21
19611.34003101717
 31
0.0
  0
LINE
  5
BA
330
22
100
AcDbEntity
  8
_0-0_パイプ
  6
Continuous
 62
     7
100
AcDbLine
 10
7342.880091043719
 20
19611.34003101717
 30
0.0
 11
6942.878771364667
 21
19611.34003101717
 31
0.0
  0
LINE
  5
BB
330
22
100
AcDbEntity
  8
_0-0_パイプ
  6
Continuous
 62
     7
100
AcDbLine
 10
7105.377451685612
 20
19536.33978357736
 30
0.0
 11
7105.377451685612
 21
19686.340278457
 31
0.0
  0
LINE
  5
BC
330
22
100
AcDbEntity
  8
_0-0_パイプ
  6
Continuous
 62
     7
100
AcDbLine
 10
7105.377451685612
 20
19686.340278457
 30
0.0
 11
7180.37893632455
 21
19686.340278457
 31
0.0
  0
LINE
  5
BD
330
22
100
AcDbEntity
  8
_0-0_パイプ
  6
Continuous
 62
     7
100
AcDbLine
 10
7180.37893632455
 20
19686.340278457
 30
0.0
 11
7180.37893632455
 21
19536.33978357736
 31
0.0
  0
LINE
  5
BE
330
22
100
AcDbEntity
  8
_0-0_パイプ
  6
Continuous
 62
     7
100
AcDbLine
 10
7180.37893632455
 20
19536.33978357736
 30
0.0
 11
7105.377451685612
 21
19536.33978357736
 31
0.0
  0
LINE
  5
BF
330
22
100
AcDbEntity
  8
_0-0_パイプ
  6
Continuous
 62
     7
100
AcDbLine
 10
7180.37893632455
 20
19566.33938767364
 30
0.0
 11
7157.879233252336
 21
19566.33938767364
 31
0.0
  0
LINE
  5
C0
330
22
100
AcDbEntity
  8
_0-0_パイプ
  6
Continuous
 62
     7
100
AcDbLine
 10
7127.879629156048
 20
19566.33938767364
 30
0.0
 11
7105.377451685612
 21
19566.33938767364
 31
0.0
  0
LINE
  5
C1
330
22
100
AcDbEntity
  8
_0-0_パイプ
  6
Continuous
 62
     7
100
AcDbLine
 10
7105.37992608384
 20
16751.3377710668
 30
0.0
 11
7105.37992608384
 21
16901.33826594644
 31
0.0
  0
LINE
  5
C2
330
22
100
AcDbEntity
  8
_0-0_パイプ
  6
Continuous
 62
     7
100
AcDbLine
 10
7105.37992608384
 20
16901.33826594644
 30
0.0
 11
7180.381410722773
 21
16901.33826594644
 31
0.0
  0
LINE
  5
C3
330
22
100
AcDbEntity
  8
_0-0_パイプ
  6
Continuous
 62
     7
100
AcDbLine
 10
7180.381410722773
 20
16901.33826594644
 30
0.0
 11
7180.381410722773
 21
16751.3377710668
 31
0.0
  0
LINE
  5
C4
330
22
100
AcDbEntity
  8
_0-0_パイプ
  6
Continuous
 62
     7
100
AcDbLine
 10
7180.381410722773
 20
16751.3377710668
 30
0.0
 11
7105.37992608384
 21
16751.3377710668
 31
0.0
  0
LINE
  5
C5
330
22
100
AcDbEntity
  8
_0-0_パイプ
  6
Continuous
 62
     7
100
AcDbLine
 10
7180.381410722773
 20
16781.33737516308
 30
0.0
 11
7157.879233252336
 21
16781.33737516308
 31
0.0
  0
LINE
  5
C6
330
22
100
AcDbEntity
  8
_0-0_パイプ
  6
Continuous
 62
     7
100
AcDbLine
 10
7127.879629156048
 20
16781.33737516308
 30
0.0
 11
7105.37992608384
 21
16781.33737516308
 31
0.0
  0
LINE
  5
C7
330
22
100
AcDbEntity
  8
_0-0_パイプ
  6
Continuous
 62
     7
100
AcDbLine
 10
6892.881080803011
 20
16826.33801850662
 30
0.0
 11
6892.881080803011
 21
16926.33834842638
 31
0.0
  0
LINE
  5
C8
330
22
100
AcDbEntity
  8
_0-0_パイプ
  6
Continuous
 62
     7
100
AcDbLine
 10
7392.880256003602
 20
16826.33801850662
 30
0.0
 11
6892.881080803011
 21
16826.33801850662
 31
0.0
  0
LINE
  5
C9
330
22
100
AcDbEntity
  8
_0-0_パイプ
  6
Continuous
 62
     7
100
AcDbLine
 10
6892.881080803011
 20
16926.33834842638
 30
0.0
 11
7392.880256003602
 21
16926.33834842638
 31
0.0
  0
LINE
  5
CA
330
22
100
AcDbEntity
  8
_0-0_パイプ
  6
Continuous
 62
     7
100
AcDbLine
 10
7292.879926083838
 20
22481.33762260291
 30
0.0
 11
7342.120450788228
 21
22490.02028597917
 31
0.0
  0
LINE
  5
CB
330
22
100
AcDbEntity
  8
_0-0_パイプ
  6
Continuous
 62
     7
100
AcDbLine
 10
7342.880091043719
 20
22406.3386123622
 30
0.0
 11
7342.880091043719
 21
22506.33894228196
 31
0.0
  0
LINE
  5
CC
330
22
100
AcDbEntity
  8
_0-0_パイプ
  6
Continuous
 62
     7
100
AcDbLine
 10
7292.879926083838
 20
22431.33993204125
 30
0.0
 11
7342.120450788228
 21
22422.65726866499
 31
0.0
  0
LINE
  5
CD
330
22
100
AcDbEntity
  8
_0-0_パイプ
  6
Continuous
 62
     7
100
AcDbLine
 10
7342.880091043719
 20
22506.33894228196
 30
0.0
 11
7542.880750883248
 21
22506.33894228196
 31
0.0
  0
LINE
  5
CE
330
22
100
AcDbEntity
  8
_0-0_パイプ
  6
Continuous
 62
     7
100
AcDbLine
 10
7542.880750883248
 20
22406.3386123622
 30
0.0
 11
7542.880750883248
 21
22506.33894228196
 31
0.0
  0
LINE
  5
CF
330
22
100
AcDbEntity
  8
_0-0_パイプ
  6
Continuous
 62
     7
100
AcDbLine
 10
7542.880750883248
 20
22406.3386123622
 30
0.0
 11
7342.880091043719
 21
22406.3386123622
 31
0.0
  0
LINE
  5
D0
330
22
100
AcDbEntity
  8
_0-0_パイプ
  6
Continuous
 62
     7
100
AcDbLine
 10
7392.880256003602
 20
16926.33834842638
 30
0.0
 11
7392.880256003602
 21
16826.33801850662
 31
0.0
  0
LINE
  5
D1
330
22
100
AcDbEntity
  8
_0-0_パイプ
  6
Continuous
 62
     7
100
AcDbLine
 10
7117.863265135781
 20
22351.34016298508
 30
0.0
 11
7132.887811166185
 21
22351.34016298508
 31
0.0
  0
LINE
  5
D2
330
22
100
AcDbEntity
  8
_0-0_パイプ
  6
Continuous
 62
     7
100
AcDbLine
 10
7152.873525640423
 20
22351.34016298508
 30
0.0
 11
7167.895597272607
 21
22351.34016298508
 31
0.0
  0
LINE
  5
D3
330
22
100
AcDbEntity
  8
ADD_LINE
  6
DOT
 62
     7
100
AcDbLine
 10
6924.803292321169
 20
19661.34019597706
 30
0.0
 11
7382.648619337638
 21
19661.34019597706
 31
0.0
  0
LINE
  5
D4
330
22
100
AcDbEntity
  8
ADD_LINE
  6
DOT
 62
     7
100
AcDbLine
 10
7142.879431204192
 20
22231.85642143103
 30
0.0
 11
7142.879431204192
 21
22524.44411410417
 31
0.0
  0
LINE
  5
D5
330
22
100
AcDbEntity
  8
_0-0_パイプ
  6
Continuous
 62
     7
100
AcDbLine
 10
7117.863265135781
 20
22321.3405588888
 30
0.0
 11
7117.863265135781
 21
22421.34088880856
 31
0.0
  0
LINE
  5
D6
330
22
100
AcDbEntity
  8
_0-0_パイプ
  6
Continuous
 62
     7
100
AcDbLine
 10
7167.863430095666
 20
22421.34088880856
 30
0.0
 11
7167.863430095666
 21
22321.3405588888
 31
0.0
  0
LINE
  5
D7
330
22
100
AcDbEntity
  8
ADD_LINE
  6
DOT
 62
     2
100
AcDbLine
 10
7127.879629156048
 20
19566.33938767364
 30
0.0
 11
7157.879233252336
 21
19566.33938767364
 31
0.0
  0
LINE
  5
D8
330
22
100
AcDbEntity
  8
_0-0_パイプ
  6
Continuous
 62
     7
100
AcDbLine
 10
7047.879860099886
 20
22681.33828244244
 30
0.0
 11
7237.881476706727
 21
22681.33828244244
 31
0.0
  0
LINE
  5
D9
330
22
100
AcDbEntity
  8
_0-0_パイプ
  6
Continuous
 62
     7
100
AcDbLine
 10
6994.380896047942
 20
14681.33663284361
 30
0.0
 11
7291.380440758669
 21
14681.33663284361
 31
0.0
  0
LINE
  5
DA
330
22
100
AcDbEntity
  8
_0-0_パイプ
  6
Continuous
 62
     7
100
AcDbLine
 10
7237.881476706727
 20
22681.33828244244
 30
0.0
 11
7291.380440758669
 21
14681.33663284361
 31
0.0
  0
LINE
  5
DB
330
22
100
AcDbEntity
  8
_0-0_パイプ
  6
Continuous
 62
     7
100
AcDbLine
 10
6505.078544379869
 20
16181.33663284361
 30
0.0
 11
6505.078544379869
 21
16381.33729268314
 31
0.0
  0
LINE
  5
DC
330
22
100
AcDbEntity
  8
_0-0_パイプ
  6
Continuous
 62
     7
100
AcDbLine
 10
7780.680318028515
 20
16181.33663284361
 30
0.0
 11
7780.680318028515
 21
16381.33729268314
 31
0.0
  0
LINE
  5
DD
330
22
100
AcDbEntity
  8
_0-0_パイプ
  6
Continuous
 62
     7
100
AcDbLine
 10
6505.078544379869
 20
16381.33729268314
 30
0.0
 11
7005.748281499798
 21
16381.33729268314
 31
0.0
  0
LINE
  5
DE
330
22
100
AcDbEntity
  8
_0-0_パイプ
  6
Continuous
 62
     7
100
AcDbLine
 10
7004.412106457569
 20
16181.33663284361
 30
0.0
 11
6505.078544379869
 21
16181.33663284361
 31
0.0
  0
LINE
  5
DF
330
22
100
AcDbEntity
  8
_0-0_パイプ
  6
Continuous
 62
     7
100
AcDbLine
 10
7780.680318028515
 20
16381.33729268314
 30
0.0
 11
7280.010580908582
 21
16381.33729268314
 31
0.0
  0
LINE
  5
E0
330
22
100
AcDbEntity
  8
_0-0_パイプ
  6
Continuous
 62
     7
100
AcDbLine
 10
7281.349230349042
 20
16181.33663284361
 30
0.0
 11
7780.680318028515
 21
16181.33663284361
 31
0.0
  0
LINE
  5
E1
330
22
100
AcDbEntity
  8
_0-0_パイプ
  6
Continuous
 62
     7
100
AcDbLine
 10
6917.87992608384
 20
16256.33564308432
 30
0.0
 11
6917.87992608384
 21
16306.33580804421
 31
0.0
  0
LINE
  5
E2
330
22
100
AcDbEntity
  8
_0-0_パイプ
  6
Continuous
 62
     7
100
AcDbLine
 10
6917.87992608384
 20
16306.33580804421
 30
0.0
 11
7367.881410722773
 21
16306.33580804421
 31
0.0
  0
LINE
  5
E3
330
22
100
AcDbEntity
  8
_0-0_パイプ
  6
Continuous
 62
     7
100
AcDbLine
 10
7367.881410722773
 20
16306.33580804421
 30
0.0
 11
7367.881410722773
 21
16256.33564308432
 31
0.0
  0
LINE
  5
E4
330
22
100
AcDbEntity
  8
_0-0_パイプ
  6
Continuous
 62
     7
100
AcDbLine
 10
7367.881410722773
 20
16256.33564308432
 30
0.0
 11
6917.87992608384
 21
16256.33564308432
 31
0.0
  0
LINE
  5
E5
330
22
100
AcDbEntity
  8
_0-0_パイプ
  6
Continuous
 62
     7
100
AcDbLine
 10
13992.87976112396
 20
22381.3422414796
 30
0.0
 11
13992.87976112396
 21
22481.33762260291
 31
0.0
  0
LINE
  5
E6
330
22
100
AcDbEntity
  8
_0-0_パイプ
  6
Continuous
 62
     7
100
AcDbLine
 10
13992.87976112396
 20
22481.33762260291
 30
0.0
 11
14292.88075088324
 21
22481.33762260291
 31
0.0
  0
LINE
  5
E7
330
22
100
AcDbEntity
  8
_0-0_パイプ
  6
Continuous
 62
     7
100
AcDbLine
 10
13992.87976112396
 20
22431.33993204125
 30
0.0
 11
14292.88075088324
 21
22431.33993204125
 31
0.0
  0
LINE
  5
E8
330
22
100
AcDbEntity
  8
_0-0_パイプ
  6
Continuous
 62
     7
100
AcDbLine
 10
14292.88075088324
 20
22481.33762260291
 30
0.0
 11
14292.88075088324
 21
22381.3422414796
 31
0.0
  0
LINE
  5
E9
330
22
100
AcDbEntity
  8
_0-0_パイプ
  6
Continuous
 62
     7
100
AcDbLine
 10
14117.86408993519
 20
22421.34088880856
 30
0.0
 11
14167.86425489507
 21
22421.34088880856
 31
0.0
  0
LINE
  5
EA
330
22
100
AcDbEntity
  8
_0-0_パイプ
  6
Continuous
 62
     7
100
AcDbLine
 10
14167.86425489507
 20
22321.3405588888
 30
0.0
 11
14117.86408993519
 21
22321.3405588888
 31
0.0
  0
LINE
  5
EB
330
22
100
AcDbEntity
  8
_0-0_パイプ
  6
Continuous
 62
     7
100
AcDbLine
 10
13992.87976112396
 20
22381.3422414796
 30
0.0
 11
14117.86408993519
 21
22381.3422414796
 31
0.0
  0
LINE
  5
EC
330
22
100
AcDbEntity
  8
_0-0_パイプ
  6
Continuous
 62
     7
100
AcDbLine
 10
14167.86425489507
 20
22381.3422414796
 30
0.0
 11
14292.88075088324
 21
22381.3422414796
 31
0.0
  0
LINE
  5
ED
330
22
100
AcDbEntity
  8
_0-0_パイプ
  6
Continuous
 62
     7
100
AcDbLine
 10
14117.86408993519
 20
22351.34016298508
 30
0.0
 11
14132.88616156737
 21
22351.34016298508
 31
0.0
  0
LINE
  5
EE
330
22
100
AcDbEntity
  8
_0-0_パイプ
  6
Continuous
 62
     7
100
AcDbLine
 10
14152.87435043983
 20
22351.34016298508
 30
0.0
 11
14167.89642207201
 21
22351.34016298508
 31
0.0
  0
LINE
  5
EF
330
22
100
AcDbEntity
  8
_0-0_パイプ
  6
Continuous
 62
     7
100
AcDbLine
 10
14117.86408993519
 20
22321.3405588888
 30
0.0
 11
14117.86408993519
 21
22421.34088880856
 31
0.0
  0
LINE
  5
F0
330
22
100
AcDbEntity
  8
_0-0_パイプ
  6
Continuous
 62
     7
100
AcDbLine
 10
14167.86425489507
 20
22421.34088880856
 30
0.0
 11
14167.86425489507
 21
22321.3405588888
 31
0.0
  0
LINE
  5
F1
330
22
100
AcDbEntity
  8
_0-0_パイプ
  6
Continuous
 62
     7
100
AcDbLine
 10
14047.88068489929
 20
22681.33828244244
 30
0.0
 11
14237.87982710791
 21
22681.33828244244
 31
0.0
  0
LINE
  5
F2
330
22
100
AcDbEntity
  8
_0-0_パイプ
  6
Continuous
 62
     7
100
AcDbLine
 10
13994.37924644912
 20
14681.33663284361
 30
0.0
 11
14291.38126555808
 21
14681.33663284361
 31
0.0
  0
LINE
  5
F3
330
22
100
AcDbEntity
  8
_0-0_パイプ
  6
Continuous
 62
     7
100
AcDbLine
 10
13994.37924644912
 20
14681.33663284361
 30
0.0
 11
14047.88068489929
 21
22681.33828244244
 31
0.0
  0
LINE
  5
F4
330
22
100
AcDbEntity
  8
_0-0_パイプ
  6
Continuous
 62
     7
100
AcDbLine
 10
14237.87982710791
 20
22681.33828244244
 30
0.0
 11
14291.38126555808
 21
14681.33663284361
 31
0.0
  0
LINE
  5
F5
330
22
100
AcDbEntity
  8
_0-0_パイプ
  6
Continuous
 62
     7
100
AcDbLine
 10
13505.07936917927
 20
16181.33663284361
 30
0.0
 11
13505.07936917927
 21
16381.33729268314
 31
0.0
  0
LINE
  5
F6
330
22
100
AcDbEntity
  8
_0-0_パイプ
  6
Continuous
 62
     7
100
AcDbLine
 10
14780.68114282792
 20
16181.33663284361
 30
0.0
 11
14780.68114282792
 21
16381.33729268314
 31
0.0
  0
LINE
  5
F7
330
22
100
AcDbEntity
  8
_0-0_パイプ
  6
Continuous
 62
     7
100
AcDbLine
 10
13505.07936917927
 20
16381.33729268314
 30
0.0
 11
14005.74910629921
 21
16381.33729268314
 31
0.0
  0
LINE
  5
F8
330
22
100
AcDbEntity
  8
_0-0_パイプ
  6
Continuous
 62
     7
100
AcDbLine
 10
14004.41045685875
 20
16181.33663284361
 30
0.0
 11
13505.07936917927
 21
16181.33663284361
 31
0.0
  0
LINE
  5
F9
330
22
100
AcDbEntity
  8
_0-0_パイプ
  6
Continuous
 62
     7
100
AcDbLine
 10
14780.68114282792
 20
16381.33729268314
 30
0.0
 11
14280.01140570799
 21
16381.33729268314
 31
0.0
  0
LINE
  5
FA
330
22
100
AcDbEntity
  8
_0-0_パイプ
  6
Continuous
 62
     7
100
AcDbLine
 10
14281.35005514844
 20
16181.33663284361
 30
0.0
 11
14780.68114282792
 21
16181.33663284361
 31
0.0
  0
LINE
  5
FB
330
22
100
AcDbEntity
  8
_0-0_パイプ
  6
Continuous
 62
     7
100
AcDbLine
 10
13917.88075088324
 20
16256.33564308432
 30
0.0
 11
13917.88075088324
 21
16306.33580804421
 31
0.0
  0
LINE
  5
FC
330
22
100
AcDbEntity
  8
_0-0_パイプ
  6
Continuous
 62
     7
100
AcDbLine
 10
13917.88075088324
 20
16306.33580804421
 30
0.0
 11
14367.87976112396
 21
16306.33580804421
 31
0.0
  0
LINE
  5
FD
330
22
100
AcDbEntity
  8
_0-0_パイプ
  6
Continuous
 62
     7
100
AcDbLine
 10
14367.87976112396
 20
16306.33580804421
 30
0.0
 11
14367.87976112396
 21
16256.33564308432
 31
0.0
  0
LINE
  5
FE
330
22
100
AcDbEntity
  8
_0-0_パイプ
  6
Continuous
 62
     7
100
AcDbLine
 10
14367.87976112396
 20
16256.33564308432
 30
0.0
 11
13917.88075088324
 21
16256.33564308432
 31
0.0
  0
LINE
  5
FF
330
22
100
AcDbEntity
  8
ADD_LINE
  6
DOT
 62
     7
100
AcDbLine
 10
14007.75584326078
 20
16681.33704524332
 30
0.0
 11
14278.00466874642
 21
16681.33704524332
 31
0.0
  0
LINE
  5
100
330
22
100
AcDbEntity
  8
_0-0_パイプ
  6
Continuous
 62
     7
100
AcDbLine
 10
13992.87976112396
 20
22481.33762260291
 30
0.0
 11
13943.63923641956
 21
22490.02028597917
 31
0.0
  0
LINE
  5
101
330
22
100
AcDbEntity
  8
_0-0_パイプ
  6
Continuous
 62
     7
100
AcDbLine
 10
13942.87959616407
 20
22406.3386123622
 30
0.0
 11
13942.87959616407
 21
22506.33894228196
 31
0.0
  0
LINE
  5
102
330
22
100
AcDbEntity
  8
_0-0_パイプ
  6
Continuous
 62
     7
100
AcDbLine
 10
13992.87976112396
 20
22431.33993204125
 30
0.0
 11
13943.63923641956
 21
22422.65726866499
 31
0.0
  0
LINE
  5
103
330
22
100
AcDbEntity
  8
_0-0_パイプ
  6
Continuous
 62
     7
100
AcDbLine
 10
13942.87959616407
 20
22506.33894228196
 30
0.0
 11
13742.87893632455
 21
22506.33894228196
 31
0.0
  0
LINE
  5
104
330
22
100
AcDbEntity
  8
_0-0_パイプ
  6
Continuous
 62
     7
100
AcDbLine
 10
13742.87893632455
 20
22406.3386123622
 30
0.0
 11
13742.87893632455
 21
22506.33894228196
 31
0.0
  0
LINE
  5
105
330
22
100
AcDbEntity
  8
_0-0_パイプ
  6
Continuous
 62
     7
100
AcDbLine
 10
13742.87893632455
 20
22406.3386123622
 30
0.0
 11
13942.87959616407
 21
22406.3386123622
 31
0.0
  0
LINE
  5
106
330
22
100
AcDbEntity
  8
_0-0_パイプ
  6
Continuous
 62
     7
100
AcDbLine
 10
7542.880750883248
 20
22411.33937117765
 30
0.0
 11
13742.87893632455
 21
22411.33937117765
 31
0.0
  0
LINE
  5
107
330
22
100
AcDbEntity
  8
_0-0_パイプ
  6
Continuous
 62
     7
100
AcDbLine
 10
7542.880750883248
 20
22501.34065786473
 30
0.0
 11
13742.87893632455
 21
22501.34065786473
 31
0.0
  0
LINE
  5
108
330
22
100
AcDbEntity
  8
_0-2_メッセン
  6
Continuous
 62
     6
100
AcDbLine
 10
7167.895597272607
 20
22351.34016298508
 30
0.0
 11
14117.86408993519
 21
22351.34016298508
 31
0.0
  0
LINE
  5
109
330
22
100
AcDbEntity
  8
_0-0_パイプ
  6
Continuous
 62
     7
100
AcDbLine
 10
28292.88240048207
 20
22431.33993204125
 30
0.0
 11
27992.88141072277
 21
22431.33993204125
 31
0.0
  0
LINE
  5
10A
330
22
100
AcDbEntity
  8
_0-0_パイプ
  6
Continuous
 62
     7
100
AcDbLine
 10
28292.88240048207
 20
22381.3422414796
 30
0.0
 11
28292.88240048207
 21
22431.33993204125
 31
0.0
  0
LINE
  5
10B
330
22
100
AcDbEntity
  8
_0-0_パイプ
  6
Continuous
 62
     7
100
AcDbLine
 10
28167.89807167083
 20
22421.34088880856
 30
0.0
 11
28117.89790671095
 21
22421.34088880856
 31
0.0
  0
LINE
  5
10C
330
22
100
AcDbEntity
  8
_0-0_パイプ
  6
Continuous
 62
     7
100
AcDbLine
 10
28117.89790671095
 20
22321.3405588888
 30
0.0
 11
28167.89807167083
 21
22321.3405588888
 31
0.0
  0
LINE
  5
10D
330
22
100
AcDbEntity
  8
_0-0_パイプ
  6
Continuous
 62
     7
100
AcDbLine
 10
28292.88240048207
 20
22381.3422414796
 30
0.0
 11
28167.89807167083
 21
22381.3422414796
 31
0.0
  0
LINE
  5
10E
330
22
100
AcDbEntity
  8
_0-0_パイプ
  6
Continuous
 62
     7
100
AcDbLine
 10
28117.89790671095
 20
22381.3422414796
 30
0.0
 11
27992.88141072277
 21
22381.3422414796
 31
0.0
  0
LINE
  5
10F
330
22
100
AcDbEntity
  8
_0-0_パイプ
  6
Continuous
 62
     7
100
AcDbLine
 10
28167.89807167083
 20
22351.34016298508
 30
0.0
 11
28152.87600003865
 21
22351.34016298508
 31
0.0
  0
LINE
  5
110
330
22
100
AcDbEntity
  8
_0-0_パイプ
  6
Continuous
 62
     7
100
AcDbLine
 10
28132.88781116619
 20
22351.34016298508
 30
0.0
 11
28117.865739534
 21
22351.34016298508
 31
0.0
  0
LINE
  5
111
330
22
100
AcDbEntity
  8
ADD_LINE
  6
DOT
 62
     7
100
AcDbLine
 10
28142.88190560241
 20
22231.85642143103
 30
0.0
 11
28142.88190560241
 21
22524.44411410417
 31
0.0
  0
LINE
  5
112
330
22
100
AcDbEntity
  8
_0-0_パイプ
  6
Continuous
 62
     7
100
AcDbLine
 10
28167.89807167083
 20
22321.3405588888
 30
0.0
 11
28167.89807167083
 21
22421.34088880856
 31
0.0
  0
LINE
  5
113
330
22
100
AcDbEntity
  8
_0-0_パイプ
  6
Continuous
 62
     7
100
AcDbLine
 10
28117.89790671095
 20
22421.34088880856
 30
0.0
 11
28117.89790671095
 21
22321.3405588888
 31
0.0
  0
LINE
  5
114
330
22
100
AcDbEntity
  8
_0-0_パイプ
  6
Continuous
 62
     7
100
AcDbLine
 10
27992.88141072277
 20
22431.33993204125
 30
0.0
 11
27992.88141072277
 21
22381.3422414796
 31
0.0
  0
LINE
  5
115
330
22
100
AcDbEntity
  8
_0-0_パイプ
  6
Continuous
 62
     7
100
AcDbLine
 10
28237.88147670672
 20
22681.33828244244
 30
0.0
 11
28047.88233449811
 21
22681.33828244244
 31
0.0
  0
LINE
  5
116
330
22
100
AcDbEntity
  8
_0-0_パイプ
  6
Continuous
 62
     7
100
AcDbLine
 10
28291.38044075866
 20
14681.33663284361
 30
0.0
 11
27994.38337044616
 21
14681.33663284361
 31
0.0
  0
LINE
  5
117
330
22
100
AcDbEntity
  8
_0-0_パイプ
  6
Continuous
 62
     7
100
AcDbLine
 10
28291.38044075866
 20
14681.33663284361
 30
0.0
 11
28237.88147670672
 21
22681.33828244244
 31
0.0
  0
LINE
  5
118
330
22
100
AcDbEntity
  8
_0-0_パイプ
  6
Continuous
 62
     7
100
AcDbLine
 10
28047.88233449811
 20
22681.33828244244
 30
0.0
 11
27994.38337044616
 21
14681.33663284361
 31
0.0
  0
LINE
  5
119
330
22
100
AcDbEntity
  8
_0-0_パイプ
  6
Continuous
 62
     7
100
AcDbLine
 10
28780.68279242674
 20
16181.33663284361
 30
0.0
 11
28780.68279242674
 21
16381.33729268314
 31
0.0
  0
LINE
  5
11A
330
22
100
AcDbEntity
  8
_0-0_パイプ
  6
Continuous
 62
     7
100
AcDbLine
 10
27505.08101877809
 20
16181.33663284361
 30
0.0
 11
27505.08101877809
 21
16381.33729268314
 31
0.0
  0
LINE
  5
11B
330
22
100
AcDbEntity
  8
_0-0_パイプ
  6
Continuous
 62
     7
100
AcDbLine
 10
28780.68279242674
 20
16381.33729268314
 30
0.0
 11
28280.01305530681
 21
16381.33729268314
 31
0.0
  0
LINE
  5
11C
330
22
100
AcDbEntity
  8
_0-0_パイプ
  6
Continuous
 62
     7
100
AcDbLine
 10
28281.34923034904
 20
16181.33663284361
 30
0.0
 11
28780.68279242674
 21
16181.33663284361
 31
0.0
  0
LINE
  5
11D
330
22
100
AcDbEntity
  8
_0-0_パイプ
  6
Continuous
 62
     7
100
AcDbLine
 10
27505.08101877809
 20
16381.33729268314
 30
0.0
 11
28005.75075589802
 21
16381.33729268314
 31
0.0
  0
LINE
  5
11E
330
22
100
AcDbEntity
  8
_0-0_パイプ
  6
Continuous
 62
     7
100
AcDbLine
 10
28004.4145808558
 20
16181.33663284361
 30
0.0
 11
27505.08101877809
 21
16181.33663284361
 31
0.0
  0
LINE
  5
11F
330
22
100
AcDbEntity
  8
_0-0_パイプ
  6
Continuous
 62
     7
100
AcDbLine
 10
28367.88141072277
 20
16256.33564308432
 30
0.0
 11
28367.88141072277
 21
16306.33580804421
 31
0.0
  0
LINE
  5
120
330
22
100
AcDbEntity
  8
_0-0_パイプ
  6
Continuous
 62
     7
100
AcDbLine
 10
28367.88141072277
 20
16306.33580804421
 30
0.0
 11
27917.88240048207
 21
16306.33580804421
 31
0.0
  0
LINE
  5
121
330
22
100
AcDbEntity
  8
_0-0_パイプ
  6
Continuous
 62
     7
100
AcDbLine
 10
27917.88240048207
 20
16306.33580804421
 30
0.0
 11
27917.88240048207
 21
16256.33564308432
 31
0.0
  0
LINE
  5
122
330
22
100
AcDbEntity
  8
_0-0_パイプ
  6
Continuous
 62
     7
100
AcDbLine
 10
27917.88240048207
 20
16256.33564308432
 30
0.0
 11
28367.88141072277
 21
16256.33564308432
 31
0.0
  0
LINE
  5
123
330
22
100
AcDbEntity
  8
ADD_LINE
  6
DOT
 62
     7
100
AcDbLine
 10
28278.00631834524
 20
16681.33704524332
 30
0.0
 11
28007.7574928596
 21
16681.33704524332
 31
0.0
  0
LINE
  5
124
330
22
100
AcDbEntity
  8
_0-0_パイプ
  6
Continuous
 62
     7
100
AcDbLine
 10
20992.88058592337
 20
22431.33993204125
 30
0.0
 11
21292.88157568265
 21
22431.33993204125
 31
0.0
  0
LINE
  5
125
330
22
100
AcDbEntity
  8
_0-0_パイプ
  6
Continuous
 62
     7
100
AcDbLine
 10
20992.88058592337
 20
22381.3422414796
 30
0.0
 11
20992.88058592337
 21
22431.33993204125
 31
0.0
  0
LINE
  5
126
330
22
100
AcDbEntity
  8
_0-0_パイプ
  6
Continuous
 62
     7
100
AcDbLine
 10
21117.8649147346
 20
22421.34088880856
 30
0.0
 11
21167.86507969448
 21
22421.34088880856
 31
0.0
  0
LINE
  5
127
330
22
100
AcDbEntity
  8
_0-0_パイプ
  6
Continuous
 62
     7
100
AcDbLine
 10
21167.86507969448
 20
22321.3405588888
 30
0.0
 11
21117.8649147346
 21
22321.3405588888
 31
0.0
  0
LINE
  5
128
330
22
100
AcDbEntity
  8
_0-0_パイプ
  6
Continuous
 62
     7
100
AcDbLine
 10
20992.88058592337
 20
22381.3422414796
 30
0.0
 11
21117.8649147346
 21
22381.3422414796
 31
0.0
  0
LINE
  5
129
330
22
100
AcDbEntity
  8
_0-0_パイプ
  6
Continuous
 62
     7
100
AcDbLine
 10
21167.86507969448
 20
22381.3422414796
 30
0.0
 11
21292.88157568265
 21
22381.3422414796
 31
0.0
  0
LINE
  5
12A
330
22
100
AcDbEntity
  8
_0-0_パイプ
  6
Continuous
 62
     7
100
AcDbLine
 10
21117.8649147346
 20
22351.34016298508
 30
0.0
 11
21132.88698636678
 21
22351.34016298508
 31
0.0
  0
LINE
  5
12B
330
22
100
AcDbEntity
  8
_0-0_パイプ
  6
Continuous
 62
     7
100
AcDbLine
 10
21152.87517523924
 20
22351.34016298508
 30
0.0
 11
21167.89724687142
 21
22351.34016298508
 31
0.0
  0
LINE
  5
12C
330
22
100
AcDbEntity
  8
ADD_LINE
  6
DOT
 62
     7
100
AcDbLine
 10
21142.88108080301
 20
22231.85642143103
 30
0.0
 11
21142.88108080301
 21
22524.44411410417
 31
0.0
  0
LINE
  5
12D
330
22
100
AcDbEntity
  8
_0-0_パイプ
  6
Continuous
 62
     7
100
AcDbLine
 10
21117.8649147346
 20
22321.3405588888
 30
0.0
 11
21117.8649147346
 21
22421.34088880856
 31
0.0
  0
LINE
  5
12E
330
22
100
AcDbEntity
  8
_0-0_パイプ
  6
Continuous
 62
     7
100
AcDbLine
 10
21167.86507969448
 20
22421.34088880856
 30
0.0
 11
21167.86507969448
 21
22321.3405588888
 31
0.0
  0
LINE
  5
12F
330
22
100
AcDbEntity
  8
_0-0_パイプ
  6
Continuous
 62
     7
100
AcDbLine
 10
21292.88157568265
 20
22431.33993204125
 30
0.0
 11
21292.88157568265
 21
22381.3422414796
 31
0.0
  0
LINE
  5
130
330
22
100
AcDbEntity
  8
_0-0_パイプ
  6
Continuous
 62
     7
100
AcDbLine
 10
21047.8815096987
 20
22681.33828244244
 30
0.0
 11
21237.88065190732
 21
22681.33828244244
 31
0.0
  0
LINE
  5
131
330
22
100
AcDbEntity
  8
_0-0_パイプ
  6
Continuous
 62
     7
100
AcDbLine
 10
20994.38254564676
 20
14681.33663284361
 30
0.0
 11
21291.37961595926
 21
14681.33663284361
 31
0.0
  0
LINE
  5
132
330
22
100
AcDbEntity
  8
_0-0_パイプ
  6
Continuous
 62
     7
100
AcDbLine
 10
20994.38254564676
 20
14681.33663284361
 30
0.0
 11
21047.8815096987
 21
22681.33828244244
 31
0.0
  0
LINE
  5
133
330
22
100
AcDbEntity
  8
_0-0_パイプ
  6
Continuous
 62
     7
100
AcDbLine
 10
21237.88065190732
 20
22681.33828244244
 30
0.0
 11
21291.37961595926
 21
14681.33663284361
 31
0.0
  0
LINE
  5
134
330
22
100
AcDbEntity
  8
_0-0_パイプ
  6
Continuous
 62
     7
100
AcDbLine
 10
20505.08019397869
 20
16181.33663284361
 30
0.0
 11
20505.08019397869
 21
16381.33729268314
 31
0.0
  0
LINE
  5
135
330
22
100
AcDbEntity
  8
_0-0_パイプ
  6
Continuous
 62
     7
100
AcDbLine
 10
21780.68196762734
 20
16181.33663284361
 30
0.0
 11
21780.68196762734
 21
16381.33729268314
 31
0.0
  0
LINE
  5
136
330
22
100
AcDbEntity
  8
_0-0_パイプ
  6
Continuous
 62
     7
100
AcDbLine
 10
20505.08019397869
 20
16381.33729268314
 30
0.0
 11
21005.74993109862
 21
16381.33729268314
 31
0.0
  0
LINE
  5
137
330
22
100
AcDbEntity
  8
_0-0_パイプ
  6
Continuous
 62
     7
100
AcDbLine
 10
21004.41375605639
 20
16181.33663284361
 30
0.0
 11
20505.08019397869
 21
16181.33663284361
 31
0.0
  0
LINE
  5
138
330
22
100
AcDbEntity
  8
_0-0_パイプ
  6
Continuous
 62
     7
100
AcDbLine
 10
21780.68196762734
 20
16381.33729268314
 30
0.0
 11
21280.0122305074
 21
16381.33729268314
 31
0.0
  0
LINE
  5
139
330
22
100
AcDbEntity
  8
_0-0_パイプ
  6
Continuous
 62
     7
100
AcDbLine
 10
21281.34840554964
 20
16181.33663284361
 30
0.0
 11
21780.68196762734
 21
16181.33663284361
 31
0.0
  0
LINE
  5
13A
330
22
100
AcDbEntity
  8
_0-0_パイプ
  6
Continuous
 62
     7
100
AcDbLine
 10
20917.88157568265
 20
16256.33564308432
 30
0.0
 11
20917.88157568265
 21
16306.33580804421
 31
0.0
  0
LINE
  5
13B
330
22
100
AcDbEntity
  8
_0-0_パイプ
  6
Continuous
 62
     7
100
AcDbLine
 10
20917.88157568265
 20
16306.33580804421
 30
0.0
 11
21367.88058592337
 21
16306.33580804421
 31
0.0
  0
LINE
  5
13C
330
22
100
AcDbEntity
  8
_0-0_パイプ
  6
Continuous
 62
     7
100
AcDbLine
 10
21367.88058592337
 20
16306.33580804421
 30
0.0
 11
21367.88058592337
 21
16256.33564308432
 31
0.0
  0
LINE
  5
13D
330
22
100
AcDbEntity
  8
_0-0_パイプ
  6
Continuous
 62
     7
100
AcDbLine
 10
21367.88058592337
 20
16256.33564308432
 30
0.0
 11
20917.88157568265
 21
16256.33564308432
 31
0.0
  0
LINE
  5
13E
330
22
100
AcDbEntity
  8
ADD_LINE
  6
DOT
 62
     7
100
AcDbLine
 10
21007.75666806019
 20
16681.33704524332
 30
0.0
 11
21278.00549354583
 21
16681.33704524332
 31
0.0
  0
LINE
  5
13F
330
22
100
AcDbEntity
  8
_0-0_パイプ
  6
Continuous
 62
     7
100
AcDbLine
 10
14105.38075088324
 20
16751.3377710668
 30
0.0
 11
14105.38075088324
 21
16901.33826594644
 31
0.0
  0
LINE
  5
140
330
22
100
AcDbEntity
  8
_0-0_パイプ
  6
Continuous
 62
     7
100
AcDbLine
 10
14105.38075088324
 20
16901.33826594644
 30
0.0
 11
14180.37976112396
 21
16901.33826594644
 31
0.0
  0
LINE
  5
141
330
22
100
AcDbEntity
  8
_0-0_パイプ
  6
Continuous
 62
     7
100
AcDbLine
 10
14180.37976112396
 20
16901.33826594644
 30
0.0
 11
14180.37976112396
 21
16751.3377710668
 31
0.0
  0
LINE
  5
142
330
22
100
AcDbEntity
  8
_0-0_パイプ
  6
Continuous
 62
     7
100
AcDbLine
 10
14180.37976112396
 20
16751.3377710668
 30
0.0
 11
14105.38075088324
 21
16751.3377710668
 31
0.0
  0
LINE
  5
143
330
22
100
AcDbEntity
  8
_0-0_パイプ
  6
Continuous
 62
     7
100
AcDbLine
 10
14180.37976112396
 20
16781.33737516308
 30
0.0
 11
14157.88005805174
 21
16781.33737516308
 31
0.0
  0
LINE
  5
144
330
22
100
AcDbEntity
  8
_0-0_パイプ
  6
Continuous
 62
     7
100
AcDbLine
 10
14127.88045395546
 20
16781.33737516308
 30
0.0
 11
14105.38075088324
 21
16781.33737516308
 31
0.0
  0
LINE
  5
145
330
22
100
AcDbEntity
  8
_0-0_パイプ
  6
Continuous
 62
     7
100
AcDbLine
 10
13892.87943120419
 20
16826.33801850662
 30
0.0
 11
13892.87943120419
 21
16926.33834842638
 31
0.0
  0
LINE
  5
146
330
22
100
AcDbEntity
  8
_0-0_パイプ
  6
Continuous
 62
     7
100
AcDbLine
 10
14392.87860640478
 20
16826.33801850662
 30
0.0
 11
13892.87943120419
 21
16826.33801850662
 31
0.0
  0
LINE
  5
147
330
22
100
AcDbEntity
  8
_0-0_パイプ
  6
Continuous
 62
     7
100
AcDbLine
 10
13892.87943120419
 20
16926.33834842638
 30
0.0
 11
14392.87860640478
 21
16926.33834842638
 31
0.0
  0
LINE
  5
148
330
22
100
AcDbEntity
  8
_0-0_パイプ
  6
Continuous
 62
     7
100
AcDbLine
 10
14392.87860640478
 20
16926.33834842638
 30
0.0
 11
14392.87860640478
 21
16826.33801850662
 31
0.0
  0
LINE
  5
149
330
22
100
AcDbEntity
  8
_0-0_パイプ
  6
Continuous
 62
     7
100
AcDbLine
 10
21105.37910128443
 20
16751.3377710668
 30
0.0
 11
21105.37910128443
 21
16901.33826594644
 31
0.0
  0
LINE
  5
14A
330
22
100
AcDbEntity
  8
_0-0_パイプ
  6
Continuous
 62
     7
100
AcDbLine
 10
21105.37910128443
 20
16901.33826594644
 30
0.0
 11
21180.38058592337
 21
16901.33826594644
 31
0.0
  0
LINE
  5
14B
330
22
100
AcDbEntity
  8
_0-0_パイプ
  6
Continuous
 62
     7
100
AcDbLine
 10
21180.38058592337
 20
16901.33826594644
 30
0.0
 11
21180.38058592337
 21
16751.3377710668
 31
0.0
  0
LINE
  5
14C
330
22
100
AcDbEntity
  8
_0-0_パイプ
  6
Continuous
 62
     7
100
AcDbLine
 10
21180.38058592337
 20
16751.3377710668
 30
0.0
 11
21105.37910128443
 21
16751.3377710668
 31
0.0
  0
LINE
  5
14D
330
22
100
AcDbEntity
  8
_0-0_パイプ
  6
Continuous
 62
     7
100
AcDbLine
 10
21180.38058592337
 20
16781.33737516308
 30
0.0
 11
21157.88088285115
 21
16781.33737516308
 31
0.0
  0
LINE
  5
14E
330
22
100
AcDbEntity
  8
_0-0_パイプ
  6
Continuous
 62
     7
100
AcDbLine
 10
21127.88127875487
 20
16781.33737516308
 30
0.0
 11
21105.37910128443
 21
16781.33737516308
 31
0.0
  0
LINE
  5
14F
330
22
100
AcDbEntity
  8
_0-0_パイプ
  6
Continuous
 62
     7
100
AcDbLine
 10
20892.8802560036
 20
16826.33801850662
 30
0.0
 11
20892.8802560036
 21
16926.33834842638
 31
0.0
  0
LINE
  5
150
330
22
100
AcDbEntity
  8
_0-0_パイプ
  6
Continuous
 62
     7
100
AcDbLine
 10
21392.8794312042
 20
16826.33801850662
 30
0.0
 11
20892.8802560036
 21
16826.33801850662
 31
0.0
  0
LINE
  5
151
330
22
100
AcDbEntity
  8
_0-0_パイプ
  6
Continuous
 62
     7
100
AcDbLine
 10
20892.8802560036
 20
16926.33834842638
 30
0.0
 11
21392.8794312042
 21
16926.33834842638
 31
0.0
  0
LINE
  5
152
330
22
100
AcDbEntity
  8
_0-0_パイプ
  6
Continuous
 62
     7
100
AcDbLine
 10
21392.8794312042
 20
16926.33834842638
 30
0.0
 11
21392.8794312042
 21
16826.33801850662
 31
0.0
  0
LINE
  5
153
330
22
100
AcDbEntity
  8
_0-0_パイプ
  6
Continuous
 62
     7
100
AcDbLine
 10
28105.37992608384
 20
16751.3377710668
 30
0.0
 11
28105.37992608384
 21
16901.33826594644
 31
0.0
  0
LINE
  5
154
330
22
100
AcDbEntity
  8
_0-0_パイプ
  6
Continuous
 62
     7
100
AcDbLine
 10
28105.37992608384
 20
16901.33826594644
 30
0.0
 11
28180.37893632455
 21
16901.33826594644
 31
0.0
  0
LINE
  5
155
330
22
100
AcDbEntity
  8
_0-0_パイプ
  6
Continuous
 62
     7
100
AcDbLine
 10
28180.37893632455
 20
16901.33826594644
 30
0.0
 11
28180.37893632455
 21
16751.3377710668
 31
0.0
  0
LINE
  5
156
330
22
100
AcDbEntity
  8
_0-0_パイプ
  6
Continuous
 62
     7
100
AcDbLine
 10
28180.37893632455
 20
16751.3377710668
 30
0.0
 11
28105.37992608384
 21
16751.3377710668
 31
0.0
  0
LINE
  5
157
330
22
100
AcDbEntity
  8
_0-0_パイプ
  6
Continuous
 62
     7
100
AcDbLine
 10
28180.37893632455
 20
16781.33737516308
 30
0.0
 11
28157.87923325233
 21
16781.33737516308
 31
0.0
  0
LINE
  5
158
330
22
100
AcDbEntity
  8
_0-0_パイプ
  6
Continuous
 62
     7
100
AcDbLine
 10
28127.87962915605
 20
16781.33737516308
 30
0.0
 11
28105.37992608384
 21
16781.33737516308
 31
0.0
  0
LINE
  5
159
330
22
100
AcDbEntity
  8
_0-0_パイプ
  6
Continuous
 62
     7
100
AcDbLine
 10
27892.88108080301
 20
16826.33801850662
 30
0.0
 11
27892.88108080301
 21
16926.33834842638
 31
0.0
  0
LINE
  5
15A
330
22
100
AcDbEntity
  8
_0-0_パイプ
  6
Continuous
 62
     7
100
AcDbLine
 10
28392.8802560036
 20
16826.33801850662
 30
0.0
 11
27892.88108080301
 21
16826.33801850662
 31
0.0
  0
LINE
  5
15B
330
22
100
AcDbEntity
  8
_0-0_パイプ
  6
Continuous
 62
     7
100
AcDbLine
 10
27892.88108080301
 20
16926.33834842638
 30
0.0
 11
28392.8802560036
 21
16926.33834842638
 31
0.0
  0
LINE
  5
15C
330
22
100
AcDbEntity
  8
_0-0_パイプ
  6
Continuous
 62
     7
100
AcDbLine
 10
28392.8802560036
 20
16926.33834842638
 30
0.0
 11
28392.8802560036
 21
16826.33801850662
 31
0.0
  0
LINE
  5
15D
330
22
100
AcDbEntity
  8
_0-2_メッセン
  6
Continuous
 62
     6
100
AcDbLine
 10
7180.381410722773
 20
16781.33737516308
 30
0.0
 11
14105.38075088324
 21
16781.33737516308
 31
0.0
  0
LINE
  5
15E
330
22
100
AcDbEntity
  8
_0-0_パイプ
  6
Continuous
 62
     7
100
AcDbLine
 10
13942.87959616407
 20
19611.34003101717
 30
0.0
 11
13942.87959616407
 21
19711.34036093694
 31
0.0
  0
LINE
  5
15F
330
22
100
AcDbEntity
  8
_0-0_パイプ
  6
Continuous
 62
     7
100
AcDbLine
 10
13942.87959616407
 20
19711.34036093694
 30
0.0
 11
14342.8784414449
 21
19711.34036093694
 31
0.0
  0
LINE
  5
160
330
22
100
AcDbEntity
  8
_0-0_パイプ
  6
Continuous
 62
     7
100
AcDbLine
 10
14342.8784414449
 20
19711.34036093694
 30
0.0
 11
14342.8784414449
 21
19611.34003101717
 31
0.0
  0
LINE
  5
161
330
22
100
AcDbEntity
  8
_0-0_パイプ
  6
Continuous
 62
     7
100
AcDbLine
 10
14342.8784414449
 20
19611.34003101717
 30
0.0
 11
13942.87959616407
 21
19611.34003101717
 31
0.0
  0
LINE
  5
162
330
22
100
AcDbEntity
  8
_0-0_パイプ
  6
Continuous
 62
     7
100
AcDbLine
 10
14105.37827648502
 20
19536.33978357736
 30
0.0
 11
14105.37827648502
 21
19686.340278457
 31
0.0
  0
LINE
  5
163
330
22
100
AcDbEntity
  8
_0-0_パイプ
  6
Continuous
 62
     7
100
AcDbLine
 10
14105.37827648502
 20
19686.340278457
 30
0.0
 11
14180.37976112396
 21
19686.340278457
 31
0.0
  0
LINE
  5
164
330
22
100
AcDbEntity
  8
_0-0_パイプ
  6
Continuous
 62
     7
100
AcDbLine
 10
14180.37976112396
 20
19686.340278457
 30
0.0
 11
14180.37976112396
 21
19536.33978357736
 31
0.0
  0
LINE
  5
165
330
22
100
AcDbEntity
  8
_0-0_パイプ
  6
Continuous
 62
     7
100
AcDbLine
 10
14180.37976112396
 20
19536.33978357736
 30
0.0
 11
14105.37827648502
 21
19536.33978357736
 31
0.0
  0
LINE
  5
166
330
22
100
AcDbEntity
  8
_0-0_パイプ
  6
Continuous
 62
     7
100
AcDbLine
 10
14180.37976112396
 20
19566.33938767364
 30
0.0
 11
14157.87758365351
 21
19566.33938767364
 31
0.0
  0
LINE
  5
167
330
22
100
AcDbEntity
  8
_0-0_パイプ
  6
Continuous
 62
     7
100
AcDbLine
 10
14127.87797955723
 20
19566.33938767364
 30
0.0
 11
14105.37827648502
 21
19566.33938767364
 31
0.0
  0
LINE
  5
168
330
22
100
AcDbEntity
  8
ADD_LINE
  6
DOT
 62
     7
100
AcDbLine
 10
13924.80411712058
 20
19661.34019597706
 30
0.0
 11
14382.64944413705
 21
19661.34019597706
 31
0.0
  0
LINE
  5
169
330
22
100
AcDbEntity
  8
ADD_LINE
  6
DOT
 62
     2
100
AcDbLine
 10
14127.87797955723
 20
19566.33938767364
 30
0.0
 11
14157.87758365351
 21
19566.33938767364
 31
0.0
  0
LINE
  5
16A
330
22
100
AcDbEntity
  8
_0-0_パイプ
  6
Continuous
 62
     7
100
AcDbLine
 10
20942.88042096348
 20
19611.34003101717
 30
0.0
 11
20942.88042096348
 21
19711.34036093694
 31
0.0
  0
LINE
  5
16B
330
22
100
AcDbEntity
  8
_0-0_パイプ
  6
Continuous
 62
     7
100
AcDbLine
 10
20942.88042096348
 20
19711.34036093694
 30
0.0
 11
21342.87679184609
 21
19711.34036093694
 31
0.0
  0
LINE
  5
16C
330
22
100
AcDbEntity
  8
_0-0_パイプ
  6
Continuous
 62
     7
100
AcDbLine
 10
21342.87679184609
 20
19711.34036093694
 30
0.0
 11
21342.87679184609
 21
19611.34003101717
 31
0.0
  0
LINE
  5
16D
330
22
100
AcDbEntity
  8
_0-0_パイプ
  6
Continuous
 62
     7
100
AcDbLine
 10
21342.87679184609
 20
19611.34003101717
 30
0.0
 11
20942.88042096348
 21
19611.34003101717
 31
0.0
  0
LINE
  5
16E
330
22
100
AcDbEntity
  8
_0-0_パイプ
  6
Continuous
 62
     7
100
AcDbLine
 10
21105.3766268862
 20
19536.33978357736
 30
0.0
 11
21105.3766268862
 21
19686.340278457
 31
0.0
  0
LINE
  5
16F
330
22
100
AcDbEntity
  8
_0-0_パイプ
  6
Continuous
 62
     7
100
AcDbLine
 10
21105.3766268862
 20
19686.340278457
 30
0.0
 11
21180.37811152514
 21
19686.340278457
 31
0.0
  0
LINE
  5
170
330
22
100
AcDbEntity
  8
_0-0_パイプ
  6
Continuous
 62
     7
100
AcDbLine
 10
21180.37811152514
 20
19686.340278457
 30
0.0
 11
21180.37811152514
 21
19536.33978357736
 31
0.0
  0
LINE
  5
171
330
22
100
AcDbEntity
  8
_0-0_パイプ
  6
Continuous
 62
     7
100
AcDbLine
 10
21180.37811152514
 20
19536.33978357736
 30
0.0
 11
21105.3766268862
 21
19536.33978357736
 31
0.0
  0
LINE
  5
172
330
22
100
AcDbEntity
  8
_0-0_パイプ
  6
Continuous
 62
     7
100
AcDbLine
 10
21180.37811152514
 20
19566.33938767364
 30
0.0
 11
21157.8759340547
 21
19566.33938767364
 31
0.0
  0
LINE
  5
173
330
22
100
AcDbEntity
  8
_0-0_パイプ
  6
Continuous
 62
     7
100
AcDbLine
 10
21127.87632995842
 20
19566.33938767364
 30
0.0
 11
21105.3766268862
 21
19566.33938767364
 31
0.0
  0
LINE
  5
174
330
22
100
AcDbEntity
  8
ADD_LINE
  6
DOT
 62
     7
100
AcDbLine
 10
20924.80246752176
 20
19661.34019597706
 30
0.0
 11
21382.65026893646
 21
19661.34019597706
 31
0.0
  0
LINE
  5
175
330
22
100
AcDbEntity
  8
ADD_LINE
  6
DOT
 62
     2
100
AcDbLine
 10
21127.87632995842
 20
19566.33938767364
 30
0.0
 11
21157.8759340547
 21
19566.33938767364
 31
0.0
  0
LINE
  5
176
330
22
100
AcDbEntity
  8
_0-0_パイプ
  6
Continuous
 62
     7
100
AcDbLine
 10
27942.88124576289
 20
19611.34003101717
 30
0.0
 11
27942.88124576289
 21
19711.34036093694
 31
0.0
  0
LINE
  5
177
330
22
100
AcDbEntity
  8
_0-0_パイプ
  6
Continuous
 62
     7
100
AcDbLine
 10
27942.88124576289
 20
19711.34036093694
 30
0.0
 11
28342.87761664549
 21
19711.34036093694
 31
0.0
  0
LINE
  5
178
330
22
100
AcDbEntity
  8
_0-0_パイプ
  6
Continuous
 62
     7
100
AcDbLine
 10
28342.87761664549
 20
19711.34036093694
 30
0.0
 11
28342.87761664549
 21
19611.34003101717
 31
0.0
  0
LINE
  5
179
330
22
100
AcDbEntity
  8
_0-0_パイプ
  6
Continuous
 62
     7
100
AcDbLine
 10
28342.87761664549
 20
19611.34003101717
 30
0.0
 11
27942.88124576289
 21
19611.34003101717
 31
0.0
  0
LINE
  5
17A
330
22
100
AcDbEntity
  8
_0-0_パイプ
  6
Continuous
 62
     7
100
AcDbLine
 10
28105.37745168561
 20
19536.33978357736
 30
0.0
 11
28105.37745168561
 21
19686.340278457
 31
0.0
  0
LINE
  5
17B
330
22
100
AcDbEntity
  8
_0-0_パイプ
  6
Continuous
 62
     7
100
AcDbLine
 10
28105.37745168561
 20
19686.340278457
 30
0.0
 11
28180.37893632455
 21
19686.340278457
 31
0.0
  0
LINE
  5
17C
330
22
100
AcDbEntity
  8
_0-0_パイプ
  6
Continuous
 62
     7
100
AcDbLine
 10
28180.37893632455
 20
19686.340278457
 30
0.0
 11
28180.37893632455
 21
19536.33978357736
 31
0.0
  0
LINE
  5
17D
330
22
100
AcDbEntity
  8
_0-0_パイプ
  6
Continuous
 62
     7
100
AcDbLine
 10
28180.37893632455
 20
19536.33978357736
 30
0.0
 11
28105.37745168561
 21
19536.33978357736
 31
0.0
  0
LINE
  5
17E
330
22
100
AcDbEntity
  8
_0-0_パイプ
  6
Continuous
 62
     7
100
AcDbLine
 10
28180.37893632455
 20
19566.33938767364
 30
0.0
 11
28157.87675885411
 21
19566.33938767364
 31
0.0
  0
LINE
  5
17F
330
22
100
AcDbEntity
  8
_0-0_パイプ
  6
Continuous
 62
     7
100
AcDbLine
 10
28127.87715475782
 20
19566.33938767364
 30
0.0
 11
28105.37745168561
 21
19566.33938767364
 31
0.0
  0
LINE
  5
180
330
22
100
AcDbEntity
  8
ADD_LINE
  6
DOT
 62
     7
100
AcDbLine
 10
27924.80329232116
 20
19661.34019597706
 30
0.0
 11
28382.65109373586
 21
19661.34019597706
 31
0.0
  0
LINE
  5
181
330
22
100
AcDbEntity
  8
ADD_LINE
  6
DOT
 62
     2
100
AcDbLine
 10
28127.87715475782
 20
19566.33938767364
 30
0.0
 11
28157.87675885411
 21
19566.33938767364
 31
0.0
  0
LINE
  5
182
330
22
100
AcDbEntity
  8
_0-2_メッセン
  6
Continuous
 62
     6
100
AcDbLine
 10
7180.37893632455
 20
19566.33938767364
 30
0.0
 11
14105.37827648502
 21
19566.33938767364
 31
0.0
  0
LINE
  5
183
330
22
100
AcDbEntity
  8
_0-2_メッセン
  6
Continuous
 62
     6
100
AcDbLine
 10
7142.879431204192
 20
22276.15804727562
 30
0.0
 11
7142.879431204192
 21
19686.340278457
 31
0.0
  0
LINE
  5
184
330
22
100
AcDbEntity
  8
ADD_LINE
  6
DOT
 62
     7
100
AcDbLine
 10
7142.879431204192
 20
19536.33978357736
 30
0.0
 11
7142.879431204192
 21
16926.33834842638
 31
0.0
  0
LINE
  5
185
330
22
100
AcDbEntity
  8
_0-2_メッセン
  6
Continuous
 62
     6
100
AcDbLine
 10
7142.879431204192
 20
19536.33978357736
 30
0.0
 11
7142.879431204192
 21
16926.33834842638
 31
0.0
  0
LINE
  5
186
330
22
100
AcDbEntity
  8
_0-2_メッセン
  6
Continuous
 62
     6
100
AcDbLine
 10
14142.8802560036
 20
19536.33978357736
 30
0.0
 11
14142.8802560036
 21
16901.33826594644
 31
0.0
  0
LINE
  5
187
330
22
100
AcDbEntity
  8
_0-2_メッセン
  6
Continuous
 62
     6
100
AcDbLine
 10
7292.879926083838
 20
22381.3422414796
 30
0.0
 11
13892.87943120419
 21
16926.33834842638
 31
0.0
  0
LINE
  5
188
330
22
100
AcDbEntity
  8
_0-2_メッセン
  6
Continuous
 62
     6
100
AcDbLine
 10
13992.87976112396
 20
22381.3422414796
 30
0.0
 11
7392.880256003602
 21
16926.33834842638
 31
0.0
  0
LINE
  5
189
330
22
100
AcDbEntity
  8
_0-0_パイプ
  6
Continuous
 62
     7
100
AcDbLine
 10
6994.380896047942
 20
14681.33663284361
 30
0.0
 11
7047.879860099886
 21
22681.33828244244
 31
0.0
  0
LINE
  5
18A
330
22
100
AcDbEntity
  8
_0-0_パイプ
  6
CENTER1
 62
     4
100
AcDbLine
 10
28142.88190560241
 20
23091.33369655772
 30
0.0
 11
28142.88190560241
 21
12681.33622044391
 31
0.0
  0
LINE
  5
18B
330
22
100
AcDbEntity
  8
_0-0_パイプ
  6
CENTER1
 62
     4
100
AcDbLine
 10
21142.88108080301
 20
23091.33369655772
 30
0.0
 11
21142.88108080301
 21
12681.33622044391
 31
0.0
  0
LINE
  5
18C
330
22
100
AcDbEntity
  8
_0-0_パイプ
  6
CENTER1
 62
     4
100
AcDbLine
 10
14142.8802560036
 20
23091.33369655772
 30
0.0
 11
14142.8802560036
 21
12681.33622044391
 31
0.0
  0
LINE
  5
18D
330
22
100
AcDbEntity
  8
_0-0_パイプ
  6
CENTER1
 62
     4
100
AcDbLine
 10
7142.879431204192
 20
23091.33369655772
 30
0.0
 11
7142.879431204192
 21
12681.33622044391
 31
0.0
  0
LINE
  5
18E
330
22
100
AcDbEntity
  8
_0-2_メッセン
  6
Continuous
 62
     6
100
AcDbLine
 10
7192.879596164075
 20
17276.33702874733
 30
0.0
 11
7192.879596164075
 21
17076.33884330603
 31
0.0
  0
LINE
  5
18F
330
22
100
AcDbEntity
  8
_0-2_メッセン
  6
Continuous
 62
     6
100
AcDbLine
 10
7092.881740642541
 20
17276.33702874733
 30
0.0
 11
7092.881740642541
 21
17076.33884330603
 31
0.0
  0
LINE
  5
190
330
22
100
AcDbEntity
  8
_0-2_メッセン
  6
Continuous
 62
     6
100
AcDbLine
 10
7432.878903332569
 20
17024.26513263247
 30
0.0
 11
7587.028964037807
 21
17151.67560890463
 31
0.0
  0
LINE
  5
191
330
22
100
AcDbEntity
  8
_0-2_メッセン
  6
Continuous
 62
     6
100
AcDbLine
 10
7650.744718366353
 20
17074.5993413529
 30
0.0
 11
7496.572388077082
 21
16947.17401869137
 31
0.0
  0
LINE
  5
192
330
22
100
AcDbEntity
  8
_0-2_メッセン
  6
Continuous
 62
     6
100
AcDbLine
 10
7481.800230665763
 20
16831.33754012296
 30
0.0
 11
7677.339550503181
 21
16831.33754012296
 31
0.0
  0
LINE
  5
193
330
22
100
AcDbEntity
  8
_0-2_メッセン
  6
Continuous
 62
     6
100
AcDbLine
 10
7677.339550503181
 20
16731.3372102032
 30
0.0
 11
7474.270636862977
 21
16731.3372102032
 31
0.0
  0
LINE
  5
194
330
22
100
AcDbEntity
  8
ADD_LINE
  6
DOT
 62
     7
100
AcDbLine
 10
14142.8802560036
 20
22524.44411410417
 30
0.0
 11
14142.8802560036
 21
22231.85642143103
 31
0.0
  0
LINE
  5
195
330
22
100
AcDbEntity
  8
_0-2_メッセン
  6
Continuous
 62
     6
100
AcDbLine
 10
14142.8802560036
 20
22273.03535671397
 30
0.0
 11
14142.8802560036
 21
19686.340278457
 31
0.0
  0
LINE
  5
196
330
22
100
AcDbEntity
  8
_0-2_メッセン
  6
Continuous
 62
     6
100
AcDbLine
 10
14167.86425489507
 20
22351.34016298508
 30
0.0
 11
21117.83027315943
 21
22351.34016298508
 31
0.0
  0
LINE
  5
197
330
22
100
AcDbEntity
  8
_0-2_メッセン
  6
Continuous
 62
     6
100
AcDbLine
 10
14180.34759394702
 20
16781.33737516308
 30
0.0
 11
21105.34940850572
 21
16781.33737516308
 31
0.0
  0
LINE
  5
198
330
22
100
AcDbEntity
  8
_0-2_メッセン
  6
Continuous
 62
     6
100
AcDbLine
 10
14180.34759394702
 20
19566.33938767364
 30
0.0
 11
21105.34445970926
 21
19566.33938767364
 31
0.0
  0
LINE
  5
199
330
22
100
AcDbEntity
  8
_0-2_メッセン
  6
Continuous
 62
     6
100
AcDbLine
 10
21142.84643922784
 20
19536.33978357736
 30
0.0
 11
21142.84643922784
 21
16901.33826594644
 31
0.0
  0
LINE
  5
19A
330
22
100
AcDbEntity
  8
_0-2_メッセン
  6
Continuous
 62
     6
100
AcDbLine
 10
14292.84610930808
 20
22381.3422414796
 30
0.0
 11
20892.84808882666
 21
16926.33834842638
 31
0.0
  0
LINE
  5
19B
330
22
100
AcDbEntity
  8
_0-2_メッセン
  6
Continuous
 62
     6
100
AcDbLine
 10
20992.84841874642
 20
22381.3422414796
 30
0.0
 11
14392.84643922784
 21
16926.33834842638
 31
0.0
  0
LINE
  5
19C
330
22
100
AcDbEntity
  8
_0-2_メッセン
  6
Continuous
 62
     6
100
AcDbLine
 10
14192.84825378654
 20
17276.33702874733
 30
0.0
 11
14192.84825378654
 21
17076.33884330603
 31
0.0
  0
LINE
  5
19D
330
22
100
AcDbEntity
  8
_0-2_メッセン
  6
Continuous
 62
     6
100
AcDbLine
 10
14092.84792386677
 20
17276.33702874733
 30
0.0
 11
14092.84792386677
 21
17076.33884330603
 31
0.0
  0
LINE
  5
19E
330
22
100
AcDbEntity
  8
_0-2_メッセン
  6
Continuous
 62
     6
100
AcDbLine
 10
14432.84508655681
 20
17024.26513263247
 30
0.0
 11
14586.99762166027
 21
17151.67560890463
 31
0.0
  0
LINE
  5
19F
330
22
100
AcDbEntity
  8
_0-2_メッセン
  6
Continuous
 62
     6
100
AcDbLine
 10
14650.71090159059
 20
17074.5993413529
 30
0.0
 11
14496.54104569955
 21
16947.17401869137
 31
0.0
  0
LINE
  5
1A0
330
22
100
AcDbEntity
  8
_0-2_メッセン
  6
Continuous
 62
     6
100
AcDbLine
 10
21142.84643922784
 20
22273.03535671397
 30
0.0
 11
21142.84643922784
 21
19686.340278457
 31
0.0
  0
LINE
  5
1A1
330
22
100
AcDbEntity
  8
_0-2_メッセン
  6
Continuous
 62
     6
100
AcDbLine
 10
21167.89724687142
 20
22351.34016298508
 30
0.0
 11
28117.865739534
 21
22351.34016298508
 31
0.0
  0
LINE
  5
1A2
330
22
100
AcDbEntity
  8
_0-2_メッセン
  6
Continuous
 62
     6
100
AcDbLine
 10
21180.38058592337
 20
16781.33737516308
 30
0.0
 11
28105.37992608384
 21
16781.33737516308
 31
0.0
  0
LINE
  5
1A3
330
22
100
AcDbEntity
  8
_0-2_メッセン
  6
Continuous
 62
     6
100
AcDbLine
 10
21180.38058592337
 20
19566.33938767364
 30
0.0
 11
28105.37992608384
 21
19566.33938767364
 31
0.0
  0
LINE
  5
1A4
330
22
100
AcDbEntity
  8
_0-2_メッセン
  6
Continuous
 62
     6
100
AcDbLine
 10
28142.88190560241
 20
19536.33978357736
 30
0.0
 11
28142.88190560241
 21
16901.33826594644
 31
0.0
  0
LINE
  5
1A5
330
22
100
AcDbEntity
  8
_0-2_メッセン
  6
Continuous
 62
     6
100
AcDbLine
 10
21292.87910128443
 20
22381.3422414796
 30
0.0
 11
27892.88108080301
 21
16926.33834842638
 31
0.0
  0
LINE
  5
1A6
330
22
100
AcDbEntity
  8
_0-2_メッセン
  6
Continuous
 62
     6
100
AcDbLine
 10
27992.87893632455
 20
22381.3422414796
 30
0.0
 11
21392.8794312042
 21
16926.33834842638
 31
0.0
  0
LINE
  5
1A7
330
22
100
AcDbEntity
  8
_0-2_メッセン
  6
Continuous
 62
     6
100
AcDbLine
 10
21192.88124576289
 20
17276.33702874733
 30
0.0
 11
21192.88124576289
 21
17076.33884330603
 31
0.0
  0
LINE
  5
1A8
330
22
100
AcDbEntity
  8
_0-2_メッセン
  6
Continuous
 62
     6
100
AcDbLine
 10
21092.88091584313
 20
17276.33702874733
 30
0.0
 11
21092.88091584313
 21
17076.33884330603
 31
0.0
  0
LINE
  5
1A9
330
22
100
AcDbEntity
  8
_0-2_メッセン
  6
Continuous
 62
     6
100
AcDbLine
 10
21432.87807853317
 20
17024.26513263247
 30
0.0
 11
21587.03061363663
 21
17151.67560890463
 31
0.0
  0
LINE
  5
1AA
330
22
100
AcDbEntity
  8
_0-2_メッセン
  6
Continuous
 62
     6
100
AcDbLine
 10
21650.74389356695
 20
17074.5993413529
 30
0.0
 11
21496.57156327768
 21
16947.17401869137
 31
0.0
  0
LINE
  5
1AB
330
22
100
AcDbEntity
  8
_0-2_メッセン
  6
Continuous
 62
     6
100
AcDbLine
 10
28142.88190560241
 20
22273.03535671397
 30
0.0
 11
28142.88190560241
 21
19686.340278457
 31
0.0
  0
LINE
  5
1AC
330
22
100
AcDbEntity
  8
_0-2_メッセン
  6
Continuous
 62
     6
100
AcDbLine
 10
28192.87959616407
 20
17276.33702874733
 30
0.0
 11
28192.87959616407
 21
17076.33884330603
 31
0.0
  0
LINE
  5
1AD
330
22
100
AcDbEntity
  8
_0-2_メッセン
  6
Continuous
 62
     6
100
AcDbLine
 10
28092.87926624431
 20
17276.33702874733
 30
0.0
 11
28092.87926624431
 21
17076.33884330603
 31
0.0
  0
LINE
  5
1AE
330
22
100
AcDbEntity
  8
_0-2_メッセン
  6
Continuous
 62
     6
100
AcDbLine
 10
28432.87642893434
 20
17024.26513263247
 30
0.0
 11
28587.03143843603
 21
17151.67560890463
 31
0.0
  0
LINE
  5
1AF
330
22
100
AcDbEntity
  8
_0-2_メッセン
  6
Continuous
 62
     6
100
AcDbLine
 10
28650.74224396813
 20
17074.5993413529
 30
0.0
 11
28496.57238807708
 21
16947.17401869137
 31
0.0
  0
LINE
  5
1B0
330
22
100
AcDbEntity
  8
_0-2_メッセン
  6
Continuous
 62
     6
100
AcDbLine
 10
13852.91542545039
 20
17024.26513263247
 30
0.0
 11
13698.76289034693
 21
17151.67560890463
 31
0.0
  0
LINE
  5
1B1
330
22
100
AcDbEntity
  8
_0-2_メッセン
  6
Continuous
 62
     6
100
AcDbLine
 10
13635.04961041661
 20
17074.5993413529
 30
0.0
 11
13789.22194070588
 21
16947.17401869137
 31
0.0
  0
LINE
  5
1B2
330
22
100
AcDbEntity
  8
_0-2_メッセン
  6
Continuous
 62
     6
100
AcDbLine
 10
20852.81727432075
 20
17024.26513263247
 30
0.0
 11
20698.66473921729
 21
17151.67560890463
 31
0.0
  0
LINE
  5
1B3
330
22
100
AcDbEntity
  8
_0-2_メッセン
  6
Continuous
 62
     6
100
AcDbLine
 10
20634.95145928696
 20
17074.5993413529
 30
0.0
 11
20789.12131517801
 21
16947.17401869137
 31
0.0
  0
LINE
  5
1B4
330
22
100
AcDbEntity
  8
_0-2_メッセン
  6
Continuous
 62
     6
100
AcDbLine
 10
27852.88738227049
 20
17024.26513263247
 30
0.0
 11
27698.7323727688
 21
17151.67560890463
 31
0.0
  0
LINE
  5
1B5
330
22
100
AcDbEntity
  8
_0-2_メッセン
  6
Continuous
 62
     6
100
AcDbLine
 10
27635.02156723671
 20
17074.5993413529
 30
0.0
 11
27789.19142312775
 21
16947.17401869137
 31
0.0
  0
LINE
  5
1B6
330
22
100
AcDbEntity
  8
_0-2_メッセン
  6
Continuous
 62
     6
100
AcDbLine
 10
28167.89807167083
 20
22351.34016298508
 30
0.0
 11
30142.88108080302
 21
22351.34016298508
 31
0.0
  0
LINE
  5
1B7
330
22
100
AcDbEntity
  8
_0-2_メッセン
  6
Continuous
 62
     6
100
AcDbLine
 10
28292.87992608384
 20
22381.3422414796
 30
0.0
 11
30142.88108080302
 21
20852.28785750578
 31
0.0
  0
LINE
  5
1B8
330
22
100
AcDbEntity
  8
_0-2_メッセン
  6
Continuous
 62
     6
100
AcDbLine
 10
28180.37893632455
 20
19566.33938767364
 30
0.0
 11
30142.88108080302
 21
19566.33938767364
 31
0.0
  0
LINE
  5
1B9
330
22
100
AcDbEntity
  8
_0-2_メッセン
  6
Continuous
 62
     6
100
AcDbLine
 10
30142.88108080302
 20
18372.7416456445
 30
0.0
 11
28392.8802560036
 21
16926.33834842638
 31
0.0
  0
LINE
  5
1BA
330
22
100
AcDbEntity
  8
_0-2_メッセン
  6
Continuous
 62
     6
100
AcDbLine
 10
28180.37893632455
 20
16781.33737516308
 30
0.0
 11
30142.88108080302
 21
16781.33737516308
 31
0.0
  0
LINE
  5
1BB
330
22
100
AcDbEntity
  8
_0-1_ＧＬ
  6
Continuous
 62
     3
100
AcDbLine
 10
30342.88668943899
 20
16681.33704524332
 30
0.0
 11
30742.88800911804
 21
16281.33696276338
 31
0.0
  0
LINE
  5
1BC
330
22
100
AcDbEntity
  8
_0-1_ＧＬ
  6
Continuous
 62
     3
100
AcDbLine
 10
30342.88668943899
 20
16681.33704524332
 30
0.0
 11
29942.88784415816
 21
16281.33696276338
 31
0.0
  0
LINE
  5
1BD
330
22
100
AcDbEntity
  8
_0-1_ＧＬ
  6
Continuous
 62
     3
100
AcDbLine
 10
29942.88784415816
 20
16281.33696276338
 30
0.0
 11
29542.88652447911
 21
16681.33704524332
 31
0.0
  0
LINE
  5
1BE
330
22
100
AcDbEntity
  8
_0-1_ＧＬ
  6
Continuous
 62
     3
100
AcDbLine
 10
29627.49857182919
 20
16588.82919315295
 30
0.0
 11
29320.00510424051
 21
16281.33696276338
 31
0.0
  0
LINE
  5
1BF
330
22
100
AcDbEntity
  8
_0-1_ＧＬ
  6
Continuous
 62
     3
100
AcDbLine
 10
29731.1090487612
 20
16488.92041596756
 30
0.0
 11
29523.52435835791
 21
16281.33696276338
 31
0.0
  0
LINE
  5
1C0
330
22
100
AcDbEntity
  8
_0-1_ＧＬ
  6
Continuous
 62
     3
100
AcDbLine
 10
29834.71705129499
 20
16389.01163878217
 30
0.0
 11
29727.04361247531
 21
16281.33696276338
 31
0.0
  0
LINE
  5
1C1
330
22
100
AcDbEntity
  8
_0-1_ＧＬ
  6
Continuous
 62
     3
100
AcDbLine
 10
30442.88701935875
 20
16581.33671532355
 30
0.0
 11
30142.88850399769
 21
16281.33696276338
 31
0.0
  0
LINE
  5
1C2
330
22
100
AcDbEntity
  8
_0-1_ＧＬ
  6
Continuous
 62
     3
100
AcDbLine
 10
30542.88734927852
 20
16481.33638540379
 30
0.0
 11
30342.88668943899
 21
16281.33696276338
 31
0.0
  0
LINE
  5
1C3
330
22
100
AcDbEntity
  8
_0-1_ＧＬ
  6
Continuous
 62
     3
100
AcDbLine
 10
30642.88520480005
 20
16381.33729268314
 30
0.0
 11
30542.88487488029
 21
16281.33696276338
 31
0.0
  0
LINE
  5
1C4
330
22
100
AcDbEntity
  8
_0-1_ＧＬ
  6
Continuous
 62
     3
100
AcDbLine
 10
30242.88635951922
 20
16581.33671532355
 30
0.0
 11
30142.88850399769
 21
16681.33704524332
 31
0.0
  0
LINE
  5
1C5
330
22
100
AcDbEntity
  8
_0-1_ＧＬ
  6
Continuous
 62
     3
100
AcDbLine
 10
30142.88850399769
 20
16481.33638540379
 30
0.0
 11
29942.88784415816
 21
16681.33704524332
 31
0.0
  0
LINE
  5
1C6
330
22
100
AcDbEntity
  8
_0-1_ＧＬ
  6
Continuous
 62
     3
100
AcDbLine
 10
30042.88817407793
 20
16381.33729268314
 30
0.0
 11
29742.88718431864
 21
16681.33704524332
 31
0.0
  0
LINE
  5
1C7
330
22
100
AcDbEntity
  8
_0-1_ＧＬ
  6
Continuous
 62
     3
100
AcDbLine
 10
29542.88652447911
 20
16681.33704524332
 30
0.0
 11
29242.88553471982
 21
16381.33729268314
 31
0.0
  0
LINE
  5
1C8
330
22
100
AcDbEntity
  8
_0-1_ＧＬ
  6
Continuous
 62
     3
100
AcDbLine
 10
29342.88586463957
 20
16481.33638540379
 30
0.0
 11
29142.88520480005
 21
16681.33704524332
 31
0.0
  0
LINE
  5
1C9
330
22
100
AcDbEntity
  8
_0-1_ＧＬ
  6
Continuous
 62
     3
100
AcDbLine
 10
29442.88619455935
 20
16581.33671532355
 30
0.0
 11
29342.88586463957
 21
16681.33704524332
 31
0.0
  0
LINE
  5
1CA
330
22
100
AcDbEntity
  8
_0-1_ＧＬ
  6
Continuous
 62
     3
100
AcDbLine
 10
5154.114023951237
 20
16873.99863994349
 30
0.0
 11
4931.645828216439
 21
16873.99863994349
 31
0.0
  0
LINE
  5
1CB
330
22
100
AcDbEntity
  8
_0-1_ＧＬ
  6
Continuous
 62
     3
100
AcDbLine
 10
5042.879926083839
 20
16681.33704524332
 30
0.0
 11
5154.114023951237
 21
16873.99863994349
 31
0.0
  0
LINE
  5
1CC
330
22
100
AcDbEntity
  8
_0-1_ＧＬ
  6
Continuous
 62
     3
100
AcDbLine
 10
5042.879926083839
 20
16681.33704524332
 30
0.0
 11
4931.645828216439
 21
16873.99863994349
 31
0.0
  0
LINE
  5
1CD
330
22
100
AcDbEntity
  8
_0-1_ＧＬ
  6
Continuous
 62
     3
100
AcDbLine
 10
7007.755018461373
 20
16681.33704524332
 30
0.0
 11
4142.879431204192
 21
16681.33704524332
 31
0.0
  0
LINE
  5
1CE
330
22
100
AcDbEntity
  8
_0-3_寸法
  6
Continuous
 62
     4
100
AcDbLine
 10
7142.879431204192
 20
12181.3358080442
 30
0.0
 11
28142.87943120419
 21
12181.3358080442
 31
0.0
  0
LINE
  5
1CF
330
22
100
AcDbEntity
  8
_0-3_寸法
  6
Continuous
 62
     4
100
AcDbLine
 10
7142.879431204192
 20
12681.33622044391
 30
0.0
 11
7142.879431204192
 21
12181.3358080442
 31
0.0
  0
LINE
  5
1D0
330
22
100
AcDbEntity
  8
_0-3_寸法
  6
Continuous
 62
     4
100
AcDbLine
 10
14142.8802560036
 20
12681.33622044391
 30
0.0
 11
14142.8802560036
 21
12181.3358080442
 31
0.0
  0
LINE
  5
1D1
330
22
100
AcDbEntity
  8
_0-3_寸法
  6
Continuous
 62
     4
100
AcDbLine
 10
21142.88108080301
 20
12681.33622044391
 30
0.0
 11
21142.88108080301
 21
12181.3358080442
 31
0.0
  0
LINE
  5
1D2
330
22
100
AcDbEntity
  8
_0-3_寸法
  6
Continuous
 62
     4
100
AcDbLine
 10
3642.880256003603
 20
22681.33828244244
 30
0.0
 11
3642.880256003603
 21
14681.33663284361
 31
0.0
  0
LINE
  5
1D3
330
22
100
AcDbEntity
  8
_0-3_寸法
  6
Continuous
 62
     4
100
AcDbLine
 10
4142.879431204192
 20
16781.33737516308
 30
0.0
 11
3642.880256003603
 21
16781.33737516308
 31
0.0
  0
LINE
  5
1D4
330
22
100
AcDbEntity
  8
_0-3_寸法
  6
Continuous
 62
     4
100
AcDbLine
 10
4142.879431204192
 20
16681.33704524332
 30
0.0
 11
3142.881080803011
 21
16681.33704524332
 31
0.0
  0
LINE
  5
1D5
330
22
100
AcDbEntity
  8
_0-3_寸法
  6
Continuous
 62
     4
100
AcDbLine
 10
4142.879431204192
 20
16281.33696276338
 30
0.0
 11
3642.880256003603
 21
16281.33696276338
 31
0.0
  0
LINE
  5
1D6
330
22
100
AcDbEntity
  8
_0-3_寸法
  6
Continuous
 62
     4
100
AcDbLine
 10
3142.881080803011
 20
22681.33828244244
 30
0.0
 11
3142.881080803011
 21
14681.33663284361
 31
0.0
  0
LINE
  5
1D7
330
22
100
AcDbEntity
  8
_0-3_寸法
  6
Continuous
 62
     4
100
AcDbLine
 10
6642.880256003602
 20
22681.33828244244
 30
0.0
 11
2642.879431204193
 21
22681.33828244244
 31
0.0
  0
LINE
  5
1D8
330
22
100
AcDbEntity
  8
_0-3_寸法
  6
Continuous
 62
     4
100
AcDbLine
 10
6642.880256003602
 20
14681.33663284361
 30
0.0
 11
2642.879431204193
 21
14681.33663284361
 31
0.0
  0
LINE
  5
1D9
330
22
100
AcDbEntity
  8
_0-3_寸法
  6
Continuous
 62
     4
100
AcDbLine
 10
2642.879431204193
 20
22681.33828244244
 30
0.0
 11
2642.879431204193
 21
14681.33663284361
 31
0.0
  0
LINE
  5
1DA
330
22
100
AcDbEntity
  8
_0-6_仕上
  6
Continuous
 62
     4
100
AcDbLine
 10
7769.731105876911
 20
22459.71633090105
 30
0.0
 11
8169.732425555965
 21
23152.53546228829
 31
0.0
  0
LINE
  5
1DB
330
22
100
AcDbEntity
  8
_0-6_仕上
  6
Continuous
 62
     4
100
AcDbLine
 10
8782.774483727418
 20
21168.83514820468
 30
0.0
 11
9182.773329008249
 21
21861.6518051937
 31
0.0
  0
LINE
  5
1DC
330
22
100
AcDbEntity
  8
_0-6_仕上
  6
Continuous
 62
     4
100
AcDbLine
 10
7769.731105876911
 20
22459.71633090105
 30
0.0
 11
7769.731105876911
 21
22559.71666082081
 31
0.0
  0
LINE
  5
1DD
330
22
100
AcDbEntity
  8
_0-6_仕上
  6
Continuous
 62
     4
100
AcDbLine
 10
8782.774483727418
 20
21168.83514820468
 30
0.0
 11
8782.774483727418
 21
21268.83547812444
 31
0.0
  0
LINE
  5
1DE
330
22
100
AcDbEntity
  8
_0-6_仕上
  6
Continuous
 62
     4
100
AcDbLine
 10
9182.773329008249
 20
21861.6518051937
 30
0.0
 11
12190.72357050952
 21
21861.6518051937
 31
0.0
  0
LINE
  5
1DF
330
22
100
AcDbEntity
  8
_0-6_仕上
  6
Continuous
 62
     4
100
AcDbLine
 10
28968.83355916027
 20
22215.53281633179
 30
0.0
 11
28968.83355916027
 21
22315.53438345067
 31
0.0
  0
LINE
  5
1E0
330
22
100
AcDbEntity
  8
_0-6_仕上
  6
Continuous
 62
     4
100
AcDbLine
 10
14151.706434477
 20
20403.98752164746
 30
0.0
 11
14551.70775415605
 21
21096.80417863648
 31
0.0
  0
LINE
  5
1E1
330
22
100
AcDbEntity
  8
_0-6_仕上
  6
Continuous
 62
     4
100
AcDbLine
 10
14151.706434477
 20
20403.98752164746
 30
0.0
 11
14151.706434477
 21
20503.98785156723
 31
0.0
  0
LINE
  5
1E2
330
22
100
AcDbEntity
  8
_0-6_仕上
  6
Continuous
 62
     4
100
AcDbLine
 10
14551.70775415605
 20
21096.80417863648
 30
0.0
 11
14751.70593959735
 21
21096.80417863648
 31
0.0
  0
LINE
  5
1E3
330
22
100
AcDbEntity
  8
_0-6_仕上
  6
Continuous
 62
     4
100
AcDbLine
 10
8169.732425555965
 20
23152.53546228829
 30
0.0
 11
10108.7945956362
 21
23152.53546228829
 31
0.0
  0
LINE
  5
1E4
330
22
100
AcDbEntity
  8
_0-6_仕上
  6
Continuous
 62
     4
100
AcDbLine
 10
7780.680318028515
 20
16181.33663284361
 30
0.0
 11
7780.680318028515
 21
16081.33630292385
 31
0.0
  0
LINE
  5
1E5
330
22
100
AcDbEntity
  8
_0-6_仕上
  6
Continuous
 62
     4
100
AcDbLine
 10
8180.684112105797
 20
15488.51626425725
 30
0.0
 11
8980.684277065677
 21
15488.51626425725
 31
0.0
  0
LINE
  5
1E6
330
22
100
AcDbEntity
  8
_0-6_仕上
  6
Continuous
 62
     4
100
AcDbLine
 10
14151.2659915927
 20
21303.37065416963
 30
0.0
 11
14551.26731127176
 21
21996.18731115866
 31
0.0
  0
LINE
  5
1E7
330
22
100
AcDbEntity
  8
_0-6_仕上
  6
Continuous
 62
     4
100
AcDbLine
 10
14151.2659915927
 20
21303.37065416963
 30
0.0
 11
14151.2659915927
 21
21403.3709840894
 31
0.0
  0
LINE
  5
1E8
330
22
100
AcDbEntity
  8
_0-6_仕上
  6
Continuous
 62
     4
100
AcDbLine
 10
14551.26731127176
 20
21996.18731115866
 30
0.0
 11
14751.26549671306
 21
21996.18731115866
 31
0.0
  0
LINE
  5
1E9
330
22
100
AcDbEntity
  8
_0-6_仕上
  6
Continuous
 62
     4
100
AcDbLine
 10
7780.680318028515
 20
16181.33663284361
 30
0.0
 11
8180.684112105797
 21
15488.51626425725
 31
0.0
  0
LINE
  5
1EA
330
22
100
AcDbEntity
  8
_0-4_ハッチ
  6
Continuous
 62
     5
100
AcDbLine
 10
7142.879431204192
 20
19536.33978357736
 30
0.0
 11
8733.479522262049
 21
16781.33737516308
 31
0.0
  0
LINE
  5
1EB
330
22
100
AcDbEntity
  8
_0-4_ハッチ
  6
Continuous
 62
     5
100
AcDbLine
 10
30142.88108080302
 20
16781.33737516308
 30
0.0
 11
26927.03684912016
 21
22351.34016298508
 31
0.0
  0
LINE
  5
1EC
330
22
100
AcDbEntity
  8
_0-4_ハッチ
  6
Continuous
 62
     5
100
AcDbLine
 10
30003.97083877387
 20
17021.93672390147
 30
0.0
 11
30003.97083877387
 21
18270.9449026124
 31
0.0
  0
LINE
  5
1ED
330
22
100
AcDbEntity
  8
_0-4_ハッチ
  6
Continuous
 62
     5
100
AcDbLine
 10
29903.97050885411
 20
17195.14212534783
 30
0.0
 11
29903.97050885411
 21
18270.9449026124
 31
0.0
  0
LINE
  5
1EE
330
22
100
AcDbEntity
  8
_0-4_ハッチ
  6
Continuous
 62
     5
100
AcDbLine
 10
29715.8692300851
 20
17520.94242821418
 30
0.0
 11
30142.88108080302
 21
17520.94242821418
 31
0.0
  0
LINE
  5
1EF
330
22
100
AcDbEntity
  8
_0-4_ハッチ
  6
Continuous
 62
     5
100
AcDbLine
 10
29803.97017893435
 20
17368.34752679421
 30
0.0
 11
29803.97017893435
 21
18270.9449026124
 31
0.0
  0
LINE
  5
1F0
330
22
100
AcDbEntity
  8
_0-4_ハッチ
  6
Continuous
 62
     5
100
AcDbLine
 10
29658.13409626965
 20
17620.94275813394
 30
0.0
 11
30142.88108080302
 21
17620.94275813394
 31
0.0
  0
LINE
  5
1F1
330
22
100
AcDbEntity
  8
_0-4_ハッチ
  6
Continuous
 62
     5
100
AcDbLine
 10
29600.39896245419
 20
17720.94308805371
 30
0.0
 11
30142.88108080302
 21
17720.94308805371
 31
0.0
  0
LINE
  5
1F2
330
22
100
AcDbEntity
  8
_0-4_ハッチ
  6
Continuous
 62
     5
100
AcDbLine
 10
29603.96951909482
 20
17714.75956688605
 30
0.0
 11
29603.96951909482
 21
18270.9449026124
 31
0.0
  0
LINE
  5
1F3
330
22
100
AcDbEntity
  8
_0-4_ハッチ
  6
Continuous
 62
     5
100
AcDbLine
 10
29542.66382863873
 20
17820.94341797347
 30
0.0
 11
30142.88108080302
 21
17820.94341797347
 31
0.0
  0
LINE
  5
1F4
330
22
100
AcDbEntity
  8
_0-4_ハッチ
  6
Continuous
 62
     5
100
AcDbLine
 10
29703.96984901458
 20
17541.55416543969
 30
0.0
 11
29703.96984901458
 21
18270.9449026124
 31
0.0
  0
LINE
  5
1F5
330
22
100
AcDbEntity
  8
_0-4_ハッチ
  6
Continuous
 62
     5
100
AcDbLine
 10
29484.92869482328
 20
17920.94374789323
 30
0.0
 11
30142.88108080302
 21
17920.94374789323
 31
0.0
  0
LINE
  5
1F6
330
22
100
AcDbEntity
  8
_0-4_ハッチ
  6
Continuous
 62
     5
100
AcDbLine
 10
29503.96918917505
 20
17887.96496833242
 30
0.0
 11
29503.96918917505
 21
18270.9449026124
 31
0.0
  0
LINE
  5
1F7
330
22
100
AcDbEntity
  8
_0-4_ハッチ
  6
Continuous
 62
     5
100
AcDbLine
 10
29427.19356100782
 20
18020.944077813
 30
0.0
 11
30142.88108080302
 21
18020.944077813
 31
0.0
  0
LINE
  5
1F8
330
22
100
AcDbEntity
  8
_0-4_ハッチ
  6
Continuous
 62
     5
100
AcDbLine
 10
29369.45842719237
 20
18120.94440773275
 30
0.0
 11
30142.88108080302
 21
18120.94440773275
 31
0.0
  0
LINE
  5
1F9
330
22
100
AcDbEntity
  8
_0-4_ハッチ
  6
Continuous
 62
     5
100
AcDbLine
 10
29311.72329337692
 20
18220.94473765252
 30
0.0
 11
30142.88108080302
 21
18220.94473765252
 31
0.0
  0
LINE
  5
1FA
330
22
100
AcDbEntity
  8
_0-4_ハッチ
  6
Continuous
 62
     5
100
AcDbLine
 10
29403.97133365352
 20
18270.9449026124
 30
0.0
 11
29403.97133365352
 21
19470.94886164957
 31
0.0
  0
LINE
  5
1FB
330
22
100
AcDbEntity
  8
_0-4_ハッチ
  6
Continuous
 62
     5
100
AcDbLine
 10
29253.98815956145
 20
18320.94506757228
 30
0.0
 11
30142.88108080302
 21
18320.94506757228
 31
0.0
  0
LINE
  5
1FC
330
22
100
AcDbEntity
  8
_0-4_ハッチ
  6
Continuous
 62
     5
100
AcDbLine
 10
29503.97166357328
 20
18270.9449026124
 30
0.0
 11
29503.97166357328
 21
19470.94886164957
 31
0.0
  0
LINE
  5
1FD
330
22
100
AcDbEntity
  8
_0-4_ハッチ
  6
Continuous
 62
     5
100
AcDbLine
 10
29603.97199349304
 20
18270.9449026124
 30
0.0
 11
29603.97199349304
 21
19470.94886164957
 31
0.0
  0
LINE
  5
1FE
330
22
100
AcDbEntity
  8
_0-4_ハッチ
  6
Continuous
 62
     5
100
AcDbLine
 10
29703.9723234128
 20
18270.9449026124
 30
0.0
 11
29703.9723234128
 21
19470.94886164957
 31
0.0
  0
LINE
  5
1FF
330
22
100
AcDbEntity
  8
_0-4_ハッチ
  6
Continuous
 62
     5
100
AcDbLine
 10
29803.97265333257
 20
18270.9449026124
 30
0.0
 11
29803.97265333257
 21
19470.94886164957
 31
0.0
  0
LINE
  5
200
330
22
100
AcDbEntity
  8
_0-4_ハッチ
  6
Continuous
 62
     5
100
AcDbLine
 10
29903.97298325234
 20
18270.9449026124
 30
0.0
 11
29903.97298325234
 21
19470.94886164957
 31
0.0
  0
LINE
  5
201
330
22
100
AcDbEntity
  8
_0-4_ハッチ
  6
Continuous
 62
     5
100
AcDbLine
 10
30003.9733131721
 20
18270.9449026124
 30
0.0
 11
30003.9733131721
 21
19470.94886164957
 31
0.0
  0
LINE
  5
202
330
22
100
AcDbEntity
  8
_0-4_ハッチ
  6
Continuous
 62
     5
100
AcDbLine
 10
29196.253025746
 20
18420.94539749205
 30
0.0
 11
30142.88108080302
 21
18420.94539749205
 31
0.0
  0
LINE
  5
203
330
22
100
AcDbEntity
  8
_0-4_ハッチ
  6
Continuous
 62
     5
100
AcDbLine
 10
29138.51789193054
 20
18520.94572741182
 30
0.0
 11
30142.88108080302
 21
18520.94572741182
 31
0.0
  0
LINE
  5
204
330
22
100
AcDbEntity
  8
_0-4_ハッチ
  6
Continuous
 62
     5
100
AcDbLine
 10
29203.97067381399
 20
18407.57746107419
 30
0.0
 11
29203.97067381399
 21
19470.94886164957
 31
0.0
  0
LINE
  5
205
330
22
100
AcDbEntity
  8
_0-4_ハッチ
  6
Continuous
 62
     5
100
AcDbLine
 10
29303.97100373375
 20
18234.37205962782
 30
0.0
 11
29303.97100373375
 21
19470.94886164957
 31
0.0
  0
LINE
  5
206
330
22
100
AcDbEntity
  8
_0-4_ハッチ
  6
Continuous
 62
     5
100
AcDbLine
 10
29080.78275811509
 20
18620.94605733158
 30
0.0
 11
30142.88108080302
 21
18620.94605733158
 31
0.0
  0
LINE
  5
207
330
22
100
AcDbEntity
  8
_0-4_ハッチ
  6
Continuous
 62
     5
100
AcDbLine
 10
29103.97034389422
 20
18580.78286252056
 30
0.0
 11
29103.97034389422
 21
19470.94886164957
 31
0.0
  0
LINE
  5
208
330
22
100
AcDbEntity
  8
_0-4_ハッチ
  6
Continuous
 62
     5
100
AcDbLine
 10
29023.04762429963
 20
18720.94638725134
 30
0.0
 11
30142.88108080302
 21
18720.94638725134
 31
0.0
  0
LINE
  5
209
330
22
100
AcDbEntity
  8
_0-4_ハッチ
  6
Continuous
 62
     5
100
AcDbLine
 10
28965.31249048418
 20
18820.9467171711
 30
0.0
 11
30142.88108080302
 21
18820.9467171711
 31
0.0
  0
LINE
  5
20A
330
22
100
AcDbEntity
  8
_0-4_ハッチ
  6
Continuous
 62
     5
100
AcDbLine
 10
29003.97001397447
 20
18753.98826396693
 30
0.0
 11
29003.97001397447
 21
19470.94886164957
 31
0.0
  0
LINE
  5
20B
330
22
100
AcDbEntity
  8
_0-4_ハッチ
  6
Continuous
 62
     5
100
AcDbLine
 10
28907.57735666872
 20
18920.94704709087
 30
0.0
 11
30142.88108080302
 21
18920.94704709087
 31
0.0
  0
LINE
  5
20C
330
22
100
AcDbEntity
  8
_0-4_ハッチ
  6
Continuous
 62
     5
100
AcDbLine
 10
28849.83974845504
 20
19020.94737701064
 30
0.0
 11
30142.88108080302
 21
19020.94737701064
 31
0.0
  0
LINE
  5
20D
330
22
100
AcDbEntity
  8
_0-4_ハッチ
  6
Continuous
 62
     5
100
AcDbLine
 10
28903.9696840547
 20
18927.19366541329
 30
0.0
 11
28903.9696840547
 21
19470.94886164957
 31
0.0
  0
LINE
  5
20E
330
22
100
AcDbEntity
  8
_0-4_ハッチ
  6
Continuous
 62
     5
100
AcDbLine
 10
28792.10461463958
 20
19120.9477069304
 30
0.0
 11
30142.88108080302
 21
19120.9477069304
 31
0.0
  0
LINE
  5
20F
330
22
100
AcDbEntity
  8
_0-4_ハッチ
  6
Continuous
 62
     5
100
AcDbLine
 10
28734.36948082413
 20
19220.94803685016
 30
0.0
 11
30142.88108080302
 21
19220.94803685016
 31
0.0
  0
LINE
  5
210
330
22
100
AcDbEntity
  8
_0-4_ハッチ
  6
Continuous
 62
     5
100
AcDbLine
 10
28803.96935413494
 20
19100.39906685966
 30
0.0
 11
28803.96935413494
 21
19470.94886164957
 31
0.0
  0
LINE
  5
211
330
22
100
AcDbEntity
  8
_0-4_ハッチ
  6
Continuous
 62
     5
100
AcDbLine
 10
28676.63434700866
 20
19320.94836676992
 30
0.0
 11
30142.88108080302
 21
19320.94836676992
 31
0.0
  0
LINE
  5
212
330
22
100
AcDbEntity
  8
_0-4_ハッチ
  6
Continuous
 62
     5
100
AcDbLine
 10
28703.96902421517
 20
19370.9485317298
 30
0.0
 11
28703.96902421517
 21
19470.94886164957
 31
0.0
  0
LINE
  5
213
330
22
100
AcDbEntity
  8
_0-4_ハッチ
  6
Continuous
 62
     5
100
AcDbLine
 10
28618.89921319321
 20
19420.94869668969
 30
0.0
 11
30142.88108080302
 21
19420.94869668969
 31
0.0
  0
LINE
  5
214
330
22
100
AcDbEntity
  8
_0-4_ハッチ
  6
Continuous
 62
     5
100
AcDbLine
 10
28561.16407937776
 20
19520.94902660945
 30
0.0
 11
30142.88108080302
 21
19520.94902660945
 31
0.0
  0
LINE
  5
215
330
22
100
AcDbEntity
  8
_0-4_ハッチ
  6
Continuous
 62
     5
100
AcDbLine
 10
28803.97182853316
 20
19470.94886164957
 30
0.0
 11
28803.97182853316
 21
20870.95348052625
 31
0.0
  0
LINE
  5
216
330
22
100
AcDbEntity
  8
_0-4_ハッチ
  6
Continuous
 62
     5
100
AcDbLine
 10
28903.97215845293
 20
19470.94886164957
 30
0.0
 11
28903.97215845293
 21
20870.95348052625
 31
0.0
  0
LINE
  5
217
330
22
100
AcDbEntity
  8
_0-4_ハッチ
  6
Continuous
 62
     5
100
AcDbLine
 10
29003.97248837269
 20
19470.94886164957
 30
0.0
 11
29003.97248837269
 21
20870.95348052625
 31
0.0
  0
LINE
  5
218
330
22
100
AcDbEntity
  8
_0-4_ハッチ
  6
Continuous
 62
     5
100
AcDbLine
 10
29103.97281829244
 20
19470.94886164957
 30
0.0
 11
29103.97281829244
 21
20870.95348052625
 31
0.0
  0
LINE
  5
219
330
22
100
AcDbEntity
  8
_0-4_ハッチ
  6
Continuous
 62
     5
100
AcDbLine
 10
29203.97314821221
 20
19470.94886164957
 30
0.0
 11
29203.97314821221
 21
20870.95348052625
 31
0.0
  0
LINE
  5
21A
330
22
100
AcDbEntity
  8
_0-4_ハッチ
  6
Continuous
 62
     5
100
AcDbLine
 10
29303.97347813198
 20
19470.94886164957
 30
0.0
 11
29303.97347813198
 21
20870.95348052625
 31
0.0
  0
LINE
  5
21B
330
22
100
AcDbEntity
  8
_0-4_ハッチ
  6
Continuous
 62
     5
100
AcDbLine
 10
29403.97380805174
 20
19470.94886164957
 30
0.0
 11
29403.97380805174
 21
20870.95348052625
 31
0.0
  0
LINE
  5
21C
330
22
100
AcDbEntity
  8
_0-4_ハッチ
  6
Continuous
 62
     5
100
AcDbLine
 10
29503.9741379715
 20
19470.94886164957
 30
0.0
 11
29503.9741379715
 21
20870.95348052625
 31
0.0
  0
LINE
  5
21D
330
22
100
AcDbEntity
  8
_0-4_ハッチ
  6
Continuous
 62
     5
100
AcDbLine
 10
29603.97446789128
 20
19470.94886164957
 30
0.0
 11
29603.97446789128
 21
20870.95348052625
 31
0.0
  0
LINE
  5
21E
330
22
100
AcDbEntity
  8
_0-4_ハッチ
  6
Continuous
 62
     5
100
AcDbLine
 10
29703.97479781103
 20
19470.94886164957
 30
0.0
 11
29703.97479781103
 21
20870.95348052625
 31
0.0
  0
LINE
  5
21F
330
22
100
AcDbEntity
  8
_0-4_ハッチ
  6
Continuous
 62
     5
100
AcDbLine
 10
29803.9751277308
 20
19470.94886164957
 30
0.0
 11
29803.9751277308
 21
20870.95348052625
 31
0.0
  0
LINE
  5
220
330
22
100
AcDbEntity
  8
_0-4_ハッチ
  6
Continuous
 62
     5
100
AcDbLine
 10
29903.97545765056
 20
19470.94886164957
 30
0.0
 11
29903.97545765056
 21
20870.95348052625
 31
0.0
  0
LINE
  5
221
330
22
100
AcDbEntity
  8
_0-4_ハッチ
  6
Continuous
 62
     5
100
AcDbLine
 10
30003.97578757032
 20
19470.94886164957
 30
0.0
 11
30003.97578757032
 21
20870.95348052625
 31
0.0
  0
LINE
  5
222
330
22
100
AcDbEntity
  8
_0-4_ハッチ
  6
Continuous
 62
     5
100
AcDbLine
 10
28603.97116869364
 20
19446.80492095594
 30
0.0
 11
28603.97116869364
 21
20870.95348052625
 31
0.0
  0
LINE
  5
223
330
22
100
AcDbEntity
  8
_0-4_ハッチ
  6
Continuous
 62
     5
100
AcDbLine
 10
28503.4289455623
 20
19620.94935652921
 30
0.0
 11
30142.88108080302
 21
19620.94935652921
 31
0.0
  0
LINE
  5
224
330
22
100
AcDbEntity
  8
_0-4_ハッチ
  6
Continuous
 62
     5
100
AcDbLine
 10
28703.9714986134
 20
19273.60075670869
 30
0.0
 11
28703.9714986134
 21
20870.95348052625
 31
0.0
  0
LINE
  5
225
330
22
100
AcDbEntity
  8
_0-4_ハッチ
  6
Continuous
 62
     5
100
AcDbLine
 10
28445.69381174684
 20
19720.94968644898
 30
0.0
 11
30142.88108080302
 21
19720.94968644898
 31
0.0
  0
LINE
  5
226
330
22
100
AcDbEntity
  8
_0-4_ハッチ
  6
Continuous
 62
     5
100
AcDbLine
 10
28503.97083877387
 20
19620.01155960143
 30
0.0
 11
28503.97083877387
 21
20870.95348052625
 31
0.0
  0
LINE
  5
227
330
22
100
AcDbEntity
  8
_0-4_ハッチ
  6
Continuous
 62
     5
100
AcDbLine
 10
28387.95867793139
 20
19820.95001636874
 30
0.0
 11
30142.88108080302
 21
19820.95001636874
 31
0.0
  0
LINE
  5
228
330
22
100
AcDbEntity
  8
_0-4_ハッチ
  6
Continuous
 62
     5
100
AcDbLine
 10
28330.22354411593
 20
19920.95034628851
 30
0.0
 11
30142.88108080302
 21
19920.95034628851
 31
0.0
  0
LINE
  5
229
330
22
100
AcDbEntity
  8
_0-4_ハッチ
  6
Continuous
 62
     5
100
AcDbLine
 10
28403.97050885411
 20
19793.21696104779
 30
0.0
 11
28403.97050885411
 21
20870.95348052625
 31
0.0
  0
LINE
  5
22A
330
22
100
AcDbEntity
  8
_0-4_ハッチ
  6
Continuous
 62
     5
100
AcDbLine
 10
28272.48841030047
 20
20020.95067620827
 30
0.0
 11
30142.88108080302
 21
20020.95067620827
 31
0.0
  0
LINE
  5
22B
330
22
100
AcDbEntity
  8
_0-4_ハッチ
  6
Continuous
 62
     5
100
AcDbLine
 10
28214.75327648503
 20
20120.95100612804
 30
0.0
 11
30142.88108080302
 21
20120.95100612804
 31
0.0
  0
LINE
  5
22C
330
22
100
AcDbEntity
  8
_0-4_ハッチ
  6
Continuous
 62
     5
100
AcDbLine
 10
28303.97017893435
 20
19966.42236249416
 30
0.0
 11
28303.97017893435
 21
20870.95348052625
 31
0.0
  0
LINE
  5
22D
330
22
100
AcDbEntity
  8
_0-4_ハッチ
  6
Continuous
 62
     5
100
AcDbLine
 10
28157.01814266957
 20
20220.95133604779
 30
0.0
 11
30142.88108080302
 21
20220.95133604779
 31
0.0
  0
LINE
  5
22E
330
22
100
AcDbEntity
  8
_0-4_ハッチ
  6
Continuous
 62
     5
100
AcDbLine
 10
28203.96984901457
 20
20139.62900113964
 30
0.0
 11
28203.96984901457
 21
20870.95348052625
 31
0.0
  0
LINE
  5
22F
330
22
100
AcDbEntity
  8
_0-4_ハッチ
  6
Continuous
 62
     5
100
AcDbLine
 10
28099.28300885411
 20
20320.95166596756
 30
0.0
 11
30142.88108080302
 21
20320.95166596756
 31
0.0
  0
LINE
  5
230
330
22
100
AcDbEntity
  8
_0-4_ハッチ
  6
Continuous
 62
     5
100
AcDbLine
 10
28041.54787503866
 20
20420.95199588732
 30
0.0
 11
30142.88108080302
 21
20420.95199588732
 31
0.0
  0
LINE
  5
231
330
22
100
AcDbEntity
  8
_0-4_ハッチ
  6
Continuous
 62
     5
100
AcDbLine
 10
28103.96951909482
 20
20312.83440258601
 30
0.0
 11
28103.96951909482
 21
20870.95348052625
 31
0.0
  0
LINE
  5
232
330
22
100
AcDbEntity
  8
_0-4_ハッチ
  6
Continuous
 62
     5
100
AcDbLine
 10
27983.81274122319
 20
20520.95232580709
 30
0.0
 11
30142.88108080302
 21
20520.95232580709
 31
0.0
  0
LINE
  5
233
330
22
100
AcDbEntity
  8
_0-4_ハッチ
  6
Continuous
 62
     5
100
AcDbLine
 10
27926.07760740774
 20
20620.95265572685
 30
0.0
 11
30142.88108080302
 21
20620.95265572685
 31
0.0
  0
LINE
  5
234
330
22
100
AcDbEntity
  8
_0-4_ハッチ
  6
Continuous
 62
     5
100
AcDbLine
 10
28003.96918917505
 20
20486.03980403238
 30
0.0
 11
28003.96918917505
 21
20870.95348052625
 31
0.0
  0
LINE
  5
235
330
22
100
AcDbEntity
  8
_0-4_ハッチ
  6
Continuous
 62
     5
100
AcDbLine
 10
27868.34247359228
 20
20720.95298564661
 30
0.0
 11
30142.88108080302
 21
20720.95298564661
 31
0.0
  0
LINE
  5
236
330
22
100
AcDbEntity
  8
_0-4_ハッチ
  6
Continuous
 62
     5
100
AcDbLine
 10
27810.60733977683
 20
20820.95331556638
 30
0.0
 11
30142.88108080302
 21
20820.95331556638
 31
0.0
  0
LINE
  5
237
330
22
100
AcDbEntity
  8
_0-4_ハッチ
  6
Continuous
 62
     5
100
AcDbLine
 10
27903.96885925529
 20
20770.95315060649
 30
0.0
 11
27903.96885925529
 21
20870.95348052625
 31
0.0
  0
LINE
  5
238
330
22
100
AcDbEntity
  8
_0-4_ハッチ
  6
Continuous
 62
     5
100
AcDbLine
 10
27752.87220596137
 20
20920.95364548614
 30
0.0
 11
30142.88108080302
 21
20920.95364548614
 31
0.0
  0
LINE
  5
239
330
22
100
AcDbEntity
  8
_0-4_ハッチ
  6
Continuous
 62
     5
100
AcDbLine
 10
27803.97100373375
 20
20832.44689532778
 30
0.0
 11
27803.97100373375
 21
22070.95743956342
 31
0.0
  0
LINE
  5
23A
330
22
100
AcDbEntity
  8
_0-4_ハッチ
  6
Continuous
 62
     5
100
AcDbLine
 10
28003.97166357328
 20
20870.95348052625
 30
0.0
 11
28003.97166357328
 21
22070.95743956342
 31
0.0
  0
LINE
  5
23B
330
22
100
AcDbEntity
  8
_0-4_ハッチ
  6
Continuous
 62
     5
100
AcDbLine
 10
28103.97199349305
 20
20870.95348052625
 30
0.0
 11
28103.97199349305
 21
22070.95743956342
 31
0.0
  0
LINE
  5
23C
330
22
100
AcDbEntity
  8
_0-4_ハッチ
  6
Continuous
 62
     5
100
AcDbLine
 10
28203.97232341281
 20
20870.95348052625
 30
0.0
 11
28203.97232341281
 21
22070.95743956342
 31
0.0
  0
LINE
  5
23D
330
22
100
AcDbEntity
  8
_0-4_ハッチ
  6
Continuous
 62
     5
100
AcDbLine
 10
28303.97265333257
 20
20870.95348052625
 30
0.0
 11
28303.97265333257
 21
22070.95743956342
 31
0.0
  0
LINE
  5
23E
330
22
100
AcDbEntity
  8
_0-4_ハッチ
  6
Continuous
 62
     5
100
AcDbLine
 10
28403.97298325234
 20
20870.95348052625
 30
0.0
 11
28403.97298325234
 21
22070.95743956342
 31
0.0
  0
LINE
  5
23F
330
22
100
AcDbEntity
  8
_0-4_ハッチ
  6
Continuous
 62
     5
100
AcDbLine
 10
28503.9733131721
 20
20870.95348052625
 30
0.0
 11
28503.9733131721
 21
22070.95743956342
 31
0.0
  0
LINE
  5
240
330
22
100
AcDbEntity
  8
_0-4_ハッチ
  6
Continuous
 62
     5
100
AcDbLine
 10
28603.97364309186
 20
20870.95348052625
 30
0.0
 11
28603.97364309186
 21
22070.95743956342
 31
0.0
  0
LINE
  5
241
330
22
100
AcDbEntity
  8
_0-4_ハッチ
  6
Continuous
 62
     5
100
AcDbLine
 10
28703.97397301163
 20
20870.95348052625
 30
0.0
 11
28703.97397301163
 21
22070.95743956342
 31
0.0
  0
LINE
  5
242
330
22
100
AcDbEntity
  8
_0-4_ハッチ
  6
Continuous
 62
     5
100
AcDbLine
 10
28803.97430293139
 20
20870.95348052625
 30
0.0
 11
28803.97430293139
 21
22070.95743956342
 31
0.0
  0
LINE
  5
243
330
22
100
AcDbEntity
  8
_0-4_ハッチ
  6
Continuous
 62
     5
100
AcDbLine
 10
28903.97463285116
 20
20870.95348052625
 30
0.0
 11
28903.97463285116
 21
22070.95743956342
 31
0.0
  0
LINE
  5
244
330
22
100
AcDbEntity
  8
_0-4_ハッチ
  6
Continuous
 62
     5
100
AcDbLine
 10
29003.97496277092
 20
20870.95348052625
 30
0.0
 11
29003.97496277092
 21
22070.95743956342
 31
0.0
  0
LINE
  5
245
330
22
100
AcDbEntity
  8
_0-4_ハッチ
  6
Continuous
 62
     5
100
AcDbLine
 10
29103.97529269068
 20
20870.95348052625
 30
0.0
 11
29103.97529269068
 21
22070.95743956342
 31
0.0
  0
LINE
  5
246
330
22
100
AcDbEntity
  8
_0-4_ハッチ
  6
Continuous
 62
     5
100
AcDbLine
 10
29203.97562261044
 20
20870.95348052625
 30
0.0
 11
29203.97562261044
 21
22070.95743956342
 31
0.0
  0
LINE
  5
247
330
22
100
AcDbEntity
  8
_0-4_ハッチ
  6
Continuous
 62
     5
100
AcDbLine
 10
29303.9759525302
 20
20870.95348052625
 30
0.0
 11
29303.9759525302
 21
22070.95743956342
 31
0.0
  0
LINE
  5
248
330
22
100
AcDbEntity
  8
_0-4_ハッチ
  6
Continuous
 62
     5
100
AcDbLine
 10
29403.97628244997
 20
20870.95348052625
 30
0.0
 11
29403.97628244997
 21
22070.95743956342
 31
0.0
  0
LINE
  5
249
330
22
100
AcDbEntity
  8
_0-4_ハッチ
  6
Continuous
 62
     5
100
AcDbLine
 10
29503.97661236973
 20
20870.95348052625
 30
0.0
 11
29503.97661236973
 21
22070.95743956342
 31
0.0
  0
LINE
  5
24A
330
22
100
AcDbEntity
  8
_0-4_ハッチ
  6
Continuous
 62
     5
100
AcDbLine
 10
29603.97694228949
 20
20870.95348052625
 30
0.0
 11
29603.97694228949
 21
22070.95743956342
 31
0.0
  0
LINE
  5
24B
330
22
100
AcDbEntity
  8
_0-4_ハッチ
  6
Continuous
 62
     5
100
AcDbLine
 10
29703.97727220926
 20
20870.95348052625
 30
0.0
 11
29703.97727220926
 21
22070.95743956342
 31
0.0
  0
LINE
  5
24C
330
22
100
AcDbEntity
  8
_0-4_ハッチ
  6
Continuous
 62
     5
100
AcDbLine
 10
29803.97760212902
 20
20870.95348052625
 30
0.0
 11
29803.97760212902
 21
22070.95743956342
 31
0.0
  0
LINE
  5
24D
330
22
100
AcDbEntity
  8
_0-4_ハッチ
  6
Continuous
 62
     5
100
AcDbLine
 10
29903.97793204879
 20
20870.95348052625
 30
0.0
 11
29903.97793204879
 21
22070.95743956342
 31
0.0
  0
LINE
  5
24E
330
22
100
AcDbEntity
  8
_0-4_ハッチ
  6
Continuous
 62
     5
100
AcDbLine
 10
30003.97826196855
 20
20870.95348052625
 30
0.0
 11
30003.97826196855
 21
22070.95743956342
 31
0.0
  0
LINE
  5
24F
330
22
100
AcDbEntity
  8
_0-4_ハッチ
  6
Continuous
 62
     5
100
AcDbLine
 10
27695.13707214592
 20
21020.9539754059
 30
0.0
 11
30142.88108080302
 21
21020.9539754059
 31
0.0
  0
LINE
  5
250
330
22
100
AcDbEntity
  8
_0-4_ハッチ
  6
Continuous
 62
     5
100
AcDbLine
 10
27903.97133365352
 20
20659.24149388141
 30
0.0
 11
27903.97133365352
 21
22070.95743956342
 31
0.0
  0
LINE
  5
251
330
22
100
AcDbEntity
  8
_0-4_ハッチ
  6
Continuous
 62
     5
100
AcDbLine
 10
27637.40193833045
 20
21120.95430532567
 30
0.0
 11
30142.88108080302
 21
21120.95430532567
 31
0.0
  0
LINE
  5
252
330
22
100
AcDbEntity
  8
_0-4_ハッチ
  6
Continuous
 62
     5
100
AcDbLine
 10
27703.97067381399
 20
21005.65229677415
 30
0.0
 11
27703.97067381399
 21
22070.95743956342
 31
0.0
  0
LINE
  5
253
330
22
100
AcDbEntity
  8
_0-4_ハッチ
  6
Continuous
 62
     5
100
AcDbLine
 10
27579.66433011677
 20
21220.95463524543
 30
0.0
 11
30142.88108080302
 21
21220.95463524543
 31
0.0
  0
LINE
  5
254
330
22
100
AcDbEntity
  8
_0-4_ハッチ
  6
Continuous
 62
     5
100
AcDbLine
 10
27521.92919630132
 20
21320.95496516519
 30
0.0
 11
30142.88108080302
 21
21320.95496516519
 31
0.0
  0
LINE
  5
255
330
22
100
AcDbEntity
  8
_0-4_ハッチ
  6
Continuous
 62
     5
100
AcDbLine
 10
27603.97034389423
 20
21178.85769822052
 30
0.0
 11
27603.97034389423
 21
22070.95743956342
 31
0.0
  0
LINE
  5
256
330
22
100
AcDbEntity
  8
_0-4_ハッチ
  6
Continuous
 62
     5
100
AcDbLine
 10
27464.19406248587
 20
21420.95529508496
 30
0.0
 11
30142.88108080302
 21
21420.95529508496
 31
0.0
  0
LINE
  5
257
330
22
100
AcDbEntity
  8
_0-4_ハッチ
  6
Continuous
 62
     5
100
AcDbLine
 10
27406.45892867041
 20
21520.95562500472
 30
0.0
 11
30142.88108080302
 21
21520.95562500472
 31
0.0
  0
LINE
  5
258
330
22
100
AcDbEntity
  8
_0-4_ハッチ
  6
Continuous
 62
     5
100
AcDbLine
 10
27503.97001397447
 20
21352.06309966688
 30
0.0
 11
27503.97001397447
 21
22070.95743956342
 31
0.0
  0
LINE
  5
259
330
22
100
AcDbEntity
  8
_0-4_ハッチ
  6
Continuous
 62
     5
100
AcDbLine
 10
27348.72379485495
 20
21620.95595492449
 30
0.0
 11
30142.88108080302
 21
21620.95595492449
 31
0.0
  0
LINE
  5
25A
330
22
100
AcDbEntity
  8
_0-4_ハッチ
  6
Continuous
 62
     5
100
AcDbLine
 10
27403.9696840547
 20
21525.26850111325
 30
0.0
 11
27403.9696840547
 21
22070.95743956342
 31
0.0
  0
LINE
  5
25B
330
22
100
AcDbEntity
  8
_0-4_ハッチ
  6
Continuous
 62
     5
100
AcDbLine
 10
27290.98866103949
 20
21720.95628484425
 30
0.0
 11
30142.88108080302
 21
21720.95628484425
 31
0.0
  0
LINE
  5
25C
330
22
100
AcDbEntity
  8
_0-4_ハッチ
  6
Continuous
 62
     5
100
AcDbLine
 10
27233.25352722404
 20
21820.95661476401
 30
0.0
 11
30142.88108080302
 21
21820.95661476401
 31
0.0
  0
LINE
  5
25D
330
22
100
AcDbEntity
  8
_0-4_ハッチ
  6
Continuous
 62
     5
100
AcDbLine
 10
27303.96935413494
 20
21698.47390255962
 30
0.0
 11
27303.96935413494
 21
22070.95743956342
 31
0.0
  0
LINE
  5
25E
330
22
100
AcDbEntity
  8
_0-4_ハッチ
  6
Continuous
 62
     5
100
AcDbLine
 10
27175.51839340858
 20
21920.95694468377
 30
0.0
 11
30142.88108080302
 21
21920.95694468377
 31
0.0
  0
LINE
  5
25F
330
22
100
AcDbEntity
  8
_0-4_ハッチ
  6
Continuous
 62
     5
100
AcDbLine
 10
27117.78325959313
 20
22020.95727460354
 30
0.0
 11
30142.88108080302
 21
22020.95727460354
 31
0.0
  0
LINE
  5
260
330
22
100
AcDbEntity
  8
_0-4_ハッチ
  6
Continuous
 62
     5
100
AcDbLine
 10
27203.96902421517
 20
21970.95710964366
 30
0.0
 11
27203.96902421517
 21
22070.95743956342
 31
0.0
  0
LINE
  5
261
330
22
100
AcDbEntity
  8
_0-4_ハッチ
  6
Continuous
 62
     5
100
AcDbLine
 10
27203.9714986134
 20
21871.67682960776
 30
0.0
 11
27203.9714986134
 21
22351.34016298508
 31
0.0
  0
LINE
  5
262
330
22
100
AcDbEntity
  8
_0-4_ハッチ
  6
Continuous
 62
     5
100
AcDbLine
 10
27060.04812577768
 20
22120.95760452331
 30
0.0
 11
30142.88108080302
 21
22120.95760452331
 31
0.0
  0
LINE
  5
263
330
22
100
AcDbEntity
  8
_0-4_ハッチ
  6
Continuous
 62
     5
100
AcDbLine
 10
27303.97182853316
 20
22070.95743956342
 30
0.0
 11
27303.97182853316
 21
22351.34016298508
 31
0.0
  0
LINE
  5
264
330
22
100
AcDbEntity
  8
_0-4_ハッチ
  6
Continuous
 62
     5
100
AcDbLine
 10
27403.97215845293
 20
22070.95743956342
 30
0.0
 11
27403.97215845293
 21
22351.34016298508
 31
0.0
  0
LINE
  5
265
330
22
100
AcDbEntity
  8
_0-4_ハッチ
  6
Continuous
 62
     5
100
AcDbLine
 10
27503.97248837269
 20
22070.95743956342
 30
0.0
 11
27503.97248837269
 21
22351.34016298508
 31
0.0
  0
LINE
  5
266
330
22
100
AcDbEntity
  8
_0-4_ハッチ
  6
Continuous
 62
     5
100
AcDbLine
 10
27603.97281829245
 20
22070.95743956342
 30
0.0
 11
27603.97281829245
 21
22351.34016298508
 31
0.0
  0
LINE
  5
267
330
22
100
AcDbEntity
  8
_0-4_ハッチ
  6
Continuous
 62
     5
100
AcDbLine
 10
27703.97314821221
 20
22070.95743956342
 30
0.0
 11
27703.97314821221
 21
22351.34016298508
 31
0.0
  0
LINE
  5
268
330
22
100
AcDbEntity
  8
_0-4_ハッチ
  6
Continuous
 62
     5
100
AcDbLine
 10
27803.97347813198
 20
22070.95743956342
 30
0.0
 11
27803.97347813198
 21
22351.34016298508
 31
0.0
  0
LINE
  5
269
330
22
100
AcDbEntity
  8
_0-4_ハッチ
  6
Continuous
 62
     5
100
AcDbLine
 10
27903.97380805174
 20
22070.95743956342
 30
0.0
 11
27903.97380805174
 21
22351.34016298508
 31
0.0
  0
LINE
  5
26A
330
22
100
AcDbEntity
  8
_0-4_ハッチ
  6
Continuous
 62
     5
100
AcDbLine
 10
28003.97413797151
 20
22070.95743956342
 30
0.0
 11
28003.97413797151
 21
22351.34016298508
 31
0.0
  0
LINE
  5
26B
330
22
100
AcDbEntity
  8
_0-4_ハッチ
  6
Continuous
 62
     5
100
AcDbLine
 10
28103.97446789128
 20
22070.95743956342
 30
0.0
 11
28103.97446789128
 21
22351.34016298508
 31
0.0
  0
LINE
  5
26C
330
22
100
AcDbEntity
  8
_0-4_ハッチ
  6
Continuous
 62
     5
100
AcDbLine
 10
28203.97479781103
 20
22070.95743956342
 30
0.0
 11
28203.97479781103
 21
22351.34016298508
 31
0.0
  0
LINE
  5
26D
330
22
100
AcDbEntity
  8
_0-4_ハッチ
  6
Continuous
 62
     5
100
AcDbLine
 10
27002.31299196221
 20
22220.95793444307
 30
0.0
 11
30142.88108080302
 21
22220.95793444307
 31
0.0
  0
LINE
  5
26E
330
22
100
AcDbEntity
  8
_0-4_ハッチ
  6
Continuous
 62
     5
100
AcDbLine
 10
28303.9751277308
 20
22070.95743956342
 30
0.0
 11
28303.9751277308
 21
22351.34016298508
 31
0.0
  0
LINE
  5
26F
330
22
100
AcDbEntity
  8
_0-4_ハッチ
  6
Continuous
 62
     5
100
AcDbLine
 10
28403.97545765057
 20
22070.95743956342
 30
0.0
 11
28403.97545765057
 21
22351.34016298508
 31
0.0
  0
LINE
  5
270
330
22
100
AcDbEntity
  8
_0-4_ハッチ
  6
Continuous
 62
     5
100
AcDbLine
 10
28503.97578757032
 20
22070.95743956342
 30
0.0
 11
28503.97578757032
 21
22351.34016298508
 31
0.0
  0
LINE
  5
271
330
22
100
AcDbEntity
  8
_0-4_ハッチ
  6
Continuous
 62
     5
100
AcDbLine
 10
28603.97611749009
 20
22070.95743956342
 30
0.0
 11
28603.97611749009
 21
22351.34016298508
 31
0.0
  0
LINE
  5
272
330
22
100
AcDbEntity
  8
_0-4_ハッチ
  6
Continuous
 62
     5
100
AcDbLine
 10
28703.97644740985
 20
22070.95743956342
 30
0.0
 11
28703.97644740985
 21
22351.34016298508
 31
0.0
  0
LINE
  5
273
330
22
100
AcDbEntity
  8
_0-4_ハッチ
  6
Continuous
 62
     5
100
AcDbLine
 10
28803.97677732961
 20
22070.95743956342
 30
0.0
 11
28803.97677732961
 21
22351.34016298508
 31
0.0
  0
LINE
  5
274
330
22
100
AcDbEntity
  8
_0-4_ハッチ
  6
Continuous
 62
     5
100
AcDbLine
 10
28903.97710724937
 20
22070.95743956342
 30
0.0
 11
28903.97710724937
 21
22351.34016298508
 31
0.0
  0
LINE
  5
275
330
22
100
AcDbEntity
  8
_0-4_ハッチ
  6
Continuous
 62
     5
100
AcDbLine
 10
29003.97743716915
 20
22070.95743956342
 30
0.0
 11
29003.97743716915
 21
22351.34016298508
 31
0.0
  0
LINE
  5
276
330
22
100
AcDbEntity
  8
_0-4_ハッチ
  6
Continuous
 62
     5
100
AcDbLine
 10
29103.97776708891
 20
22070.95743956342
 30
0.0
 11
29103.97776708891
 21
22351.34016298508
 31
0.0
  0
LINE
  5
277
330
22
100
AcDbEntity
  8
_0-4_ハッチ
  6
Continuous
 62
     5
100
AcDbLine
 10
29203.97809700866
 20
22070.95743956342
 30
0.0
 11
29203.97809700866
 21
22351.34016298508
 31
0.0
  0
LINE
  5
278
330
22
100
AcDbEntity
  8
_0-4_ハッチ
  6
Continuous
 62
     5
100
AcDbLine
 10
29303.97842692843
 20
22070.95743956342
 30
0.0
 11
29303.97842692843
 21
22351.34016298508
 31
0.0
  0
LINE
  5
279
330
22
100
AcDbEntity
  8
_0-4_ハッチ
  6
Continuous
 62
     5
100
AcDbLine
 10
29403.97875684819
 20
22070.95743956342
 30
0.0
 11
29403.97875684819
 21
22351.34016298508
 31
0.0
  0
LINE
  5
27A
330
22
100
AcDbEntity
  8
_0-4_ハッチ
  6
Continuous
 62
     5
100
AcDbLine
 10
29503.97908676796
 20
22070.95743956342
 30
0.0
 11
29503.97908676796
 21
22351.34016298508
 31
0.0
  0
LINE
  5
27B
330
22
100
AcDbEntity
  8
_0-4_ハッチ
  6
Continuous
 62
     5
100
AcDbLine
 10
29603.97941668773
 20
22070.95743956342
 30
0.0
 11
29603.97941668773
 21
22351.34016298508
 31
0.0
  0
LINE
  5
27C
330
22
100
AcDbEntity
  8
_0-4_ハッチ
  6
Continuous
 62
     5
100
AcDbLine
 10
29703.97974660749
 20
22070.95743956342
 30
0.0
 11
29703.97974660749
 21
22351.34016298508
 31
0.0
  0
LINE
  5
27D
330
22
100
AcDbEntity
  8
_0-4_ハッチ
  6
Continuous
 62
     5
100
AcDbLine
 10
29803.98007652725
 20
22070.95743956342
 30
0.0
 11
29803.98007652725
 21
22351.34016298508
 31
0.0
  0
LINE
  5
27E
330
22
100
AcDbEntity
  8
_0-4_ハッチ
  6
Continuous
 62
     5
100
AcDbLine
 10
29903.98040644701
 20
22070.95743956342
 30
0.0
 11
29903.98040644701
 21
22351.34016298508
 31
0.0
  0
LINE
  5
27F
330
22
100
AcDbEntity
  8
_0-4_ハッチ
  6
Continuous
 62
     5
100
AcDbLine
 10
30003.98073636677
 20
22070.95743956342
 30
0.0
 11
30003.98073636677
 21
22351.34016298508
 31
0.0
  0
LINE
  5
280
330
22
100
AcDbEntity
  8
_0-4_ハッチ
  6
Continuous
 62
     5
100
AcDbLine
 10
29831.33949771602
 20
17320.94176837465
 30
0.0
 11
30142.88108080302
 21
17320.94176837465
 31
0.0
  0
LINE
  5
281
330
22
100
AcDbEntity
  8
_0-4_ハッチ
  6
Continuous
 62
     5
100
AcDbLine
 10
29773.60436390057
 20
17420.94209829442
 30
0.0
 11
30142.88108080302
 21
17420.94209829442
 31
0.0
  0
LINE
  5
282
330
22
100
AcDbEntity
  8
_0-4_ハッチ
  6
Continuous
 62
     5
100
AcDbLine
 10
29403.96885925529
 20
18061.17036977879
 30
0.0
 11
29403.96885925529
 21
18270.9449026124
 31
0.0
  0
LINE
  5
283
330
22
100
AcDbEntity
  8
_0-4_ハッチ
  6
Continuous
 62
     5
100
AcDbLine
 10
29946.80976534693
 20
17120.94110853513
 30
0.0
 11
30142.88108080302
 21
17120.94110853513
 31
0.0
  0
LINE
  5
284
330
22
100
AcDbEntity
  8
_0-4_ハッチ
  6
Continuous
 62
     5
100
AcDbLine
 10
29889.07463153148
 20
17220.94143845489
 30
0.0
 11
30142.88108080302
 21
17220.94143845489
 31
0.0
  0
LINE
  5
285
330
22
100
AcDbEntity
  8
_0-4_ハッチ
  6
Continuous
 62
     5
100
AcDbLine
 10
26944.57785814676
 20
22320.95826436283
 30
0.0
 11
30142.88108080302
 21
22320.95826436283
 31
0.0
  0
LINE
  5
286
330
22
100
AcDbEntity
  8
_0-4_ハッチ
  6
Continuous
 62
     5
100
AcDbLine
 10
27103.97116869364
 20
22044.88099385502
 30
0.0
 11
27103.97116869364
 21
22351.34016298508
 31
0.0
  0
LINE
  5
287
330
22
100
AcDbEntity
  8
_0-4_ハッチ
  6
Continuous
 62
     5
100
AcDbLine
 10
30004.54489916238
 20
17020.94077861536
 30
0.0
 11
30142.88108080302
 21
17020.94077861536
 31
0.0
  0
LINE
  5
288
330
22
100
AcDbEntity
  8
_0-4_ハッチ
  6
Continuous
 62
     5
100
AcDbLine
 10
30062.28003297784
 20
16920.9404486956
 30
0.0
 11
30142.88108080302
 21
16920.9404486956
 31
0.0
  0
LINE
  5
289
330
22
100
AcDbEntity
  8
_0-4_ハッチ
  6
Continuous
 62
     5
100
AcDbLine
 10
30103.97611749009
 20
22351.34016298508
 30
0.0
 11
30103.97611749009
 21
16848.72142486219
 31
0.0
  0
LINE
  5
28A
330
22
100
AcDbEntity
  8
_0-4_ハッチ
  6
Continuous
 62
     5
100
AcDbLine
 10
27003.97083877387
 20
22218.08639530139
 30
0.0
 11
27003.97083877387
 21
22351.34016298508
 31
0.0
  0
LINE
  5
28B
330
22
100
AcDbEntity
  8
_0-4_ハッチ
  6
Continuous
 62
     5
100
AcDbLine
 10
7142.879431204192
 20
16920.9404486956
 30
0.0
 11
8652.880948835102
 21
16920.9404486956
 31
0.0
  0
LINE
  5
28C
330
22
100
AcDbEntity
  8
_0-4_ハッチ
  6
Continuous
 62
     5
100
AcDbLine
 10
7203.967374616357
 20
16781.33737516308
 30
0.0
 11
7203.967374616357
 21
19430.53080382123
 31
0.0
  0
LINE
  5
28D
330
22
100
AcDbEntity
  8
_0-4_ハッチ
  6
Continuous
 62
     5
100
AcDbLine
 10
7303.967704536117
 20
16781.33737516308
 30
0.0
 11
7303.967704536117
 21
19257.32663957397
 31
0.0
  0
LINE
  5
28E
330
22
100
AcDbEntity
  8
_0-4_ハッチ
  6
Continuous
 62
     5
100
AcDbLine
 10
7403.968034455883
 20
16781.33737516308
 30
0.0
 11
7403.968034455883
 21
19084.12247532672
 31
0.0
  0
LINE
  5
28F
330
22
100
AcDbEntity
  8
_0-4_ハッチ
  6
Continuous
 62
     5
100
AcDbLine
 10
7503.965889977419
 20
16781.33737516308
 30
0.0
 11
7503.965889977419
 21
18910.91707388035
 31
0.0
  0
LINE
  5
290
330
22
100
AcDbEntity
  8
_0-4_ハッチ
  6
Continuous
 62
     5
100
AcDbLine
 10
7603.966219897184
 20
16781.33737516308
 30
0.0
 11
7603.966219897184
 21
18737.7129096331
 31
0.0
  0
LINE
  5
291
330
22
100
AcDbEntity
  8
_0-4_ハッチ
  6
Continuous
 62
     5
100
AcDbLine
 10
7703.966549816946
 20
16781.33737516308
 30
0.0
 11
7703.966549816946
 21
18564.50750818673
 31
0.0
  0
LINE
  5
292
330
22
100
AcDbEntity
  8
_0-4_ハッチ
  6
Continuous
 62
     5
100
AcDbLine
 10
7803.966879736707
 20
16781.33737516308
 30
0.0
 11
7803.966879736707
 21
18391.30334393948
 31
0.0
  0
LINE
  5
293
330
22
100
AcDbEntity
  8
_0-4_ハッチ
  6
Continuous
 62
     5
100
AcDbLine
 10
7903.967209656475
 20
16781.33737516308
 30
0.0
 11
7903.967209656475
 21
18218.09917969222
 31
0.0
  0
LINE
  5
294
330
22
100
AcDbEntity
  8
_0-4_ハッチ
  6
Continuous
 62
     5
100
AcDbLine
 10
8003.965065178011
 20
16781.33737516308
 30
0.0
 11
8003.965065178011
 21
18044.89377824585
 31
0.0
  0
LINE
  5
295
330
22
100
AcDbEntity
  8
_0-4_ハッチ
  6
Continuous
 62
     5
100
AcDbLine
 10
7142.879431204192
 20
17020.94077861536
 30
0.0
 11
8595.145815019648
 21
17020.94077861536
 31
0.0
  0
LINE
  5
296
330
22
100
AcDbEntity
  8
_0-4_ハッチ
  6
Continuous
 62
     5
100
AcDbLine
 10
8103.965395097773
 20
16781.33737516308
 30
0.0
 11
8103.965395097773
 21
17871.6896139986
 31
0.0
  0
LINE
  5
297
330
22
100
AcDbEntity
  8
_0-4_ハッチ
  6
Continuous
 62
     5
100
AcDbLine
 10
8203.965725017539
 20
16781.33737516308
 30
0.0
 11
8203.965725017539
 21
17698.48421255223
 31
0.0
  0
LINE
  5
298
330
22
100
AcDbEntity
  8
_0-4_ハッチ
  6
Continuous
 62
     5
100
AcDbLine
 10
8303.963580539075
 20
16781.33737516308
 30
0.0
 11
8303.963580539075
 21
17525.28004830497
 31
0.0
  0
LINE
  5
299
330
22
100
AcDbEntity
  8
_0-4_ハッチ
  6
Continuous
 62
     5
100
AcDbLine
 10
7142.879431204192
 20
17120.94110853513
 30
0.0
 11
8537.410681204191
 21
17120.94110853513
 31
0.0
  0
LINE
  5
29A
330
22
100
AcDbEntity
  8
_0-4_ハッチ
  6
Continuous
 62
     5
100
AcDbLine
 10
8403.963910458834
 20
16781.33737516308
 30
0.0
 11
8403.963910458834
 21
17352.0746468586
 31
0.0
  0
LINE
  5
29B
330
22
100
AcDbEntity
  8
_0-4_ハッチ
  6
Continuous
 62
     5
100
AcDbLine
 10
7142.879431204192
 20
17220.94143845489
 30
0.0
 11
8479.675547388733
 21
17220.94143845489
 31
0.0
  0
LINE
  5
29C
330
22
100
AcDbEntity
  8
_0-4_ハッチ
  6
Continuous
 62
     5
100
AcDbLine
 10
7142.879431204192
 20
17320.94176837465
 30
0.0
 11
8421.940413573279
 21
17320.94176837465
 31
0.0
  0
LINE
  5
29D
330
22
100
AcDbEntity
  8
_0-4_ハッチ
  6
Continuous
 62
     5
100
AcDbLine
 10
7142.879431204192
 20
17420.94209829442
 30
0.0
 11
8364.205279757825
 21
17420.94209829442
 31
0.0
  0
LINE
  5
29E
330
22
100
AcDbEntity
  8
_0-4_ハッチ
  6
Continuous
 62
     5
100
AcDbLine
 10
7142.879431204192
 20
17520.94242821418
 30
0.0
 11
8306.46767154414
 21
17520.94242821418
 31
0.0
  0
LINE
  5
29F
330
22
100
AcDbEntity
  8
_0-4_ハッチ
  6
Continuous
 62
     5
100
AcDbLine
 10
7142.879431204192
 20
17620.94275813394
 30
0.0
 11
8248.735012126912
 21
17620.94275813394
 31
0.0
  0
LINE
  5
2A0
330
22
100
AcDbEntity
  8
_0-4_ハッチ
  6
Continuous
 62
     5
100
AcDbLine
 10
7142.879431204192
 20
17720.94308805371
 30
0.0
 11
8190.997403913227
 21
17720.94308805371
 31
0.0
  0
LINE
  5
2A1
330
22
100
AcDbEntity
  8
_0-4_ハッチ
  6
Continuous
 62
     5
100
AcDbLine
 10
7142.879431204192
 20
17820.94341797347
 30
0.0
 11
8133.264744495999
 21
17820.94341797347
 31
0.0
  0
LINE
  5
2A2
330
22
100
AcDbEntity
  8
_0-4_ハッチ
  6
Continuous
 62
     5
100
AcDbLine
 10
7142.879431204192
 20
17920.94374789323
 30
0.0
 11
8075.527136282316
 21
17920.94374789323
 31
0.0
  0
LINE
  5
2A3
330
22
100
AcDbEntity
  8
_0-4_ハッチ
  6
Continuous
 62
     5
100
AcDbLine
 10
7142.879431204192
 20
18020.944077813
 30
0.0
 11
8017.794476865088
 21
18020.944077813
 31
0.0
  0
LINE
  5
2A4
330
22
100
AcDbEntity
  8
_0-4_ハッチ
  6
Continuous
 62
     5
100
AcDbLine
 10
7142.879431204192
 20
18120.94440773275
 30
0.0
 11
7960.056868651406
 21
18120.94440773275
 31
0.0
  0
LINE
  5
2A5
330
22
100
AcDbEntity
  8
_0-4_ハッチ
  6
Continuous
 62
     5
100
AcDbLine
 10
7142.879431204192
 20
18220.94473765252
 30
0.0
 11
7902.324209234173
 21
18220.94473765252
 31
0.0
  0
LINE
  5
2A6
330
22
100
AcDbEntity
  8
_0-4_ハッチ
  6
Continuous
 62
     5
100
AcDbLine
 10
7142.879431204192
 20
18320.94506757228
 30
0.0
 11
7844.586601020494
 21
18320.94506757228
 31
0.0
  0
LINE
  5
2A7
330
22
100
AcDbEntity
  8
_0-4_ハッチ
  6
Continuous
 62
     5
100
AcDbLine
 10
7142.879431204192
 20
18420.94539749205
 30
0.0
 11
7786.853941603261
 21
18420.94539749205
 31
0.0
  0
LINE
  5
2A8
330
22
100
AcDbEntity
  8
_0-4_ハッチ
  6
Continuous
 62
     5
100
AcDbLine
 10
7142.879431204192
 20
18520.94572741182
 30
0.0
 11
7729.116333389581
 21
18520.94572741182
 31
0.0
  0
LINE
  5
2A9
330
22
100
AcDbEntity
  8
_0-4_ハッチ
  6
Continuous
 62
     5
100
AcDbLine
 10
7142.879431204192
 20
18620.94605733158
 30
0.0
 11
7671.381199574124
 21
18620.94605733158
 31
0.0
  0
LINE
  5
2AA
330
22
100
AcDbEntity
  8
_0-4_ハッチ
  6
Continuous
 62
     5
100
AcDbLine
 10
7142.879431204192
 20
18720.94638725134
 30
0.0
 11
7613.646065758669
 21
18720.94638725134
 31
0.0
  0
LINE
  5
2AB
330
22
100
AcDbEntity
  8
_0-4_ハッチ
  6
Continuous
 62
     5
100
AcDbLine
 10
7142.879431204192
 20
18820.9467171711
 30
0.0
 11
7555.910931943213
 21
18820.9467171711
 31
0.0
  0
LINE
  5
2AC
330
22
100
AcDbEntity
  8
_0-4_ハッチ
  6
Continuous
 62
     5
100
AcDbLine
 10
7142.879431204192
 20
18920.94704709087
 30
0.0
 11
7498.175798127758
 21
18920.94704709087
 31
0.0
  0
LINE
  5
2AD
330
22
100
AcDbEntity
  8
_0-4_ハッチ
  6
Continuous
 62
     5
100
AcDbLine
 10
7142.879431204192
 20
19020.94737701064
 30
0.0
 11
7440.440664312298
 21
19020.94737701064
 31
0.0
  0
LINE
  5
2AE
330
22
100
AcDbEntity
  8
_0-4_ハッチ
  6
Continuous
 62
     5
100
AcDbLine
 10
7142.879431204192
 20
19120.9477069304
 30
0.0
 11
7382.705530496844
 21
19120.9477069304
 31
0.0
  0
LINE
  5
2AF
330
22
100
AcDbEntity
  8
_0-4_ハッチ
  6
Continuous
 62
     5
100
AcDbLine
 10
8503.9642403786
 20
16781.33737516308
 30
0.0
 11
8503.9642403786
 21
17178.87048261135
 31
0.0
  0
LINE
  5
2B0
330
22
100
AcDbEntity
  8
_0-4_ハッチ
  6
Continuous
 62
     5
100
AcDbLine
 10
7142.879431204192
 20
19320.94836676992
 30
0.0
 11
7267.235262865932
 21
19320.94836676992
 31
0.0
  0
LINE
  5
2B1
330
22
100
AcDbEntity
  8
_0-4_ハッチ
  6
Continuous
 62
     5
100
AcDbLine
 10
7142.879431204192
 20
19220.94803685016
 30
0.0
 11
7324.97039668139
 21
19220.94803685016
 31
0.0
  0
LINE
  5
2B2
330
22
100
AcDbEntity
  8
_0-4_ハッチ
  6
Continuous
 62
     5
100
AcDbLine
 10
8603.964570298364
 20
16781.33737516308
 30
0.0
 11
8603.964570298364
 21
17005.6663183641
 31
0.0
  0
LINE
  5
2B3
330
22
100
AcDbEntity
  8
_0-4_ハッチ
  6
Continuous
 62
     5
100
AcDbLine
 10
7142.879431204192
 20
16820.94011877584
 30
0.0
 11
8710.61608265056
 21
16820.94011877584
 31
0.0
  0
LINE
  5
2B4
330
22
100
AcDbEntity
  8
_0-4_ハッチ
  6
Continuous
 62
     5
100
AcDbLine
 10
7142.879431204192
 20
19420.94869668969
 30
0.0
 11
7209.500129050477
 21
19420.94869668969
 31
0.0
  0
LINE
  5
2B5
330
22
100
AcDbEntity
  8
_0-3_寸法
  6
Continuous
 62
     4
100
AcDbLine
 10
28142.87943120419
 20
12681.33622044391
 30
0.0
 11
28142.87943120419
 21
12181.3358080442
 31
0.0
  0
LINE
  5
2B6
330
22
100
AcDbEntity
  8
_0-3_寸法
  6
Continuous
 62
     4
100
AcDbLine
 10
6642.880256003602
 20
22351.34016298508
 30
0.0
 11
3642.880256003603
 21
22351.34016298508
 31
0.0
  0
LINE
  5
2B7
330
22
100
AcDbEntity
  8
_0-3_寸法
  6
Continuous
 62
     4
100
AcDbLine
 10
6317.279142194482
 20
19566.33938767364
 30
0.0
 11
3642.880256003603
 21
19566.33938767364
 31
0.0
  0
CIRCLE
  5
2B8
330
22
100
AcDbEntity
  8
_0-0_パイプ
  6
Continuous
 62
     7
100
AcDbCircle
 10
7142.879431204192
 20
22456.33877732208
 30
0.0
 40
10.00000012887491
  0
CIRCLE
  5
2B9
330
22
100
AcDbEntity
  8
_0-0_パイプ
  6
Continuous
 62
     7
100
AcDbCircle
 10
7142.349909983753
 20
22404.89603819623
 30
0.0
 40
10.00000012887491
  0
CIRCLE
  5
2BA
330
22
100
AcDbEntity
  8
_0-0_パイプ
  6
Continuous
 62
     7
100
AcDbCircle
 10
7267.658384962638
 20
22456.556524366
 30
0.0
 40
10.00000012887491
  0
CIRCLE
  5
2BB
330
22
100
AcDbEntity
  8
_0-0_パイプ
  6
Continuous
 62
     7
100
AcDbCircle
 10
7267.658384962638
 20
22406.59100098129
 30
0.0
 40
10.00000012887491
  0
CIRCLE
  5
2BC
330
22
100
AcDbEntity
  8
_0-0_パイプ
  6
Continuous
 62
     7
100
AcDbCircle
 10
7013.458506373112
 20
22456.556524366
 30
0.0
 40
10.00000012887491
  0
CIRCLE
  5
2BD
330
22
100
AcDbEntity
  8
_0-0_パイプ
  6
Continuous
 62
     7
100
AcDbCircle
 10
7013.458506373112
 20
22404.83912703703
 30
0.0
 40
10.00000012887491
  0
CIRCLE
  5
2BE
330
22
100
AcDbEntity
  8
_0-0_パイプ
  6
Continuous
 62
     7
100
AcDbCircle
 10
7142.879431204192
 20
22350.97642644581
 30
0.0
 40
10.00000012887491
  0
CIRCLE
  5
2BF
330
22
100
AcDbEntity
  8
_0-0_パイプ
  6
Continuous
 62
     7
100
AcDbCircle
 10
6973.383152699124
 20
19662.2829417013
 30
0.0
 40
15.00000019331236
  0
CIRCLE
  5
2C0
330
22
100
AcDbEntity
  8
_0-0_パイプ
  6
Continuous
 62
     7
100
AcDbCircle
 10
7312.291580169565
 20
19662.2829417013
 30
0.0
 40
15.00000019331236
  0
CIRCLE
  5
2C1
330
22
100
AcDbEntity
  8
_0-0_パイプ
  6
Continuous
 62
     7
100
AcDbCircle
 10
7142.876956805965
 20
19661.34143317617
 30
0.0
 40
15.00000019331236
  0
CIRCLE
  5
2C2
330
22
100
AcDbEntity
  8
_0-0_パイプ
  6
Continuous
 62
     7
100
AcDbCircle
 10
7142.876956805965
 20
19566.33938767364
 30
0.0
 40
15.00000019331236
  0
CIRCLE
  5
2C3
330
22
100
AcDbEntity
  8
_0-0_パイプ
  6
Continuous
 62
     7
100
AcDbCircle
 10
6937.34106813409
 20
16878.72226615759
 30
0.0
 40
15.00000019331236
  0
CIRCLE
  5
2C4
330
22
100
AcDbEntity
  8
_0-0_パイプ
  6
Continuous
 62
     7
100
AcDbCircle
 10
7349.778713298786
 20
16877.28092919074
 30
0.0
 40
15.00000019331236
  0
CIRCLE
  5
2C5
330
22
100
AcDbEntity
  8
_0-0_パイプ
  6
Continuous
 62
     7
100
AcDbCircle
 10
7142.879431204192
 20
16876.33942066561
 30
0.0
 40
15.00000019331236
  0
CIRCLE
  5
2C6
330
22
100
AcDbEntity
  8
_0-0_パイプ
  6
Continuous
 62
     7
100
AcDbCircle
 10
7142.879431204192
 20
16781.33737516308
 30
0.0
 40
15.00000019331236
  0
CIRCLE
  5
2C7
330
22
100
AcDbEntity
  8
_0-0_パイプ
  6
Continuous
 62
     7
100
AcDbCircle
 10
7442.880420963486
 20
22456.33877732208
 30
0.0
 40
15.00000019331236
  0
ARC
  5
2C8
330
22
100
AcDbEntity
  8
_0-2_メッセン
  6
Continuous
 62
     6
100
AcDbCircle
 10
7178.44643130977
 20
22322.09030155139
 30
0.0
 40
60.5918797286781
100
AcDbArc
 50
180.7089691162109
 51
234.0557556152344
  0
ARC
  5
2C9
330
22
100
AcDbEntity
  8
_0-2_メッセン
  6
Continuous
 62
     6
100
AcDbCircle
 10
7107.312431098619
 20
22322.09030155139
 30
0.0
 40
60.5918797286781
100
AcDbArc
 50
305.9442443847656
 51
359.2910308837891
  0
CIRCLE
  5
2CA
330
22
100
AcDbEntity
  8
_0-0_パイプ
  6
Continuous
 62
     7
100
AcDbCircle
 10
14142.8802560036
 20
22456.33877732208
 30
0.0
 40
10.00000012887491
  0
CIRCLE
  5
2CB
330
22
100
AcDbEntity
  8
_0-0_パイプ
  6
Continuous
 62
     7
100
AcDbCircle
 10
14142.35073478316
 20
22404.89603819623
 30
0.0
 40
10.00000012887491
  0
CIRCLE
  5
2CC
330
22
100
AcDbEntity
  8
_0-0_パイプ
  6
Continuous
 62
     7
100
AcDbCircle
 10
14267.65920976205
 20
22456.556524366
 30
0.0
 40
10.00000012887491
  0
CIRCLE
  5
2CD
330
22
100
AcDbEntity
  8
_0-0_パイプ
  6
Continuous
 62
     7
100
AcDbCircle
 10
14267.65920976205
 20
22406.59100098129
 30
0.0
 40
10.00000012887491
  0
CIRCLE
  5
2CE
330
22
100
AcDbEntity
  8
_0-0_パイプ
  6
Continuous
 62
     7
100
AcDbCircle
 10
14013.45685677429
 20
22456.556524366
 30
0.0
 40
10.00000012887491
  0
CIRCLE
  5
2CF
330
22
100
AcDbEntity
  8
_0-0_パイプ
  6
Continuous
 62
     7
100
AcDbCircle
 10
14013.45685677429
 20
22404.83912703703
 30
0.0
 40
10.00000012887491
  0
CIRCLE
  5
2D0
330
22
100
AcDbEntity
  8
_0-0_パイプ
  6
Continuous
 62
     7
100
AcDbCircle
 10
14142.8802560036
 20
22350.97642644581
 30
0.0
 40
10.00000012887491
  0
CIRCLE
  5
2D1
330
22
100
AcDbEntity
  8
_0-0_パイプ
  6
Continuous
 62
     7
100
AcDbCircle
 10
13842.87926624431
 20
22456.33877732208
 30
0.0
 40
15.00000019331236
  0
CIRCLE
  5
2D2
330
22
100
AcDbEntity
  8
_0-0_パイプ
  6
Continuous
 62
     7
100
AcDbCircle
 10
28143.41142682286
 20
22404.89603819623
 30
0.0
 40
10.00000012887491
  0
CIRCLE
  5
2D3
330
22
100
AcDbEntity
  8
_0-0_パイプ
  6
Continuous
 62
     7
100
AcDbCircle
 10
28018.10295184397
 20
22406.59100098129
 30
0.0
 40
10.00000012887491
  0
CIRCLE
  5
2D4
330
22
100
AcDbEntity
  8
_0-0_パイプ
  6
Continuous
 62
     7
100
AcDbCircle
 10
28272.30530483173
 20
22404.83912703703
 30
0.0
 40
10.00000012887491
  0
CIRCLE
  5
2D5
330
22
100
AcDbEntity
  8
_0-0_パイプ
  6
Continuous
 62
     7
100
AcDbCircle
 10
28142.88190560241
 20
22350.97642644581
 30
0.0
 40
10.00000012887491
  0
ARC
  5
2D6
330
22
100
AcDbEntity
  8
_0-2_メッセン
  6
Continuous
 62
     6
100
AcDbCircle
 10
28107.31490549684
 20
22322.09030155139
 30
0.0
 40
60.5918797286781
100
AcDbArc
 50
305.9442443847656
 51
359.2910308837891
  0
ARC
  5
2D7
330
22
100
AcDbEntity
  8
_0-2_メッセン
  6
Continuous
 62
     6
100
AcDbCircle
 10
28178.448905708
 20
22322.09030155139
 30
0.0
 40
60.5918797286781
100
AcDbArc
 50
180.7089691162109
 51
234.0557556152344
  0
CIRCLE
  5
2D8
330
22
100
AcDbEntity
  8
_0-0_パイプ
  6
Continuous
 62
     7
100
AcDbCircle
 10
21142.35155958257
 20
22404.89603819623
 30
0.0
 40
10.00000012887491
  0
CIRCLE
  5
2D9
330
22
100
AcDbEntity
  8
_0-0_パイプ
  6
Continuous
 62
     7
100
AcDbCircle
 10
21267.66003456145
 20
22406.59100098129
 30
0.0
 40
10.00000012887491
  0
CIRCLE
  5
2DA
330
22
100
AcDbEntity
  8
_0-0_パイプ
  6
Continuous
 62
     7
100
AcDbCircle
 10
21013.4576815737
 20
22404.83912703703
 30
0.0
 40
10.00000012887491
  0
CIRCLE
  5
2DB
330
22
100
AcDbEntity
  8
_0-0_パイプ
  6
Continuous
 62
     7
100
AcDbCircle
 10
21142.88108080301
 20
22350.97642644581
 30
0.0
 40
10.00000012887491
  0
ARC
  5
2DC
330
22
100
AcDbEntity
  8
_0-2_メッセン
  6
Continuous
 62
     6
100
AcDbCircle
 10
21178.44808090859
 20
22322.09030155139
 30
0.0
 40
60.5918797286781
100
AcDbArc
 50
180.7089691162109
 51
234.0557556152344
  0
ARC
  5
2DD
330
22
100
AcDbEntity
  8
_0-2_メッセン
  6
Continuous
 62
     6
100
AcDbCircle
 10
21107.31408069744
 20
22322.09030155139
 30
0.0
 40
60.5918797286781
100
AcDbArc
 50
305.9442443847656
 51
359.2910308837891
  0
CIRCLE
  5
2DE
330
22
100
AcDbEntity
  8
_0-0_パイプ
  6
Continuous
 62
     7
100
AcDbCircle
 10
13937.3418929335
 20
16878.72226615759
 30
0.0
 40
15.00000019331236
  0
CIRCLE
  5
2DF
330
22
100
AcDbEntity
  8
_0-0_パイプ
  6
Continuous
 62
     7
100
AcDbCircle
 10
14349.77706369997
 20
16877.28092919074
 30
0.0
 40
15.00000019331236
  0
CIRCLE
  5
2E0
330
22
100
AcDbEntity
  8
_0-0_パイプ
  6
Continuous
 62
     7
100
AcDbCircle
 10
14142.8802560036
 20
16876.33942066561
 30
0.0
 40
15.00000019331236
  0
CIRCLE
  5
2E1
330
22
100
AcDbEntity
  8
_0-0_パイプ
  6
Continuous
 62
     7
100
AcDbCircle
 10
14142.8802560036
 20
16781.33737516308
 30
0.0
 40
15.00000019331236
  0
CIRCLE
  5
2E2
330
22
100
AcDbEntity
  8
_0-0_パイプ
  6
Continuous
 62
     7
100
AcDbCircle
 10
20937.34271773291
 20
16878.72226615759
 30
0.0
 40
15.00000019331236
  0
CIRCLE
  5
2E3
330
22
100
AcDbEntity
  8
_0-0_パイプ
  6
Continuous
 62
     7
100
AcDbCircle
 10
21349.77788849939
 20
16877.28092919074
 30
0.0
 40
15.00000019331236
  0
CIRCLE
  5
2E4
330
22
100
AcDbEntity
  8
_0-0_パイプ
  6
Continuous
 62
     7
100
AcDbCircle
 10
21142.88108080301
 20
16876.33942066561
 30
0.0
 40
15.00000019331236
  0
CIRCLE
  5
2E5
330
22
100
AcDbEntity
  8
_0-0_パイプ
  6
Continuous
 62
     7
100
AcDbCircle
 10
21142.88108080301
 20
16781.33737516308
 30
0.0
 40
15.00000019331236
  0
CIRCLE
  5
2E6
330
22
100
AcDbEntity
  8
_0-0_パイプ
  6
Continuous
 62
     7
100
AcDbCircle
 10
27937.34354253232
 20
16878.72226615759
 30
0.0
 40
15.00000019331236
  0
CIRCLE
  5
2E7
330
22
100
AcDbEntity
  8
_0-0_パイプ
  6
Continuous
 62
     7
100
AcDbCircle
 10
28349.77623890056
 20
16877.28092919074
 30
0.0
 40
15.00000019331236
  0
CIRCLE
  5
2E8
330
22
100
AcDbEntity
  8
_0-0_パイプ
  6
Continuous
 62
     7
100
AcDbCircle
 10
28142.87943120419
 20
16876.33942066561
 30
0.0
 40
15.00000019331236
  0
CIRCLE
  5
2E9
330
22
100
AcDbEntity
  8
_0-0_パイプ
  6
Continuous
 62
     7
100
AcDbCircle
 10
28142.87943120419
 20
16781.33737516308
 30
0.0
 40
15.00000019331236
  0
CIRCLE
  5
2EA
330
22
100
AcDbEntity
  8
_0-0_パイプ
  6
Continuous
 62
     7
100
AcDbCircle
 10
13973.38397749853
 20
19662.2829417013
 30
0.0
 40
15.00000019331236
  0
CIRCLE
  5
2EB
330
22
100
AcDbEntity
  8
_0-0_パイプ
  6
Continuous
 62
     7
100
AcDbCircle
 10
14312.29240496897
 20
19662.2829417013
 30
0.0
 40
15.00000019331236
  0
CIRCLE
  5
2EC
330
22
100
AcDbEntity
  8
_0-0_パイプ
  6
Continuous
 62
     7
100
AcDbCircle
 10
14142.87778160537
 20
19661.34143317617
 30
0.0
 40
15.00000019331236
  0
CIRCLE
  5
2ED
330
22
100
AcDbEntity
  8
_0-0_パイプ
  6
Continuous
 62
     7
100
AcDbCircle
 10
14142.87778160537
 20
19566.33938767364
 30
0.0
 40
15.00000019331236
  0
CIRCLE
  5
2EE
330
22
100
AcDbEntity
  8
_0-0_パイプ
  6
Continuous
 62
     7
100
AcDbCircle
 10
20973.38480229794
 20
19662.2829417013
 30
0.0
 40
15.00000019331236
  0
CIRCLE
  5
2EF
330
22
100
AcDbEntity
  8
_0-0_パイプ
  6
Continuous
 62
     7
100
AcDbCircle
 10
21312.29075537016
 20
19662.2829417013
 30
0.0
 40
15.00000019331236
  0
CIRCLE
  5
2F0
330
22
100
AcDbEntity
  8
_0-0_パイプ
  6
Continuous
 62
     7
100
AcDbCircle
 10
21142.87613200656
 20
19661.34143317617
 30
0.0
 40
15.00000019331236
  0
CIRCLE
  5
2F1
330
22
100
AcDbEntity
  8
_0-0_パイプ
  6
Continuous
 62
     7
100
AcDbCircle
 10
21142.87613200656
 20
19566.33938767364
 30
0.0
 40
15.00000019331236
  0
CIRCLE
  5
2F2
330
22
100
AcDbEntity
  8
_0-0_パイプ
  6
Continuous
 62
     7
100
AcDbCircle
 10
27973.38562709735
 20
19662.2829417013
 30
0.0
 40
15.00000019331236
  0
CIRCLE
  5
2F3
330
22
100
AcDbEntity
  8
_0-0_パイプ
  6
Continuous
 62
     7
100
AcDbCircle
 10
28312.29158016957
 20
19662.2829417013
 30
0.0
 40
15.00000019331236
  0
CIRCLE
  5
2F4
330
22
100
AcDbEntity
  8
_0-0_パイプ
  6
Continuous
 62
     7
100
AcDbCircle
 10
28142.87695680596
 20
19661.34143317617
 30
0.0
 40
15.00000019331236
  0
CIRCLE
  5
2F5
330
22
100
AcDbEntity
  8
_0-0_パイプ
  6
Continuous
 62
     7
100
AcDbCircle
 10
28142.87695680596
 20
19566.33938767364
 30
0.0
 40
15.00000019331236
  0
ARC
  5
2F6
330
22
100
AcDbEntity
  8
_0-2_メッセン
  6
Continuous
 62
     6
100
AcDbCircle
 10
7150.263035511624
 20
17083.72121041435
 30
0.0
 40
57.85485699370101
100
AcDbArc
 50
187.3310089111329
 51
262.6702728271484
  0
ARC
  5
2F7
330
22
100
AcDbEntity
  8
_0-2_メッセン
  6
Continuous
 62
     6
100
AcDbCircle
 10
7150.263035511624
 20
17268.95466163901
 30
0.0
 40
57.85485699370101
100
AcDbArc
 50
97.32972717285157
 51
172.6689910888672
  0
ARC
  5
2F8
330
22
100
AcDbEntity
  8
_0-2_メッセン
  6
Continuous
 62
     6
100
AcDbCircle
 10
7135.498301294987
 20
17268.95466163901
 30
0.0
 40
57.85485699370101
100
AcDbArc
 50
7.331008911132831
 51
82.67027282714845
  0
ARC
  5
2F9
330
22
100
AcDbEntity
  8
_0-2_メッセン
  6
Continuous
 62
     6
100
AcDbCircle
 10
7135.498301294987
 20
17083.72121041435
 30
0.0
 40
57.85485699370101
100
AcDbArc
 50
277.3297271728516
 51
352.6689910888672
  0
ARC
  5
2FA
330
22
100
AcDbEntity
  8
_0-2_メッセン
  6
Continuous
 62
     6
100
AcDbCircle
 10
7476.022510807233
 20
16984.64506823213
 30
0.0
 40
58.57653070140529
100
AcDbArc
 50
137.4382171630859
 51
211.7010040283204
  0
ARC
  5
2FB
330
22
100
AcDbEntity
  8
_0-2_メッセン
  6
Continuous
 62
     6
100
AcDbCircle
 10
7617.812952371844
 20
17101.83875422769
 30
0.0
 40
58.57653070140529
100
AcDbArc
 50
47.44807434082032
 51
121.7018890380859
  0
ARC
  5
2FC
330
22
100
AcDbEntity
  8
_0-2_メッセン
  6
Continuous
 62
     6
100
AcDbCircle
 10
7607.58873890056
 20
17114.20827096122
 30
0.0
 40
58.57653070140529
100
AcDbArc
 50
317.45361328125
 51
31.69981384277345
  0
ARC
  5
2FD
330
22
100
AcDbEntity
  8
_0-2_メッセン
  6
Continuous
 62
     6
100
AcDbCircle
 10
7465.79829733595
 20
16997.01582216477
 30
0.0
 40
58.57653070140529
100
AcDbArc
 50
227.4492797851562
 51
301.6926422119141
  0
ARC
  5
2FE
330
22
100
AcDbEntity
  8
_0-2_メッセン
  6
Continuous
 62
     6
100
AcDbCircle
 10
7487.909519886627
 20
16770.24464791435
 30
0.0
 40
61.39772647135967
100
AcDbArc
 50
95.71174621582031
 51
170.5421447753906
  0
ARC
  5
2FF
330
22
100
AcDbEntity
  8
_0-2_メッセン
  6
Continuous
 62
     6
100
AcDbCircle
 10
7666.845627625225
 20
16770.84345228513
 30
0.0
 40
61.39772647135967
100
AcDbArc
 50
9.841171264648435
 51
80.15768432617189
  0
ARC
  5
300
330
22
100
AcDbEntity
  8
_0-2_メッセン
  6
Continuous
 62
     6
100
AcDbCircle
 10
7487.77095358595
 20
16791.23249367026
 30
0.0
 40
61.39772647135967
100
AcDbArc
 50
190.2244873046875
 51
257.2984466552735
  0
ARC
  5
301
330
22
100
AcDbEntity
  8
_0-2_メッセン
  6
Continuous
 62
     6
100
AcDbCircle
 10
7666.845627625225
 20
16791.83129804104
 30
0.0
 40
61.39772647135967
100
AcDbArc
 50
279.8423156738281
 51
350.1588287353516
  0
CIRCLE
  5
302
330
22
100
AcDbEntity
  8
_0-2_メッセン
  6
Continuous
 62
     6
100
AcDbCircle
 10
7142.879431204192
 20
17426.33876082609
 30
0.0
 40
50.00000064437454
  0
CIRCLE
  5
303
330
22
100
AcDbEntity
  8
_0-2_メッセン
  6
Continuous
 62
     6
100
AcDbCircle
 10
7734.50309832835
 20
17208.69564163268
 30
0.0
 40
50.00000064437454
  0
CIRCLE
  5
304
330
22
100
AcDbEntity
  8
_0-2_メッセン
  6
Continuous
 62
     6
100
AcDbCircle
 10
7827.431598117202
 20
16781.33737516308
 30
0.0
 40
50.00000064437454
  0
ARC
  5
305
330
22
100
AcDbEntity
  8
_0-2_メッセン
  6
Continuous
 62
     6
100
AcDbCircle
 10
14150.22921873586
 20
17083.72121041435
 30
0.0
 40
57.85485699370101
100
AcDbArc
 50
187.3310089111329
 51
262.6702728271484
  0
ARC
  5
306
330
22
100
AcDbEntity
  8
_0-2_メッセン
  6
Continuous
 62
     6
100
AcDbCircle
 10
14150.22921873586
 20
17268.95466163901
 30
0.0
 40
57.85485699370101
100
AcDbArc
 50
97.32972717285157
 51
172.6689910888672
  0
ARC
  5
307
330
22
100
AcDbEntity
  8
_0-2_メッセン
  6
Continuous
 62
     6
100
AcDbCircle
 10
14135.46448451922
 20
17268.95466163901
 30
0.0
 40
57.85485699370101
100
AcDbArc
 50
7.331008911132831
 51
82.67027282714845
  0
ARC
  5
308
330
22
100
AcDbEntity
  8
_0-2_メッセン
  6
Continuous
 62
     6
100
AcDbCircle
 10
14135.46448451922
 20
17083.72121041435
 30
0.0
 40
57.85485699370101
100
AcDbArc
 50
277.3297271728516
 51
352.6689910888672
  0
ARC
  5
309
330
22
100
AcDbEntity
  8
_0-2_メッセン
  6
Continuous
 62
     6
100
AcDbCircle
 10
14475.98869403147
 20
16984.64506823213
 30
0.0
 40
58.57653070140529
100
AcDbArc
 50
137.4382171630859
 51
211.7010040283204
  0
ARC
  5
30A
330
22
100
AcDbEntity
  8
_0-2_メッセン
  6
Continuous
 62
     6
100
AcDbCircle
 10
14617.77913559608
 20
17101.83875422769
 30
0.0
 40
58.57653070140529
100
AcDbArc
 50
47.44807434082032
 51
121.7018890380859
  0
ARC
  5
30B
330
22
100
AcDbEntity
  8
_0-2_メッセン
  6
Continuous
 62
     6
100
AcDbCircle
 10
14607.5549221248
 20
17114.20827096122
 30
0.0
 40
58.57653070140529
100
AcDbArc
 50
317.45361328125
 51
31.69981384277345
  0
ARC
  5
30C
330
22
100
AcDbEntity
  8
_0-2_メッセン
  6
Continuous
 62
     6
100
AcDbCircle
 10
14465.76448056019
 20
16997.01582216477
 30
0.0
 40
58.57653070140529
100
AcDbArc
 50
227.4492797851562
 51
301.6926422119141
  0
CIRCLE
  5
30D
330
22
100
AcDbEntity
  8
_0-2_メッセン
  6
Continuous
 62
     6
100
AcDbCircle
 10
14142.84808882665
 20
17426.33876082609
 30
0.0
 40
50.00000064437454
  0
CIRCLE
  5
30E
330
22
100
AcDbEntity
  8
_0-2_メッセン
  6
Continuous
 62
     6
100
AcDbCircle
 10
14734.47175595081
 20
17208.69564163268
 30
0.0
 40
50.00000064437454
  0
ARC
  5
30F
330
22
100
AcDbEntity
  8
_0-2_メッセン
  6
Continuous
 62
     6
100
AcDbCircle
 10
21150.26221071222
 20
17083.72121041435
 30
0.0
 40
57.85485699370101
100
AcDbArc
 50
187.3310089111329
 51
262.6702728271484
  0
ARC
  5
310
330
22
100
AcDbEntity
  8
_0-2_メッセン
  6
Continuous
 62
     6
100
AcDbCircle
 10
21150.26221071222
 20
17268.95466163901
 30
0.0
 40
57.85485699370101
100
AcDbArc
 50
97.32972717285157
 51
172.6689910888672
  0
ARC
  5
311
330
22
100
AcDbEntity
  8
_0-2_メッセン
  6
Continuous
 62
     6
100
AcDbCircle
 10
21135.49747649558
 20
17268.95466163901
 30
0.0
 40
57.85485699370101
100
AcDbArc
 50
7.331008911132831
 51
82.67027282714845
  0
ARC
  5
312
330
22
100
AcDbEntity
  8
_0-2_メッセン
  6
Continuous
 62
     6
100
AcDbCircle
 10
21135.49747649558
 20
17083.72121041435
 30
0.0
 40
57.85485699370101
100
AcDbArc
 50
277.3297271728516
 51
352.6689910888672
  0
ARC
  5
313
330
22
100
AcDbEntity
  8
_0-2_メッセン
  6
Continuous
 62
     6
100
AcDbCircle
 10
21476.02168600783
 20
16984.64506823213
 30
0.0
 40
58.57653070140529
100
AcDbArc
 50
137.4382171630859
 51
211.7010040283204
  0
ARC
  5
314
330
22
100
AcDbEntity
  8
_0-2_メッセン
  6
Continuous
 62
     6
100
AcDbCircle
 10
21617.81212757244
 20
17101.83875422769
 30
0.0
 40
58.57653070140529
100
AcDbArc
 50
47.44807434082032
 51
121.7018890380859
  0
ARC
  5
315
330
22
100
AcDbEntity
  8
_0-2_メッセン
  6
Continuous
 62
     6
100
AcDbCircle
 10
21607.58791410116
 20
17114.20827096122
 30
0.0
 40
58.57653070140529
100
AcDbArc
 50
317.45361328125
 51
31.69981384277345
  0
ARC
  5
316
330
22
100
AcDbEntity
  8
_0-2_メッセン
  6
Continuous
 62
     6
100
AcDbCircle
 10
21465.79994693477
 20
16997.01582216477
 30
0.0
 40
58.57653070140529
100
AcDbArc
 50
227.4492797851562
 51
301.6926422119141
  0
CIRCLE
  5
317
330
22
100
AcDbEntity
  8
_0-2_メッセン
  6
Continuous
 62
     6
100
AcDbCircle
 10
21142.88108080301
 20
17426.33876082609
 30
0.0
 40
50.00000064437454
  0
CIRCLE
  5
318
330
22
100
AcDbEntity
  8
_0-2_メッセン
  6
Continuous
 62
     6
100
AcDbCircle
 10
21734.50474792717
 20
17208.69564163268
 30
0.0
 40
50.00000064437454
  0
ARC
  5
319
330
22
100
AcDbEntity
  8
_0-2_メッセン
  6
Continuous
 62
     6
100
AcDbCircle
 10
28150.2605611134
 20
17083.72121041435
 30
0.0
 40
57.85485699370101
100
AcDbArc
 50
187.3310089111329
 51
262.6702728271484
  0
ARC
  5
31A
330
22
100
AcDbEntity
  8
_0-2_メッセン
  6
Continuous
 62
     6
100
AcDbCircle
 10
28150.2605611134
 20
17268.95466163901
 30
0.0
 40
57.85485699370101
100
AcDbArc
 50
97.32972717285157
 51
172.6689910888672
  0
ARC
  5
31B
330
22
100
AcDbEntity
  8
_0-2_メッセン
  6
Continuous
 62
     6
100
AcDbCircle
 10
28135.49830129499
 20
17268.95466163901
 30
0.0
 40
57.85485699370101
100
AcDbArc
 50
7.331008911132831
 51
82.67027282714845
  0
ARC
  5
31C
330
22
100
AcDbEntity
  8
_0-2_メッセン
  6
Continuous
 62
     6
100
AcDbCircle
 10
28135.49830129499
 20
17083.72121041435
 30
0.0
 40
57.85485699370101
100
AcDbArc
 50
277.3297271728516
 51
352.6689910888672
  0
ARC
  5
31D
330
22
100
AcDbEntity
  8
_0-2_メッセン
  6
Continuous
 62
     6
100
AcDbCircle
 10
28476.02251080724
 20
16984.64506823213
 30
0.0
 40
58.57653070140529
100
AcDbArc
 50
137.4382171630859
 51
211.7010040283204
  0
ARC
  5
31E
330
22
100
AcDbEntity
  8
_0-2_メッセン
  6
Continuous
 62
     6
100
AcDbCircle
 10
28617.81295237184
 20
17101.83875422769
 30
0.0
 40
58.57653070140529
100
AcDbArc
 50
47.44807434082032
 51
121.7018890380859
  0
ARC
  5
31F
330
22
100
AcDbEntity
  8
_0-2_メッセン
  6
Continuous
 62
     6
100
AcDbCircle
 10
28607.58873890056
 20
17114.20827096122
 30
0.0
 40
58.57653070140529
100
AcDbArc
 50
317.45361328125
 51
31.69981384277345
  0
ARC
  5
320
330
22
100
AcDbEntity
  8
_0-2_メッセン
  6
Continuous
 62
     6
100
AcDbCircle
 10
28465.79829733595
 20
16997.01582216477
 30
0.0
 40
58.57653070140529
100
AcDbArc
 50
227.4492797851562
 51
301.6926422119141
  0
CIRCLE
  5
321
330
22
100
AcDbEntity
  8
_0-2_メッセン
  6
Continuous
 62
     6
100
AcDbCircle
 10
28142.87943120419
 20
17426.33876082609
 30
0.0
 40
50.00000064437454
  0
CIRCLE
  5
322
330
22
100
AcDbEntity
  8
_0-2_メッセン
  6
Continuous
 62
     6
100
AcDbCircle
 10
28734.50309832835
 20
17208.69564163268
 30
0.0
 40
50.00000064437454
  0
ARC
  5
323
330
22
100
AcDbEntity
  8
_0-2_メッセン
  6
Continuous
 62
     6
100
AcDbCircle
 10
14178.44725610917
 20
22322.09030155139
 30
0.0
 40
60.5918797286781
100
AcDbArc
 50
180.7089691162109
 51
234.0557556152344
  0
ARC
  5
324
330
22
100
AcDbEntity
  8
_0-2_メッセン
  6
Continuous
 62
     6
100
AcDbCircle
 10
14107.31325589803
 20
22322.09030155139
 30
0.0
 40
60.5918797286781
100
AcDbArc
 50
305.9442443847656
 51
359.2910308837891
  0
ARC
  5
325
330
22
100
AcDbEntity
  8
_0-2_メッセン
  6
Continuous
 62
     6
100
AcDbCircle
 10
13809.77181797572
 20
16984.64506823213
 30
0.0
 40
58.57653070140529
100
AcDbArc
 50
328.2987670898438
 51
42.56155395507814
  0
ARC
  5
326
330
22
100
AcDbEntity
  8
_0-2_メッセン
  6
Continuous
 62
     6
100
AcDbCircle
 10
13667.98137641112
 20
17101.83875422769
 30
0.0
 40
58.57653070140529
100
AcDbArc
 50
58.29811096191409
 51
132.5519256591797
  0
ARC
  5
327
330
22
100
AcDbEntity
  8
_0-2_メッセン
  6
Continuous
 62
     6
100
AcDbCircle
 10
13678.2055898824
 20
17114.20827096122
 30
0.0
 40
58.57653070140529
100
AcDbArc
 50
148.3001861572266
 51
222.54638671875
  0
ARC
  5
328
330
22
100
AcDbEntity
  8
_0-2_メッセン
  6
Continuous
 62
     6
100
AcDbCircle
 10
13819.99355704879
 20
16997.01582216477
 30
0.0
 40
58.57653070140529
100
AcDbArc
 50
238.307357788086
 51
312.5507202148437
  0
CIRCLE
  5
329
330
22
100
AcDbEntity
  8
_0-2_メッセン
  6
Continuous
 62
     6
100
AcDbCircle
 10
13551.28875605639
 20
17208.69564163268
 30
0.0
 40
50.00000064437454
  0
ARC
  5
32A
330
22
100
AcDbEntity
  8
_0-2_メッセン
  6
Continuous
 62
     6
100
AcDbCircle
 10
20809.67366684609
 20
16984.64506823213
 30
0.0
 40
58.57653070140529
100
AcDbArc
 50
328.2987670898438
 51
42.56155395507814
  0
ARC
  5
32B
330
22
100
AcDbEntity
  8
_0-2_メッセン
  6
Continuous
 62
     6
100
AcDbCircle
 10
20667.88322528148
 20
17101.83875422769
 30
0.0
 40
58.57653070140529
100
AcDbArc
 50
58.29811096191409
 51
132.5519256591797
  0
ARC
  5
32C
330
22
100
AcDbEntity
  8
_0-2_メッセン
  6
Continuous
 62
     6
100
AcDbCircle
 10
20678.10743875276
 20
17114.20827096122
 30
0.0
 40
58.57653070140529
100
AcDbArc
 50
148.3001861572266
 51
222.54638671875
  0
ARC
  5
32D
330
22
100
AcDbEntity
  8
_0-2_メッセン
  6
Continuous
 62
     6
100
AcDbCircle
 10
20819.89788031737
 20
16997.01582216477
 30
0.0
 40
58.57653070140529
100
AcDbArc
 50
238.307357788086
 51
312.5507202148437
  0
CIRCLE
  5
32E
330
22
100
AcDbEntity
  8
_0-2_メッセン
  6
Continuous
 62
     6
100
AcDbCircle
 10
20551.19060492674
 20
17208.69564163268
 30
0.0
 40
50.00000064437454
  0
ARC
  5
32F
330
22
100
AcDbEntity
  8
_0-2_メッセン
  6
Continuous
 62
     6
100
AcDbCircle
 10
27809.7413003976
 20
16984.64506823213
 30
0.0
 40
58.57653070140529
100
AcDbArc
 50
328.2999572753906
 51
42.56274414062501
  0
ARC
  5
330
330
22
100
AcDbEntity
  8
_0-2_メッセン
  6
Continuous
 62
     6
100
AcDbCircle
 10
27667.950858833
 20
17101.83875422769
 30
0.0
 40
58.57653070140529
100
AcDbArc
 50
58.29811096191409
 51
132.5519256591797
  0
ARC
  5
331
330
22
100
AcDbEntity
  8
_0-2_メッセン
  6
Continuous
 62
     6
100
AcDbCircle
 10
27678.17507230428
 20
17114.20827096122
 30
0.0
 40
58.57653070140529
100
AcDbArc
 50
148.3001861572266
 51
222.54638671875
  0
ARC
  5
332
330
22
100
AcDbEntity
  8
_0-2_メッセン
  6
Continuous
 62
     6
100
AcDbCircle
 10
27819.96551386889
 20
16997.01582216477
 30
0.0
 40
58.57653070140529
100
AcDbArc
 50
238.307357788086
 51
312.5507202148437
  0
CIRCLE
  5
333
330
22
100
AcDbEntity
  8
_0-2_メッセン
  6
Continuous
 62
     6
100
AcDbCircle
 10
27551.26071287649
 20
17208.69564163268
 30
0.0
 40
50.00000064437454
  0
CIRCLE
  5
334
330
22
100
AcDbEntity
  8
_0-3_寸法
  6
Continuous
 62
     4
100
AcDbCircle
 10
6642.880256003602
 20
22981.33679780349
 30
0.0
 40
300.0000038662473
  0
CIRCLE
  5
335
330
22
100
AcDbEntity
  8
_0-3_寸法
  6
Continuous
 62
     4
100
AcDbCircle
 10
6612.640635279362
 20
19611.59984283094
 30
0.0
 40
300.0000038662473
  0
CIRCLE
  5
336
330
22
100
AcDbEntity
  8
_0-3_寸法
  6
Continuous
 62
     4
100
AcDbCircle
 10
6618.539600650982
 20
17224.03691063605
 30
0.0
 40
300.0000038662473
  0
TEXT
  5
337
330
22
100
AcDbEntity
  8
_0-1_ＧＬ
 62
     4
100
AcDbText
 10
4827.619549282477
 20
16937.46942884763
 30
0.0
 40
250.0
  1
ＧＬ
100
AcDbText
  0
TEXT
  5
338
330
22
100
AcDbEntity
  8
_0-3_寸法
 62
     4
100
AcDbText
 10
3585.773619337639
 20
16276.08010373149
 30
0.0
 40
250.0
  1
400
 50
90.0
100
AcDbText
  0
TEXT
  5
339
330
22
100
AcDbEntity
  8
_0-3_寸法
 62
     4
100
AcDbText
 10
3592.880091043721
 20
15168.83617920394
 30
0.0
 40
250.0
  1
1,600
 50
90.0
100
AcDbText
  0
TEXT
  5
33A
330
22
100
AcDbEntity
  8
_0-3_寸法
 62
     4
100
AcDbText
 10
3092.880915843128
 20
19368.83766384288
 30
0.0
 40
250.0
  1
6,000
 50
90.0
100
AcDbText
  0
TEXT
  5
33B
330
22
100
AcDbEntity
  8
_0-3_寸法
 62
     4
100
AcDbText
 10
3092.880915843128
 20
15368.83683904346
 30
0.0
 40
250.0
  1
2,000
 50
90.0
100
AcDbText
  0
TEXT
  5
33C
330
22
100
AcDbEntity
  8
_0-3_寸法
 62
     4
100
AcDbText
 10
2592.879266244311
 20
18368.83683904346
 30
0.0
 40
250.0
  1
8,000
 50
90.0
100
AcDbText
  0
TEXT
  5
33D
330
22
100
AcDbEntity
  8
_0-3_寸法
 62
     4
100
AcDbText
 10
3592.880091043721
 20
20646.33977532936
 30
0.0
 40
250.0
  1
2,850
 50
90.0
100
AcDbText
  0
TEXT
  5
33E
330
22
100
AcDbEntity
  8
_0-3_寸法
 62
     4
100
AcDbText
 10
3592.880091043721
 20
17861.3377628188
 30
0.0
 40
250.0
  1
2,900
 50
90.0
100
AcDbText
  0
TEXT
  5
33F
330
22
100
AcDbEntity
  8
_0-3_寸法
 62
     4
100
AcDbText
 10
3592.880091043721
 20
22328.8386041142
 30
0.0
 40
250.0
  1
200
 50
90.0
100
AcDbText
  0
TEXT
  5
340
330
22
100
AcDbEntity
  8
_0-3_寸法
 62
     4
100
AcDbText
 10
3585.773619337639
 20
16697.75818287265
 30
0.0
 40
250.0
  1
50
 50
90.0
100
AcDbText
  0
TEXT
  5
341
330
22
100
AcDbEntity
  8
_0-6_仕上
 62
     7
100
AcDbText
 10
8312.024922520704
 20
23216.08295753744
 30
0.0
 40
300.0
  1
ｼﾞｮｲﾝﾄﾋﾞｰﾑ
100
AcDbText
  0
TEXT
  5
342
330
22
100
AcDbEntity
  8
_0-6_仕上
 62
     7
100
AcDbText
 10
8279.726746812036
 20
15536.46144149015
 30
0.0
 40
300.0
  1
ﾈｶｾ
100
AcDbText
  0
TEXT
  5
343
330
22
100
AcDbEntity
  8
_0-3_寸法
 62
     7
100
AcDbText
 10
6492.879637404046
 20
22831.33877732208
 30
0.0
 40
300.0
  1
Ａ
100
AcDbText
  0
TEXT
  5
344
330
22
100
AcDbEntity
  8
_0-3_寸法
 62
     7
100
AcDbText
 10
6462.640016679805
 20
19461.5993479513
 30
0.0
 40
300.0
  1
Ｂ
100
AcDbText
  0
TEXT
  5
345
330
22
100
AcDbEntity
  8
_0-3_寸法
 62
     7
100
AcDbText
 10
6468.538982051427
 20
17074.03641575641
 30
0.0
 40
300.0
  1
Ｃ
100
AcDbText
  0
POINT
  5
346
330
22
100
AcDbEntity
  8
_0-3_寸法
 62
     4
100
AcDbPoint
 10
7142.879431204192
 20
12181.3358080442
 30
0.0
  0
POINT
  5
347
330
22
100
AcDbEntity
  8
_0-3_寸法
 62
     4
100
AcDbPoint
 10
14142.8802560036
 20
12181.3358080442
 30
0.0
  0
POINT
  5
348
330
22
100
AcDbEntity
  8
_0-3_寸法
 62
     4
100
AcDbPoint
 10
21142.88108080301
 20
12181.3358080442
 30
0.0
  0
POINT
  5
349
330
22
100
AcDbEntity
  8
_0-3_寸法
 62
     4
100
AcDbPoint
 10
28142.87943120419
 20
12181.3358080442
 30
0.0
  0
POINT
  5
34A
330
22
100
AcDbEntity
  8
_0-3_寸法
 62
     4
100
AcDbPoint
 10
3642.880256003603
 20
22681.33828244244
 30
0.0
  0
POINT
  5
34B
330
22
100
AcDbEntity
  8
_0-3_寸法
 62
     4
100
AcDbPoint
 10
3642.880256003603
 20
22351.34016298508
 30
0.0
  0
POINT
  5
34C
330
22
100
AcDbEntity
  8
_0-3_寸法
 62
     4
100
AcDbPoint
 10
3642.880256003603
 20
19566.33938767364
 30
0.0
  0
POINT
  5
34D
330
22
100
AcDbEntity
  8
_0-3_寸法
 62
     4
100
AcDbPoint
 10
3642.880256003603
 20
16781.33737516308
 30
0.0
  0
POINT
  5
34E
330
22
100
AcDbEntity
  8
_0-3_寸法
 62
     4
100
AcDbPoint
 10
3642.880256003603
 20
16681.33704524332
 30
0.0
  0
POINT
  5
34F
330
22
100
AcDbEntity
  8
_0-3_寸法
 62
     4
100
AcDbPoint
 10
3642.880256003603
 20
16281.33696276338
 30
0.0
  0
POINT
  5
350
330
22
100
AcDbEntity
  8
_0-3_寸法
 62
     4
100
AcDbPoint
 10
3642.880256003603
 20
14681.33663284361
 30
0.0
  0
POINT
  5
351
330
22
100
AcDbEntity
  8
_0-3_寸法
 62
     4
100
AcDbPoint
 10
3142.881080803011
 20
22681.33828244244
 30
0.0
  0
POINT
  5
352
330
22
100
AcDbEntity
  8
_0-3_寸法
 62
     4
100
AcDbPoint
 10
3142.881080803011
 20
16681.33704524332
 30
0.0
  0
POINT
  5
353
330
22
100
AcDbEntity
  8
_0-3_寸法
 62
     4
100
AcDbPoint
 10
3142.881080803011
 20
14681.33663284361
 30
0.0
  0
POINT
  5
354
330
22
100
AcDbEntity
  8
_0-3_寸法
 62
     4
100
AcDbPoint
 10
2642.879431204193
 20
22681.33828244244
 30
0.0
  0
POINT
  5
355
330
22
100
AcDbEntity
  8
_0-3_寸法
 62
     4
100
AcDbPoint
 10
2642.879431204193
 20
14681.33663284361
 30
0.0
  0
TEXT
  5
356
330
22
100
AcDbEntity
  8
_0-6_仕上
 62
     7
100
AcDbText
 10
6477.508294754972
 20
20208.77585337518
 30
0.0
 40
300.0
  1
PC　POLE
 50
90.0
100
AcDbText
  0
TEXT
  5
357
330
22
100
AcDbEntity
  8
_0-3_寸法
 62
     4
100
AcDbText
 10
10330.37922500434
 20
12231.33597300408
 30
0.0
 40
250.0
  1
6,000
100
AcDbText
  0
TEXT
  5
358
330
22
100
AcDbEntity
  8
_0-3_寸法
 62
     4
100
AcDbText
 10
17330.38004980375
 20
12231.33597300408
 30
0.0
 40
250.0
  1
6,000
100
AcDbText
  0
TEXT
  5
359
330
22
100
AcDbEntity
  8
_0-3_寸法
 62
     4
100
AcDbText
 10
24330.38149320272
 20
12231.33597300408
 30
0.0
 40
250.0
  1
6,000
100
AcDbText
  0
TEXT
  5
35A
330
22
100
AcDbEntity
  8
_0-3_寸法
 62
     4
100
AcDbText
 10
10190.79755603256
 20
11815.59261430971
 30
0.0
 40
250.0
  1
(8,000)
100
AcDbText
  0
TEXT
  5
35B
330
22
100
AcDbEntity
  8
_0-3_寸法
 62
     4
100
AcDbText
 10
17211.99863708562
 20
11814.5706053415
 30
0.0
 40
250.0
  1
(8,000)
100
AcDbText
  0
TEXT
  5
35C
330
22
100
AcDbEntity
  8
_0-3_寸法
 62
     4
100
AcDbText
 10
24206.31067766894
 20
11814.5706053415
 30
0.0
 40
250.0
  1
(8,000)
100
AcDbText
  0
TEXT
  5
35D
330
22
100
AcDbEntity
  8
_0-6_仕上
 62
     7
100
AcDbText
 10
9339.492062512258
 20
21895.55600969117
 30
0.0
 40
300.0
  1
ﾌﾞﾚｰｽﾜｲﾔｰ　55m㎡
100
AcDbText
  0
TEXT
  5
35E
330
22
100
AcDbEntity
  8
_0-6_仕上
 62
     7
100
AcDbText
 10
14782.7990627498
 20
20984.36381163373
 30
0.0
 40
300.0
  1
縦ﾜｲﾔｰ 38m㎡
100
AcDbText
  0
LINE
  5
35F
330
22
100
AcDbEntity
  8
_0-6_仕上
  6
Continuous
 62
     4
100
AcDbLine
 10
28968.83355916027
 20
22215.53281633179
 30
0.0
 11
30139.72827033741
 21
24243.58168034054
 31
0.0
  0
LINE
  5
360
330
22
100
AcDbEntity
  8
_0-6_仕上
  6
Continuous
 62
     4
100
AcDbLine
 10
30826.95031293665
 20
24243.58168034054
 30
0.0
 11
30139.72827033741
 21
24243.58168034054
 31
0.0
  0
TEXT
  5
361
330
22
100
AcDbEntity
  8
_0-5_枠
 62
     7
100
AcDbText
 10
3445.015752968519
 20
8902.029383192438
 30
0.0
 40
400.0
  1
設計条件
100
AcDbText
  0
TEXT
  5
362
330
22
100
AcDbEntity
  8
_0-5_枠
 62
     7
100
AcDbText
 10
3945.015752968519
 20
8452.029383192437
 30
0.0
 40
300.0
  1
・設計荷重　建築基準法・同施工令
100
AcDbText
  0
TEXT
  5
363
330
22
100
AcDbEntity
  8
_0-5_枠
 62
     7
100
AcDbText
 10
4184.473631491156
 20
7952.029383192436
 30
0.0
 40
300.0
  1
（平成１２年６月）に基づく風圧力による。
100
AcDbText
  0
TEXT
  5
364
330
22
100
AcDbEntity
  8
_0-5_枠
 62
     7
100
AcDbText
 10
4445.015752968518
 20
7452.029383192436
 30
0.0
 40
300.0
  1
基準風速・・・３４ｍ／ｓｅｃ
100
AcDbText
  0
TEXT
  5
365
330
22
100
AcDbEntity
  8
_0-5_枠
 62
     7
100
AcDbText
 10
4445.015752968518
 20
6952.029383192436
 30
0.0
 40
300.0
  1
地表面粗度区分・・・Ⅲ
100
AcDbText
  0
TEXT
  5
366
330
22
100
AcDbEntity
  8
_0-5_枠
 62
     7
100
AcDbText
 10
4445.015752968518
 20
6452.029383192436
 30
0.0
 40
300.0
  1
基礎　普通土質（Ｂ）を選定
100
AcDbText
  0
TEXT
  5
367
330
22
100
AcDbEntity
  8
_0-6_仕上
 62
     7
100
AcDbText
 10
6820.162961140107
 20
20223.97855607788
 30
0.0
 40
300.0
  1
8-19-500
 50
90.0
100
AcDbText
  0
TEXT
  5
368
330
22
100
AcDbEntity
  8
_0-6_仕上
 62
     7
100
AcDbText
 10
14789.89580182286
 20
21879.82378576803
 30
0.0
 40
300.0
  1
ﾎﾟﾘﾛｰﾌﾟ6φ押え
100
AcDbText
  0
TEXT
  5
369
330
22
100
AcDbEntity
  8
_0-6_仕上
 62
     7
100
AcDbText
 10
22243.19763980576
 20
23100.79579537529
 30
0.0
 40
300.0
  1
ポリロープ4φにてかがりどめ
100
AcDbText
  0
LINE
  5
36A
330
22
100
AcDbEntity
  8
_0-6_仕上
  6
Continuous
 62
     4
100
AcDbLine
 10
22157.17963938346
 20
23051.1049301937
 30
0.0
 11
26920.76505789517
 21
23051.1049301937
 31
0.0
  0
LINE
  5
36B
330
22
100
AcDbEntity
  8
_0-6_仕上
  6
Continuous
 62
     4
100
AcDbLine
 10
21757.17955690352
 20
22358.28579880645
 30
0.0
 11
22157.17963938346
 21
23051.1049301937
 31
0.0
  0
LINE
  5
36C
330
22
100
AcDbEntity
  8
_0-6_仕上
  6
Continuous
 62
     4
100
AcDbLine
 10
21757.17955690352
 20
22358.28579880645
 30
0.0
 11
21757.17955690352
 21
22458.28612872622
 31
0.0
  0
LINE
  5
36D
330
22
100
AcDbEntity
  8
_0-6_仕上
  6
Continuous
 62
     4
100
AcDbLine
 10
16840.59929797521
 20
22362.7124972334
 30
0.0
 11
17240.59938045515
 21
23055.52915422241
 31
0.0
  0
LINE
  5
36E
330
22
100
AcDbEntity
  8
_0-6_仕上
  6
Continuous
 62
     4
100
AcDbLine
 10
16840.59929797521
 20
22362.7124972334
 30
0.0
 11
16840.59929797521
 21
22462.71282715316
 31
0.0
  0
LINE
  5
36F
330
22
100
AcDbEntity
  8
_0-6_仕上
  6
Continuous
 62
     4
100
AcDbLine
 10
17240.59938045515
 20
23055.52915422241
 30
0.0
 11
17440.60004029467
 21
23055.52915422241
 31
0.0
  0
LINE
  5
370
330
22
100
AcDbEntity
  8
_0-6_仕上
  6
Continuous
 62
     4
100
AcDbLine
 10
16840.59929797521
 20
19577.31334380751
 30
0.0
 11
17240.59938045515
 21
20270.13000079653
 31
0.0
  0
LINE
  5
371
330
22
100
AcDbEntity
  8
_0-6_仕上
  6
Continuous
 62
     4
100
AcDbLine
 10
16840.59929797521
 20
19577.31334380751
 30
0.0
 11
16840.59929797521
 21
19677.31367372728
 31
0.0
  0
LINE
  5
372
330
22
100
AcDbEntity
  8
_0-6_仕上
  6
Continuous
 62
     4
100
AcDbLine
 10
17240.59938045515
 20
20270.13000079653
 30
0.0
 11
17440.60004029467
 21
20270.13000079653
 31
0.0
  0
LINE
  5
373
330
22
100
AcDbEntity
  8
_0-6_仕上
  6
Continuous
 62
     4
100
AcDbLine
 10
16840.59929797521
 20
16791.91419038162
 30
0.0
 11
17240.59938045515
 21
17484.73084737064
 31
0.0
  0
LINE
  5
374
330
22
100
AcDbEntity
  8
_0-6_仕上
  6
Continuous
 62
     4
100
AcDbLine
 10
16840.59929797521
 20
16791.91419038162
 30
0.0
 11
16840.59929797521
 21
16891.91452030138
 31
0.0
  0
LINE
  5
375
330
22
100
AcDbEntity
  8
_0-6_仕上
  6
Continuous
 62
     4
100
AcDbLine
 10
17240.59938045515
 20
17484.73084737064
 30
0.0
 11
17440.60004029467
 21
17484.73084737064
 31
0.0
  0
TEXT
  5
376
330
22
100
AcDbEntity
  8
_0-6_仕上
 62
     7
100
AcDbText
 10
17471.6906890489
 20
22943.08755002056
 30
0.0
 40
300.0
  1
横ﾜｲﾔｰ 38m㎡
100
AcDbText
  0
TEXT
  5
377
330
22
100
AcDbEntity
  8
_0-6_仕上
 62
     7
100
AcDbText
 10
17471.6906890489
 20
20122.10386227044
 30
0.0
 40
300.0
  1
横ﾜｲﾔｰ 38m㎡
100
AcDbText
  0
TEXT
  5
378
330
22
100
AcDbEntity
  8
_0-6_仕上
 62
     7
100
AcDbText
 10
17471.6906890489
 20
17381.97564826497
 30
0.0
 40
300.0
  1
横ﾜｲﾔｰ 38m㎡
100
AcDbText
  0
ENDSEC
  0
SECTION
  2
OBJECTS
  0
DICTIONARY
  5
C
330
0
100
AcDbDictionary
281
     1
  3
ACAD_COLOR
350
1B
  3
ACAD_GROUP
350
D
  3
ACAD_LAYOUT
350
19
  3
ACAD_MATERIAL
350
1A
  3
ACAD_MLINESTYLE
350
16
  3
ACAD_PLOTSETTINGS
350
18
  3
ACAD_PLOTSTYLENAME
350
E
  3
ACAD_TABLESTYLE
350
1C
  3
ACDBHEADERROUNDTRIPXREC
350
669
  3
AcDbVariableDictionary
350
664
  3
ADE_QUERY_LIBRARY
350
662
  3
AEC_VARS
350
3A0
  3
ASE_INDEX_DICTIONARY
350
65E
  3
Autodesk_MAP
350
3A2
  3
Root
350
37B
1001
ADE
1000
ADE02C004
1000
[Query]
1000
CaseSensitiveMatch=0
1000
SaveCurrQueryInSession=1
1000
MkSelSetWithQryObj=0
1000
ShowBlockAsInsPt=0
1000
CreateAssociativeHatchObjects=0
1000
ReferenceBoundaryForAreaLocation=1
1000
ShowImageAsBoundary=1
1000
DefaultJoinOperator=2
1000
ColorForAdd=red
1000
ColorForRemove=red
1000
BlockLocnForQuery=1
1000
TextLocnForQuery=1
1000
IncludeAllObjectsInGroups=0
1000
AlwaysUseLibraryDefinitions=0
1000
PreviewDefinitionsFrom=2
1000
[Save Back]
1000
RedefineBlockDefinitions=1
1000
RedefineLayerDefinitions=1
1000
RedefineTextStyleDefinitions=1
1000
RemoveUnusedGroups=1
1000
EraseSavedBackObjects=1
1000
RemoveLockAfterSave=1
1000
CreateHistoryFileOfChanges=0
1000
CreateBackupFileOfSourceDwg=1
1000
DontAddObjectsToSaveSet=0
1000
MarkObjectsForEditingWithoutPrompting=0
1000
[Coordinate Transformation]
1000
RestoreLastActiveDwgsOnStartup=1
1000
ActivateDwgsOnAttach=1
1000
AdjustSizesAndScalesForChangesInUnits=1
1000
AdjustRotationsForMapDistortions=1
1000
AdjustSizesAndScalesForMapDistortions=1
1000
AdjustElevations=1
1000
AdjustZeroRotationObjects=1
1000
ReconnectDbOnWSOpen=1
1000
NoOfSQLConditionsInHistory=10
  0
DICTIONARY
  5
1B
102
{ACAD_REACTORS
330
C
102
}
330
C
100
AcDbDictionary
281
     1
  0
DICTIONARY
  5
D
102
{ACAD_REACTORS
330
C
102
}
330
C
100
AcDbDictionary
281
     1
  0
DICTIONARY
  5
19
102
{ACAD_REACTORS
330
C
102
}
330
C
100
AcDbDictionary
281
     1
  3
Model
350
25
  3
レイアウト1
350
21
  0
DICTIONARY
  5
1A
102
{ACAD_REACTORS
330
C
102
}
330
C
100
AcDbDictionary
281
     1
  0
DICTIONARY
  5
16
102
{ACAD_REACTORS
330
C
102
}
330
C
100
AcDbDictionary
281
     1
  3
Standard
350
17
  0
DICTIONARY
  5
18
102
{ACAD_REACTORS
330
C
102
}
330
C
100
AcDbDictionary
281
     1
  0
ACDBDICTIONARYWDFLT
  5
E
102
{ACAD_REACTORS
330
C
102
}
330
C
100
AcDbDictionary
281
     1
  3
Normal
350
F
100
AcDbDictionaryWithDefault
340
F
  0
DICTIONARY
  5
1C
102
{ACAD_REACTORS
330
C
102
}
330
C
100
AcDbDictionary
281
     1
  3
Legend
350
3A6
  3
Standard
350
1D
  0
DICTIONARY
  5
669
102
{ACAD_REACTORS
330
C
102
}
330
C
100
AcDbDictionary
281
     1
  0
DICTIONARY
  5
664
102
{ACAD_REACTORS
330
C
102
}
330
C
100
AcDbDictionary
281
     1
  3
CTABLESTYLE
350
665
  3
DIMASSOC
350
666
  3
PROJECTNAME
350
667
  0
DICTIONARY
  5
662
102
{ACAD_REACTORS
330
C
102
}
330
C
100
AcDbDictionary
281
     1
  3
_CurrQry
350
663
  0
DICTIONARY
  5
3A0
102
{ACAD_REACTORS
330
C
102
}
330
C
100
AcDbDictionary
281
     1
  3
AEC_VARS_DWG_SETUP
350
3A1
  0
DICTIONARY
  5
65E
102
{ACAD_REACTORS
330
C
102
}
330
C
100
AcDbDictionary
281
     1
  3
ASEBlockHierarchyIndexRecord
350
660
1001
DCO15
1040
1621943225.437
  0
DICTIONARY
  5
3A2
102
{ACAD_REACTORS
330
C
102
}
330
C
100
AcDbDictionary
281
     1
  3
MAP_DISPLAY_MANAGEMENT_DICTIONARY
350
3A3
  3
MAP_DISPLAY_STYLELIBRARY_DICTIONARY
350
3A4
  0
LAYOUT
  5
25
102
{ACAD_XDICTIONARY
360
66C
102
}
102
{ACAD_REACTORS
330
19
102
}
330
19
100
AcDbPlotSettings
  1

  2
DCColor a450_newosk
  4

  6

 40
0.0
 41
0.0
 42
0.0
 43
0.0
 44
0.0
 45
0.0
 46
0.0
 47
0.0
 48
0.0
 49
0.0
140
0.0
141
0.0
142
1.0
143
1.0
 70
  1712
 72
     0
 73
     0
 74
     0
  7

 75
     0
147
1.0
148
0.0
149
0.0
100
AcDbLayout
  1
Model
 70
     1
 71
     0
 10
0.0
 20
0.0
 11
12.0
 21
9.0
 12
0.0
 22
0.0
 32
0.0
 14
0.0
 24
0.0
 34
0.0
 15
0.0
 25
0.0
 35
0.0
146
0.0
 13
0.0
 23
0.0
 33
0.0
 16
1.0
 26
0.0
 36
0.0
 17
0.0
 27
1.0
 37
0.0
 76
     0
330
22
  0
LAYOUT
  5
21
102
{ACAD_XDICTIONARY
360
66A
102
}
102
{ACAD_REACTORS
330
19
102
}
330
19
100
AcDbPlotSettings
  1

  2
DCColor a450_newosk
  4

  6

 40
0.0
 41
0.0
 42
0.0
 43
0.0
 44
0.0
 45
0.0
 46
0.0
 47
0.0
 48
0.0
 49
0.0
140
0.0
141
0.0
142
1.0
143
1.0
 70
   688
 72
     0
 73
     0
 74
     5
  7

 75
    16
147
1.0
148
0.0
149
0.0
100
AcDbLayout
  1
レイアウト1
 70
     1
 71
     1
 10
0.0
 20
0.0
 11
12.0
 21
9.0
 12
0.0
 22
0.0
 32
0.0
 14
1.000000000000000E+20
 24
1.000000000000000E+20
 34
1.000000000000000E+20
 15
-1.000000000000000E+20
 25
-1.000000000000000E+20
 35
-1.000000000000000E+20
146
0.0
 13
0.0
 23
0.0
 33
0.0
 16
1.0
 26
0.0
 36
0.0
 17
0.0
 27
1.0
 37
0.0
 76
     0
330
1E
  0
MLINESTYLE
  5
17
102
{ACAD_REACTORS
330
16
102
}
330
16
100
AcDbMlineStyle
  2
STANDARD
 70
     0
  3

 62
   256
 51
90.0
 52
90.0
 71
     2
 49
0.5
 62
   256
  6
BYLAYER
 49
-0.5
 62
   256
  6
BYLAYER
  0
ACDBPLACEHOLDER
  5
F
102
{ACAD_REACTORS
330
E
102
}
330
E
  0
TABLESTYLE
  5
3A6
102
{ACAD_REACTORS
330
1C
102
}
330
1C
100
AcDbTableStyle
  3

 70
     0
 71
     1
 40
0.06
 41
0.06
280
     0
281
     0
  7
STANDARD
140
0.4
170
     4
 62
     0
 63
     7
283
     0
274
    -2
284
     0
 64
     0
275
    -2
285
     0
 65
     0
276
    -2
286
     1
 66
     0
277
    -2
287
     1
 67
     0
278
    -2
288
     0
 68
     0
279
    -2
289
     1
 69
     0
  7
STANDARD
140
0.5
170
     5
 62
     0
 63
     7
283
     0
274
    -2
284
     1
 64
     0
275
    -2
285
     0
 65
     0
276
    -2
286
     1
 66
     0
277
    -2
287
     1
 67
     0
278
    -2
288
     0
 68
     0
279
    -2
289
     1
 69
     0
  7
STANDARD
140
0.4
170
     4
 62
     0
 63
     7
283
     0
274
    -2
284
     1
 64
     0
275
    -2
285
     0
 65
     0
276
    -2
286
     1
 66
     0
277
    -2
287
     1
 67
     0
278
    -2
288
     0
 68
     0
279
    -2
289
     1
 69
     0
  0
TABLESTYLE
  5
1D
102
{ACAD_REACTORS
330
1C
102
}
330
1C
100
AcDbTableStyle
  3
Standard
 70
     0
 71
     0
 40
0.06
 41
0.06
280
     0
281
     0
  7
STANDARD
140
0.18
170
     2
 62
     0
 63
     7
283
     0
274
    -2
284
     1
 64
     0
275
    -2
285
     1
 65
     0
276
    -2
286
     1
 66
     0
277
    -2
287
     1
 67
     0
278
    -2
288
     1
 68
     0
279
    -2
289
     1
 69
     0
  7
STANDARD
140
0.25
170
     5
 62
     0
 63
     7
283
     0
274
    -2
284
     1
 64
     0
275
    -2
285
     1
 65
     0
276
    -2
286
     1
 66
     0
277
    -2
287
     1
 67
     0
278
    -2
288
     1
 68
     0
279
    -2
289
     1
 69
     0
  7
STANDARD
140
0.18
170
     5
 62
     0
 63
     7
283
     0
274
    -2
284
     1
 64
     0
275
    -2
285
     1
 65
     0
276
    -2
286
     1
 66
     0
277
    -2
287
     1
 67
     0
278
    -2
288
     1
 68
     0
279
    -2
289
     1
 69
     0
  0
DICTIONARYVAR
  5
665
102
{ACAD_REACTORS
330
664
102
}
330
664
100
DictionaryVariables
280
     0
  1
STANDARD
  0
DICTIONARYVAR
  5
666
102
{ACAD_REACTORS
330
664
102
}
330
664
100
DictionaryVariables
280
     0
  1
1
  0
DICTIONARYVAR
  5
667
102
{ACAD_REACTORS
330
664
102
}
330
664
100
DictionaryVariables
280
     0
  1

  0
XRECORD
  5
663
102
{ACAD_REACTORS
330
662
102
}
330
662
100
AcDbXrecord
280
     1
1000
ADE02C001
1070
     1
1070
     0
1002
{
1002
}
1002
{
1002
}
1002
{
1002
}
1000

  0
XRECORD
  5
660
102
{ACAD_REACTORS
330
65E
102
}
330
65E
100
AcDbXrecord
280
     1
  0
DMMAPMANAGER
  5
3A3
102
{ACAD_REACTORS
330
3A2
102
}
330
3A2
100
AcDbDictionary
281
     1
  3
DisplayMap1
350
3A5
100
AcDbDictionaryWithDefault
340
3A5
100
AcMapDMMapManager
 70
     1
340
3A5
  0
DMSTYLELIBRARY
  5
3A4
102
{ACAD_REACTORS
330
3A2
102
}
330
3A2
100
AcMapDMStyleLibrary
 70
     1
 70
     1
360
3AA
  0
DICTIONARY
  5
66C
330
25
100
AcDbDictionary
280
     1
281
     1
  3
ACAD_XREC_ROUNDTRIP
360
66D
  0
DICTIONARY
  5
66A
330
21
100
AcDbDictionary
280
     1
281
     1
  3
ACAD_XREC_ROUNDTRIP
360
66B
  0
DMMAP
  5
3A5
102
{ACAD_REACTORS
330
3A3
330
3A7
102
}
330
3A3
100
AcMapDMMap
 70
     1
  1
既定値
 70
     1
330
0
100
AcMapDMMap
 70
     1
 90
        1
360
3A7
 90
        1
 40
1.797693134862314E+99
 70
     1
100
AcMapDMMap
 70
     2
 70
     0
 40
1.797693134862314E+99
290
     0
290
     1
 40
1.0
 40
3.0
  1
Legend
 90
        1
 40
1.797693134862314E+99
  1

 70
     0
 40
100.0
 70
     1
 90
        0
 90
        1
360
3A8
  0
DMSTYLECATEGORY
  5
3AA
102
{ACAD_REACTORS
330
3A4
102
}
330
3A4
100
AcMapDMStyleCategory
 70
     1
  1
スタイルを表示
 70
     0
  0
XRECORD
  5
66D
102
{ACAD_REACTORS
330
66C
102
}
330
66C
100
AcDbXrecord
280
     1
102
SHADEPLOT
 70
     0
102
SHADEPLOTRESLEVEL
 70
     2
102
SHADEPLOTCUSTOMDPI
 70
   300
  0
XRECORD
  5
66B
102
{ACAD_REACTORS
330
66A
102
}
330
66A
100
AcDbXrecord
280
     1
102
SHADEPLOT
 70
     0
102
SHADEPLOTRESLEVEL
 70
     2
102
SHADEPLOTCUSTOMDPI
 70
   300
  0
DMBASEELEMENT
  5
3A7
102
{ACAD_REACTORS
330
3A5
102
}
330
3A5
100
AcMapDMBaseElement
 70
     1
  1
マップ ベース
 70
     1
330
3A5
100
AcMapDMBaseElement
 70
     1
  1

 70
     2
  1

 70
     1
 40
1.797693134862314E+99
 70
     1
 70
     1
 70
     1
 70
     1
360
3A9
100
AcMapDMBaseElement
 70
     1
  0
DMDEFAULTSTYLE
  5
3A8
102
{ACAD_REACTORS
330
3A5
102
}
330
3A5
100
AcMapDMDefaultStyle
 70
     1
 90
        1
  1
既定値
100
AcMapDMDefaultStyle
 70
     1
280
   100
 90
     0
  0
DMSTYLEREFERENCE
  5
3A9
330
3A7
100
AcMapDMStyleReference
 70
     1
 70
     0
340
3A8
330
3A5
  0
ENDSEC
  0
EOF
