  0
SECTION
  2
HEADER
  9
$ACADVER
  1
AC1015
  9
$ACADMAINTVER
 70
    20
  9
$DWGCODEPAGE
  3
ANSI_932
  9
$INSBASE
 10
0.0
 20
0.0
 30
0.0
  9
$EXTMIN
 10
1986.483702788481
 20
4756.754694758234
 30
0.0
  9
$EXTMAX
 10
38986.48483688767
 20
29756.75675675677
 30
0.0
  9
$LIMMIN
 10
0.0
 20
0.0
  9
$LIMMAX
 10
42000.0
 20
29700.0
  9
$ORTHOMODE
 70
     0
  9
$REGENMODE
 70
     1
  9
$FILLMODE
 70
     1
  9
$QTEXTMODE
 70
     0
  9
$MIRRTEXT
 70
     0
  9
$LTSCALE
 40
100.0
  9
$ATTMODE
 70
     1
  9
$TEXTSIZE
 40
0.2
  9
$TRACEWID
 40
0.05
  9
$TEXTSTYLE
  7
STANDARD
  9
$CLAYER
  8
0
  9
$CELTYPE
  6
CONTINUOUS
  9
$CECOLOR
 62
   256
  9
$CELTSCALE
 40
1.0
  9
$DISPSILH
 70
     0
  9
$DIMSCALE
 40
40.0
  9
$DIMASZ
 40
0.18
  9
$DIMEXO
 40
0.0625
  9
$DIMDLI
 40
0.38
  9
$DIMRND
 40
0.0
  9
$DIMDLE
 40
0.0
  9
$DIMEXE
 40
0.18
  9
$DIMTP
 40
0.0
  9
$DIMTM
 40
0.0
  9
$DIMTXT
 40
0.18
  9
$DIMCEN
 40
0.09
  9
$DIMTSZ
 40
0.0
  9
$DIMTOL
 70
     0
  9
$DIMLIM
 70
     0
  9
$DIMTIH
 70
     1
  9
$DIMTOH
 70
     1
  9
$DIMSE1
 70
     0
  9
$DIMSE2
 70
     0
  9
$DIMTAD
 70
     0
  9
$DIMZIN
 70
     0
  9
$DIMBLK
  1

  9
$DIMASO
 70
     1
  9
$DIMSHO
 70
     1
  9
$DIMPOST
  1

  9
$DIMAPOST
  1

  9
$DIMALT
 70
     0
  9
$DIMALTD
 70
     2
  9
$DIMALTF
 40
25.4
  9
$DIMLFAC
 40
1.0
  9
$DIMTOFL
 70
     0
  9
$DIMTVP
 40
0.0
  9
$DIMTIX
 70
     0
  9
$DIMSOXD
 70
     0
  9
$DIMSAH
 70
     0
  9
$DIMBLK1
  1

  9
$DIMBLK2
  1

  9
$DIMSTYLE
  2
Standard
  9
$DIMCLRD
 70
     0
  9
$DIMCLRE
 70
     0
  9
$DIMCLRT
 70
     0
  9
$DIMTFAC
 40
1.0
  9
$DIMGAP
 40
0.09
  9
$DIMJUST
 70
     0
  9
$DIMSD1
 70
     0
  9
$DIMSD2
 70
     0
  9
$DIMTOLJ
 70
     1
  9
$DIMTZIN
 70
     0
  9
$DIMALTZ
 70
     0
  9
$DIMALTTZ
 70
     0
  9
$DIMUPT
 70
     0
  9
$DIMDEC
 70
     4
  9
$DIMTDEC
 70
     4
  9
$DIMALTU
 70
     2
  9
$DIMALTTD
 70
     2
  9
$DIMTXSTY
  7
STANDARD
  9
$DIMAUNIT
 70
     0
  9
$DIMADEC
 70
     0
  9
$DIMALTRND
 40
0.0
  9
$DIMAZIN
 70
     0
  9
$DIMDSEP
 70
    46
  9
$DIMATFIT
 70
     3
  9
$DIMFRAC
 70
     0
  9
$DIMLDRBLK
  1

  9
$DIMLUNIT
 70
     2
  9
$DIMLWD
 70
    -2
  9
$DIMLWE
 70
    -2
  9
$DIMTMOVE
 70
     0
  9
$LUNITS
 70
     2
  9
$LUPREC
 70
     4
  9
$SKETCHINC
 40
0.1
  9
$FILLETRAD
 40
0.0
  9
$AUNITS
 70
     0
  9
$AUPREC
 70
     0
  9
$MENU
  1
.
  9
$ELEVATION
 40
0.0
  9
$PELEVATION
 40
0.0
  9
$THICKNESS
 40
0.0
  9
$LIMCHECK
 70
     0
  9
$CHAMFERA
 40
0.0
  9
$CHAMFERB
 40
0.0
  9
$CHAMFERC
 40
0.0
  9
$CHAMFERD
 40
0.0
  9
$SKPOLY
 70
     0
  9
$TDCREATE
 40
2454575.703397893
  9
$TDUCREATE
 40
2454575.328397893
  9
$TDUPDATE
 40
2454575.703824687
  9
$TDUUPDATE
 40
2454575.328824688
  9
$TDINDWG
 40
0.0004275116
  9
$TDUSRTIMER
 40
0.0004275116
  9
$USRTIMER
 70
     1
  9
$ANGBASE
 50
0.0
  9
$ANGDIR
 70
     0
  9
$PDMODE
 70
     0
  9
$PDSIZE
 40
0.0
  9
$PLINEWID
 40
0.0
  9
$SPLFRAME
 70
     0
  9
$SPLINETYPE
 70
     6
  9
$SPLINESEGS
 70
     8
  9
$HANDSEED
  5
899
  9
$SURFTAB1
 70
     6
  9
$SURFTAB2
 70
     6
  9
$SURFTYPE
 70
     6
  9
$SURFU
 70
     6
  9
$SURFV
 70
     6
  9
$UCSBASE
  2

  9
$UCSNAME
  2

  9
$UCSORG
 10
0.0
 20
0.0
 30
0.0
  9
$UCSXDIR
 10
1.0
 20
0.0
 30
0.0
  9
$UCSYDIR
 10
0.0
 20
1.0
 30
0.0
  9
$UCSORTHOREF
  2

  9
$UCSORTHOVIEW
 70
     0
  9
$UCSORGTOP
 10
0.0
 20
0.0
 30
0.0
  9
$UCSORGBOTTOM
 10
0.0
 20
0.0
 30
0.0
  9
$UCSORGLEFT
 10
0.0
 20
0.0
 30
0.0
  9
$UCSORGRIGHT
 10
0.0
 20
0.0
 30
0.0
  9
$UCSORGFRONT
 10
0.0
 20
0.0
 30
0.0
  9
$UCSORGBACK
 10
0.0
 20
0.0
 30
0.0
  9
$PUCSBASE
  2

  9
$PUCSNAME
  2

  9
$PUCSORG
 10
0.0
 20
0.0
 30
0.0
  9
$PUCSXDIR
 10
1.0
 20
0.0
 30
0.0
  9
$PUCSYDIR
 10
0.0
 20
1.0
 30
0.0
  9
$PUCSORTHOREF
  2

  9
$PUCSORTHOVIEW
 70
     0
  9
$PUCSORGTOP
 10
0.0
 20
0.0
 30
0.0
  9
$PUCSORGBOTTOM
 10
0.0
 20
0.0
 30
0.0
  9
$PUCSORGLEFT
 10
0.0
 20
0.0
 30
0.0
  9
$PUCSORGRIGHT
 10
0.0
 20
0.0
 30
0.0
  9
$PUCSORGFRONT
 10
0.0
 20
0.0
 30
0.0
  9
$PUCSORGBACK
 10
0.0
 20
0.0
 30
0.0
  9
$USERI1
 70
     0
  9
$USERI2
 70
     0
  9
$USERI3
 70
     0
  9
$USERI4
 70
     0
  9
$USERI5
 70
     0
  9
$USERR1
 40
0.0
  9
$USERR2
 40
0.0
  9
$USERR3
 40
0.0
  9
$USERR4
 40
0.0
  9
$USERR5
 40
0.0
  9
$WORLDVIEW
 70
     1
  9
$SHADEDGE
 70
     3
  9
$SHADEDIF
 70
    70
  9
$TILEMODE
 70
     1
  9
$MAXACTVP
 70
    64
  9
$PINSBASE
 10
0.0
 20
0.0
 30
0.0
  9
$PLIMCHECK
 70
     0
  9
$PEXTMIN
 10
1.000000000000000E+20
 20
1.000000000000000E+20
 30
1.000000000000000E+20
  9
$PEXTMAX
 10
-1.000000000000000E+20
 20
-1.000000000000000E+20
 30
-1.000000000000000E+20
  9
$PLIMMIN
 10
0.0
 20
0.0
  9
$PLIMMAX
 10
12.0
 20
9.0
  9
$UNITMODE
 70
     0
  9
$VISRETAIN
 70
     1
  9
$PLINEGEN
 70
     0
  9
$PSLTSCALE
 70
     1
  9
$TREEDEPTH
 70
  3020
  9
$CMLSTYLE
  2
Standard
  9
$CMLJUST
 70
     0
  9
$CMLSCALE
 40
1.0
  9
$PROXYGRAPHICS
 70
     1
  9
$MEASUREMENT
 70
     0
  9
$CELWEIGHT
370
    -1
  9
$ENDCAPS
280
     0
  9
$JOINSTYLE
280
     0
  9
$LWDISPLAY
290
     0
  9
$INSUNITS
 70
     2
  9
$HYPERLINKBASE
  1

  9
$STYLESHEET
  1

  9
$XEDIT
290
     1
  9
$CEPSNTYPE
380
     0
  9
$PSTYLEMODE
290
     1
  9
$FINGERPRINTGUID
  2
{1B332B3C-371F-415E-9FE2-80BF09F1E617}
  9
$VERSIONGUID
  2
{D4714F15-AC07-43D3-8AA5-F777B455861B}
  9
$EXTNAMES
290
     1
  9
$PSVPSCALE
 40
0.0
  9
$OLESTARTUP
290
     0
  0
ENDSEC
  0
SECTION
  2
CLASSES
  0
CLASS
  1
ACDBDICTIONARYWDFLT
  2
AcDbDictionaryWithDefault
  3
ObjectDBX Classes
 90
        0
280
     0
281
     0
  0
CLASS
  1
TABLESTYLE
  2
AcDbTableStyle
  3
ObjectDBX Classes
 90
     2047
280
     0
281
     0
  0
CLASS
  1
AECC_TREE_NODE
  2
AeccDbTreeNode
  3
AeccvBase10|Product Desc: Autodesk Civil 3D |Company: Autodesk,Inc. |WEB Address: www.autodesk.com
 90
     1023
280
     0
281
     0
  0
CLASS
  1
AECC_CLASS_NODE
  2
AeccDbClassNode
  3
AeccLand10|Product Desc: Autodesk Civil 3D |Company: Autodesk,Inc. |WEB Address: www.autodesk.com
 90
     1023
280
     0
281
     0
  0
CLASS
  1
AECC_ROOT_SETTINGS_NODE
  2
AeccDbRootSettingsNode
  3
AeccvBase10|Product Desc: Autodesk Civil 3D |Company: Autodesk,Inc. |WEB Address: www.autodesk.com
 90
     1023
280
     0
281
     0
  0
CLASS
  1
AEC_VARS_DWG_SETUP
  2
AecDbVarsDwgSetup
  3
AecBase40|Product Desc: Autodesk Architectural Desktop 2005 |Company: Autodesk,Inc. |WEB Address: www.autodesk.com
 90
      129
280
     0
281
     0
  0
CLASS
  1
DMMAPMANAGER
  2
AcMapDMMapManager
  3
AcMapDisplayManagement
 90
     1024
280
     0
281
     0
  0
CLASS
  1
DMSTYLELIBRARY
  2
AcMapDMStyleLibrary
  3
AcMapDisplayManagement
 90
     1024
280
     0
281
     0
  0
CLASS
  1
DMMAP
  2
AcMapDMMap
  3
AcMapDisplayManagement
 90
     1024
280
     0
281
     0
  0
CLASS
  1
DMBASEELEMENT
  2
AcMapDMBaseElement
  3
AcMapDisplayManagement
 90
     1024
280
     0
281
     0
  0
CLASS
  1
DMDEFAULTSTYLE
  2
AcMapDMDefaultStyle
  3
AcMapDisplayManagement
 90
     1024
280
     0
281
     0
  0
CLASS
  1
DMSTYLEREFERENCE
  2
AcMapDMStyleReference
  3
AcMapDisplayManagement
 90
     1024
280
     0
281
     0
  0
CLASS
  1
DMSTYLECATEGORY
  2
AcMapDMStyleCategory
  3
AcMapDisplayManagement
 90
     1024
280
     0
281
     0
  0
CLASS
  1
AECC_SETTINGS_NODE
  2
AeccDbSettingsNode
  3
AeccvBase10|Product Desc: Autodesk Civil 3D |Company: Autodesk,Inc. |WEB Address: www.autodesk.com
 90
     1023
280
     0
281
     0
  0
CLASS
  1
AECC_PROFILE_VIEW_STYLE
  2
AeccDbGraphStyleProfile
  3
AeccLand10|Product Desc: Autodesk Civil 3D |Company: Autodesk,Inc. |WEB Address: www.autodesk.com
 90
      129
280
     0
281
     0
  0
CLASS
  1
AECC_PROFILE_VIEW_BAND_STYLE_SET
  2
AeccDbGraphProfileBandStyleSet
  3
AeccLand10|Product Desc: Autodesk Civil 3D |Company: Autodesk,Inc. |WEB Address: www.autodesk.com
 90
      129
280
     0
281
     0
  0
CLASS
  1
AECC_PROFILE_VIEW_DATA_BAND_STYLE
  2
AeccDbGraphStyleProfileDataBands
  3
AeccLand10|Product Desc: Autodesk Civil 3D |Company: Autodesk,Inc. |WEB Address: www.autodesk.com
 90
      129
280
     0
281
     0
  0
CLASS
  1
AECC_LABEL_NODE
  2
AeccDbLabelNode
  3
AeccLand10|Product Desc: Autodesk Civil 3D |Company: Autodesk,Inc. |WEB Address: www.autodesk.com
 90
     1023
280
     0
281
     0
  0
CLASS
  1
AECC_LABEL_COLLECTOR_STYLE
  2
AeccDbLabelStyleCollector
  3
AeccLand10|Product Desc: Autodesk Civil 3D |Company: Autodesk,Inc. |WEB Address: www.autodesk.com
 90
     1023
280
     0
281
     0
  0
CLASS
  1
AECC_LABEL_TEXT_STYLE
  2
AeccDbLabelStyleText
  3
AeccLand10|Product Desc: Autodesk Civil 3D |Company: Autodesk,Inc. |WEB Address: www.autodesk.com
 90
     1023
280
     0
281
     0
  0
CLASS
  1
AECC_PROFILE_VIEW_HORIZONTAL_GEOMETRY_BAND_STYLE
  2
AeccDbGraphStyleHorGeometryBands
  3
AeccLand10|Product Desc: Autodesk Civil 3D |Company: Autodesk,Inc. |WEB Address: www.autodesk.com
 90
      129
280
     0
281
     0
  0
CLASS
  1
AECC_PROFILE_VIEW_VERTICAL_GEOMETRY_BAND_STYLE
  2
AeccDbGraphStyleVertGeometryBands
  3
AeccLand10|Product Desc: Autodesk Civil 3D |Company: Autodesk,Inc. |WEB Address: www.autodesk.com
 90
      129
280
     0
281
     0
  0
CLASS
  1
AECC_LABEL_RADIAL_LINE_STYLE
  2
AeccDbLabelStyleRadialLine
  3
AeccLand10|Product Desc: Autodesk Civil 3D |Company: Autodesk,Inc. |WEB Address: www.autodesk.com
 90
     1023
280
     0
281
     0
  0
CLASS
  1
AECC_POINT_STYLE
  2
AeccDbPointStyle
  3
AeccLand10|Product Desc: Autodesk Civil 3D |Company: Autodesk,Inc. |WEB Address: www.autodesk.com
 90
      895
280
     0
281
     0
  0
CLASS
  1
AECC_PROFILE_LABEL_SET
  2
AeccDbVAlignStnLabelsDlgTemplate
  3
AeccLand10|Product Desc: Autodesk Civil 3D |Company: Autodesk,Inc. |WEB Address: www.autodesk.com
 90
     1023
280
     0
281
     0
  0
CLASS
  1
AECC_SECTION_VIEW_STYLE
  2
AeccDbGraphStyleCrossSection
  3
AeccLand10|Product Desc: Autodesk Civil 3D |Company: Autodesk,Inc. |WEB Address: www.autodesk.com
 90
      129
280
     0
281
     0
  0
CLASS
  1
AECC_SECTION_VIEW_BAND_STYLE_SET
  2
AeccDbGraphSectionBandStyleSet
  3
AeccLand10|Product Desc: Autodesk Civil 3D |Company: Autodesk,Inc. |WEB Address: www.autodesk.com
 90
      129
280
     0
281
     0
  0
CLASS
  1
AECC_SECTION_VIEW_DATA_BAND_STYLE
  2
AeccDbGraphStyleSectionDataBands
  3
AeccLand10|Product Desc: Autodesk Civil 3D |Company: Autodesk,Inc. |WEB Address: www.autodesk.com
 90
      129
280
     0
281
     0
  0
CLASS
  1
AECC_SECTION_LABEL_SET
  2
AeccDbSectionLabelsDlgTemplate
  3
AeccLand10|Product Desc: Autodesk Civil 3D |Company: Autodesk,Inc. |WEB Address: www.autodesk.com
 90
     1023
280
     0
281
     0
  0
CLASS
  1
AECC_ALIGNMENT_STYLE
  2
AeccDbAlignmentStyle
  3
AeccLand10|Product Desc: Autodesk Civil 3D |Company: Autodesk,Inc. |WEB Address: www.autodesk.com
 90
     1023
280
     0
281
     0
  0
CLASS
  1
AECC_LABEL_VECTOR_ARROW_STYLE
  2
AeccDbLabelStyleVectorArrow
  3
AeccLand10|Product Desc: Autodesk Civil 3D |Company: Autodesk,Inc. |WEB Address: www.autodesk.com
 90
     1023
280
     0
281
     0
  0
CLASS
  1
AECC_ALIGNMENT_LABEL_SET
  2
AeccDbAlignStnLabelsDlgTemplate
  3
AeccLand10|Product Desc: Autodesk Civil 3D |Company: Autodesk,Inc. |WEB Address: www.autodesk.com
 90
     1023
280
     0
281
     0
  0
CLASS
  1
AECC_SURFACE_STYLE
  2
AeccDbSurfaceStyle
  3
AeccLand10|Product Desc: Autodesk Civil 3D |Company: Autodesk,Inc. |WEB Address: www.autodesk.com
 90
      129
280
     0
281
     0
  0
CLASS
  1
AECC_LEGEND_TABLE_STYLE
  2
AeccDbLegendScheduleTableStyle
  3
AeccLand10|Product Desc: Autodesk Civil 3D |Company: Autodesk,Inc. |WEB Address: www.autodesk.com
 90
     1023
280
     0
281
     0
  0
CLASS
  1
AECC_SECTION_STYLE
  2
AeccDbSectionStyle
  3
AeccLand10|Product Desc: Autodesk Civil 3D |Company: Autodesk,Inc. |WEB Address: www.autodesk.com
 90
     1023
280
     0
281
     0
  0
CLASS
  1
AECC_GRADING_STYLE
  2
AeccDbGradingStyle
  3
AeccLand10|Product Desc: Autodesk Civil 3D |Company: Autodesk,Inc. |WEB Address: www.autodesk.com
 90
     1023
280
     0
281
     0
  0
CLASS
  1
AECC_GRADING_CRITERIA
  2
AeccDbGradingCriteria
  3
AeccLand10|Product Desc: Autodesk Civil 3D |Company: Autodesk,Inc. |WEB Address: www.autodesk.com
 90
     1023
280
     0
281
     0
  0
CLASS
  1
AECC_PARCEL_STYLE
  2
AeccDbParcelStyle
  3
AeccLand10|Product Desc: Autodesk Civil 3D |Company: Autodesk,Inc. |WEB Address: www.autodesk.com
 90
      129
280
     0
281
     0
  0
CLASS
  1
AECC_SAMPLE_LINE_GROUP_STYLE
  2
AeccDbSampleLineGroupStyle
  3
AeccLand10|Product Desc: Autodesk Civil 3D |Company: Autodesk,Inc. |WEB Address: www.autodesk.com
 90
      129
280
     0
281
     0
  0
CLASS
  1
AECC_SHEET_STYLE
  2
AeccDbSheetStyle
  3
AeccLand10|Product Desc: Autodesk Civil 3D |Company: Autodesk,Inc. |WEB Address: www.autodesk.com
 90
      129
280
     0
281
     0
  0
CLASS
  1
AECC_SAMPLE_LINE_STYLE
  2
AeccDbSampleLineStyle
  3
AeccLand10|Product Desc: Autodesk Civil 3D |Company: Autodesk,Inc. |WEB Address: www.autodesk.com
 90
     1023
280
     0
281
     0
  0
CLASS
  1
AECC_PROFILE_STYLE
  2
AeccDbVAlignmentStyle
  3
AeccLand10|Product Desc: Autodesk Civil 3D |Company: Autodesk,Inc. |WEB Address: www.autodesk.com
 90
     1023
280
     0
281
     0
  0
CLASS
  1
AECC_STATION_FORMAT_STYLE
  2
AeccDbStationFormatStyle
  3
AeccLand10|Product Desc: Autodesk Civil 3D |Company: Autodesk,Inc. |WEB Address: www.autodesk.com
 90
     1023
280
     0
281
     0
  0
CLASS
  1
AECC_TABLE_STYLE
  2
AeccDbScheduleTableStyle
  3
AeccLand10|Product Desc: Autodesk Civil 3D |Company: Autodesk,Inc. |WEB Address: www.autodesk.com
 90
     1023
280
     0
281
     0
  0
CLASS
  1
AECC_GRADING_CRITERIA_SET
  2
AeccDbGradingCriteriaSet
  3
AeccLand10|Product Desc: Autodesk Civil 3D |Company: Autodesk,Inc. |WEB Address: www.autodesk.com
 90
     1023
280
     0
281
     0
  0
CLASS
  1
AECC_FORMAT_MANAGER_OBJECT
  2
AeccDbFormatManagerObject
  3
AeccLand10|Product Desc: Autodesk Civil 3D |Company: Autodesk,Inc. |WEB Address: www.autodesk.com
 90
     1023
280
     0
281
     0
  0
CLASS
  1
AECC_POINT_DESCRIPTION_KEY_SET_NODE
  2
AeccDbPointDescKeySetsNode
  3
AeccvBase10|Product Desc: Autodesk Civil 3D |Company: Autodesk,Inc. |WEB Address: www.autodesk.com
 90
     1023
280
     0
281
     0
  0
CLASS
  1
DICTIONARYVAR
  2
AcDbDictionaryVar
  3
ObjectDBX Classes
 90
        0
280
     0
281
     0
  0
CLASS
  1
ACDBPLACEHOLDER
  2
AcDbPlaceHolder
  3
ObjectDBX Classes
 90
        0
280
     0
281
     0
  0
CLASS
  1
LAYOUT
  2
AcDbLayout
  3
ObjectDBX Classes
 90
        0
280
     0
281
     0
  0
ENDSEC
  0
SECTION
  2
TABLES
  0
TABLE
  2
VPORT
  5
8
330
0
100
AcDbSymbolTable
 70
     2
  0
VPORT
  5
893
330
8
100
AcDbSymbolTableRecord
100
AcDbViewportTableRecord
  2
*Active
 70
     0
 10
0.0
 20
0.0
 11
1.0
 21
1.0
 12
32356.92256236136
 22
20365.60736787494
 13
0.0
 23
0.0
 14
1.0
 24
1.0
 15
0.0
 25
0.0
 16
0.0
 26
0.0
 36
1.0
 17
0.0
 27
0.0
 37
0.0
 40
46817.93704563806
 41
1.937399678972712
 42
50.0
 43
0.0
 44
0.0
 50
0.0
 51
0.0
 71
     0
 72
   100
 73
     1
 74
     1
 75
     0
 76
     0
 77
     0
 78
     0
281
     0
 65
     1
110
0.0
120
0.0
130
0.0
111
1.0
121
0.0
131
0.0
112
0.0
122
1.0
132
0.0
 79
     0
146
0.0
  0
ENDTAB
  0
TABLE
  2
LTYPE
  5
5
330
0
100
AcDbSymbolTable
 70
    35
  0
LTYPE
  5
13
330
5
100
AcDbSymbolTableRecord
100
AcDbLinetypeTableRecord
  2
ByBlock
 70
     0
  3

 72
    65
 73
     0
 40
0.0
  0
LTYPE
  5
14
330
5
100
AcDbSymbolTableRecord
100
AcDbLinetypeTableRecord
  2
ByLayer
 70
     0
  3

 72
    65
 73
     0
 40
0.0
  0
LTYPE
  5
15
330
5
100
AcDbSymbolTableRecord
100
AcDbLinetypeTableRecord
  2
CONTINUOUS
 70
     0
  3
実線
 72
    65
 73
     0
 40
0.0
  0
LTYPE
  5
26
330
5
100
AcDbSymbolTableRecord
100
AcDbLinetypeTableRecord
  2
DASHED1
 70
     0
  3
--  --  --  --  --  --  --  --  
 72
    65
 73
     2
 40
2.5
 49
1.25
 74
     0
 49
-1.25
 74
     0
  0
LTYPE
  5
27
330
5
100
AcDbSymbolTableRecord
100
AcDbLinetypeTableRecord
  2
DASHED2
 70
     0
  3
----    ----    ----    ----    
 72
    65
 73
     2
 40
5.0
 49
2.5
 74
     0
 49
-2.5
 74
     0
  0
LTYPE
  5
28
330
5
100
AcDbSymbolTableRecord
100
AcDbLinetypeTableRecord
  2
DASHED3
 70
     0
  3
------  ------  ------  ------  
 72
    65
 73
     2
 40
5.0
 49
3.75
 74
     0
 49
-1.25
 74
     0
  0
LTYPE
  5
29
330
5
100
AcDbSymbolTableRecord
100
AcDbLinetypeTableRecord
  2
CENTER1
 70
     0
  3
----- - ----- - ----- - ----- - 
 72
    65
 73
     4
 40
10.0
 49
6.25
 74
     0
 49
-1.25
 74
     0
 49
1.25
 74
     0
 49
-1.25
 74
     0
  0
LTYPE
  5
2A
330
5
100
AcDbSymbolTableRecord
100
AcDbLinetypeTableRecord
  2
CENTER2
 70
     0
  3
----------  --  ----------  --  
 72
    65
 73
     4
 40
20.0
 49
12.5
 74
     0
 49
-2.5
 74
     0
 49
2.5
 74
     0
 49
-2.5
 74
     0
  0
LTYPE
  5
2B
330
5
100
AcDbSymbolTableRecord
100
AcDbLinetypeTableRecord
  2
PHANTOM1
 70
     0
  3
--- - - --- - - --- - - --- - - 
 72
    65
 73
     6
 40
10.0
 49
3.25
 74
     0
 49
-1.25
 74
     0
 49
1.25
 74
     0
 49
-1.25
 74
     0
 49
1.25
 74
     0
 49
-1.25
 74
     0
  0
LTYPE
  5
2C
330
5
100
AcDbSymbolTableRecord
100
AcDbLinetypeTableRecord
  2
PHANTOM2
 70
     0
  3
--------  -  -  --------  -  -  
 72
    65
 73
     6
 40
20.0
 49
10.0
 74
     0
 49
-2.5
 74
     0
 49
1.25
 74
     0
 49
-2.5
 74
     0
 49
1.25
 74
     0
 49
-2.5
 74
     0
  0
LTYPE
  5
2D
330
5
100
AcDbSymbolTableRecord
100
AcDbLinetypeTableRecord
  2
DOT
 70
     0
  3
-   -   -   -   -   -   -   -   
 72
    65
 73
     2
 40
2.5
 49
0.625
 74
     0
 49
-1.875
 74
     0
  0
LTYPE
  5
2E
330
5
100
AcDbSymbolTableRecord
100
AcDbLinetypeTableRecord
  2
DUMMY
 70
     0
  3
ダミー
 72
    65
 73
     0
 40
0.0
  0
LTYPE
  5
2F
330
5
100
AcDbSymbolTableRecord
100
AcDbLinetypeTableRecord
  2
RAND1
 70
     0
  3
ランダム線1
 72
    65
 73
     4
 40
10.0
 49
1.0
 74
     0
 49
-2.0
 74
     0
 49
3.0
 74
     0
 49
-4.0
 74
     0
  0
LTYPE
  5
30
330
5
100
AcDbSymbolTableRecord
100
AcDbLinetypeTableRecord
  2
RAND2
 70
     0
  3
ランダム線2
 72
    65
 73
     4
 40
14.0
 49
2.0
 74
     0
 49
-3.0
 74
     0
 49
4.0
 74
     0
 49
-5.0
 74
     0
  0
LTYPE
  5
31
330
5
100
AcDbSymbolTableRecord
100
AcDbLinetypeTableRecord
  2
RAND3
 70
     0
  3
ランダム線3
 72
    65
 73
     4
 40
18.0
 49
3.0
 74
     0
 49
-4.0
 74
     0
 49
5.0
 74
     0
 49
-6.0
 74
     0
  0
LTYPE
  5
32
330
5
100
AcDbSymbolTableRecord
100
AcDbLinetypeTableRecord
  2
RAND4
 70
     0
  3
ランダム線4
 72
    65
 73
     4
 40
22.0
 49
4.0
 74
     0
 49
-5.0
 74
     0
 49
6.0
 74
     0
 49
-7.0
 74
     0
  0
LTYPE
  5
33
330
5
100
AcDbSymbolTableRecord
100
AcDbLinetypeTableRecord
  2
RAND5
 70
     0
  3
ランダム線5
 72
    65
 73
     4
 40
26.0
 49
5.0
 74
     0
 49
-6.0
 74
     0
 49
7.0
 74
     0
 49
-8.0
 74
     0
  0
LTYPE
  5
34
330
5
100
AcDbSymbolTableRecord
100
AcDbLinetypeTableRecord
  2
LONG1
 70
     0
  3
----------  --  ----------  --  
 72
    65
 73
     4
 40
40.0
 49
32.5
 74
     0
 49
-2.5
 74
     0
 49
2.5
 74
     0
 49
-2.5
 74
     0
  0
LTYPE
  5
35
330
5
100
AcDbSymbolTableRecord
100
AcDbLinetypeTableRecord
  2
LONG2
 70
     0
  3
--------  -  -  --------  -  -  
 72
    65
 73
     6
 40
40.0
 49
30.0
 74
     0
 49
-2.5
 74
     0
 49
1.25
 74
     0
 49
-2.5
 74
     0
 49
1.25
 74
     0
 49
-2.5
 74
     0
  0
LTYPE
  5
36
330
5
100
AcDbSymbolTableRecord
100
AcDbLinetypeTableRecord
  2
LONG3
 70
     0
  3
+++++++++++++++..+++++++++++++++
 72
    65
 73
     2
 40
40.0
 49
37.5
 74
     0
 49
-2.5
 74
     0
  0
LTYPE
  5
37
330
5
100
AcDbSymbolTableRecord
100
AcDbLinetypeTableRecord
  2
LONG4
 70
     0
  3
+++++++++++++++..+++++++++++++++
 72
    65
 73
     2
 40
80.0
 49
75.0
 74
     0
 49
-5.0
 74
     0
  0
LTYPE
  5
38
330
5
100
AcDbSymbolTableRecord
100
AcDbLinetypeTableRecord
  2
LONG5
 70
     0
  3
----------  --  ----------  --  
 72
    65
 73
     4
 40
60.0
 49
37.5
 74
     0
 49
-7.5
 74
     0
 49
7.5
 74
     0
 49
-7.5
 74
     0
  0
LTYPE
  5
39
330
5
100
AcDbSymbolTableRecord
100
AcDbLinetypeTableRecord
  2
DASHED
 70
     0
  3
-------   -------------   ------
 72
    65
 73
     2
 40
7.5
 49
6.0
 74
     0
 49
-1.5
 74
     0
  0
LTYPE
  5
3A
330
5
100
AcDbSymbolTableRecord
100
AcDbLinetypeTableRecord
  2
DASHED_SPACED
 70
     0
  3
----        --------        ----
 72
    65
 73
     2
 40
12.0
 49
6.0
 74
     0
 49
-6.0
 74
     0
  0
LTYPE
  5
3B
330
5
100
AcDbSymbolTableRecord
100
AcDbLinetypeTableRecord
  2
LONG_DASHED_DOTTED
 70
     0
  3
------------- --- --------------
 72
    65
 73
     4
 40
15.25
 49
12.0
 74
     0
 49
-1.5
 74
     0
 49
0.25
 74
     0
 49
-1.5
 74
     0
  0
LTYPE
  5
3C
330
5
100
AcDbSymbolTableRecord
100
AcDbLinetypeTableRecord
  2
LONG_DASHED_DOUBLE-DOTTED
 70
     0
  3
----------- --- --- ------------
 72
    65
 73
     6
 40
17.0
 49
12.0
 74
     0
 49
-1.5
 74
     0
 49
0.25
 74
     0
 49
-1.5
 74
     0
 49
0.25
 74
     0
 49
-1.5
 74
     0
  0
LTYPE
  5
3D
330
5
100
AcDbSymbolTableRecord
100
AcDbLinetypeTableRecord
  2
LONG_DASHED_TRIPLICATE-DOTTED
 70
     0
  3
--------- --- --- --- ----------
 72
    65
 73
     8
 40
18.75
 49
12.0
 74
     0
 49
-1.5
 74
     0
 49
0.25
 74
     0
 49
-1.5
 74
     0
 49
0.25
 74
     0
 49
-1.5
 74
     0
 49
0.25
 74
     0
 49
-1.5
 74
     0
  0
LTYPE
  5
3E
330
5
100
AcDbSymbolTableRecord
100
AcDbLinetypeTableRecord
  2
DOTTED
 70
     0
  3
   -       -       -       -    
 72
    65
 73
     2
 40
1.75
 49
0.25
 74
     0
 49
-1.5
 74
     0
  0
LTYPE
  5
3F
330
5
100
AcDbSymbolTableRecord
100
AcDbLinetypeTableRecord
  2
CHAIN
 70
     0
  3
-------------- -- --------------
 72
    65
 73
     4
 40
18.5
 49
12.0
 74
     0
 49
-1.5
 74
     0
 49
3.5
 74
     0
 49
-1.5
 74
     0
  0
LTYPE
  5
40
330
5
100
AcDbSymbolTableRecord
100
AcDbLinetypeTableRecord
  2
CHAIN_DOUBLE_DASH
 70
     0
  3
------------ -- -- -------------
 72
    65
 73
     6
 40
23.5
 49
12.0
 74
     0
 49
-1.5
 74
     0
 49
3.5
 74
     0
 49
-1.5
 74
     0
 49
3.5
 74
     0
 49
-1.5
 74
     0
  0
LTYPE
  5
41
330
5
100
AcDbSymbolTableRecord
100
AcDbLinetypeTableRecord
  2
DASHED_DOTTED
 70
     0
  3
-----------     -     ----------
 72
    65
 73
     4
 40
9.25
 49
6.0
 74
     0
 49
-1.5
 74
     0
 49
0.25
 74
     0
 49
-1.5
 74
     0
  0
LTYPE
  5
42
330
5
100
AcDbSymbolTableRecord
100
AcDbLinetypeTableRecord
  2
DOUBLE-DASHED_DOTTED
 70
     0
  3
------   -----------   -   -----
 72
    65
 73
     6
 40
16.75
 49
6.0
 74
     0
 49
-1.5
 74
     0
 49
6.0
 74
     0
 49
-1.5
 74
     0
 49
0.25
 74
     0
 49
-1.5
 74
     0
  0
LTYPE
  5
43
330
5
100
AcDbSymbolTableRecord
100
AcDbLinetypeTableRecord
  2
DASHED_DOUBLE-DOTTED
 70
     0
  3
---------    -    -    ---------
 72
    65
 73
     6
 40
11.0
 49
6.0
 74
     0
 49
-1.5
 74
     0
 49
0.25
 74
     0
 49
-1.5
 74
     0
 49
0.25
 74
     0
 49
-1.5
 74
     0
  0
LTYPE
  5
44
330
5
100
AcDbSymbolTableRecord
100
AcDbLinetypeTableRecord
  2
DOUBLE-DASHED_DOUBLE-DOTTED
 70
     0
  3
-----   ---------   -   -   ----
 72
    65
 73
     8
 40
18.5
 49
6.0
 74
     0
 49
-1.5
 74
     0
 49
6.0
 74
     0
 49
-1.5
 74
     0
 49
0.25
 74
     0
 49
-1.5
 74
     0
 49
0.25
 74
     0
 49
-1.5
 74
     0
  0
LTYPE
  5
45
330
5
100
AcDbSymbolTableRecord
100
AcDbLinetypeTableRecord
  2
DASHED_TRIPLICATE-DOTTED
 70
     0
  3
-------    -    -    -    ------
 72
    65
 73
     8
 40
12.75
 49
6.0
 74
     0
 49
-1.5
 74
     0
 49
0.25
 74
     0
 49
-1.5
 74
     0
 49
0.25
 74
     0
 49
-1.5
 74
     0
 49
0.25
 74
     0
 49
-1.5
 74
     0
  0
LTYPE
  5
46
330
5
100
AcDbSymbolTableRecord
100
AcDbLinetypeTableRecord
  2
DOUBLE-DASHED_TRIPLICATE-DOTTED
 70
     0
  3
-----  ---------  -  -  -  -----
 72
    65
 73
    10
 40
20.25
 49
6.0
 74
     0
 49
-1.5
 74
     0
 49
6.0
 74
     0
 49
-1.5
 74
     0
 49
0.25
 74
     0
 49
-1.5
 74
     0
 49
0.25
 74
     0
 49
-1.5
 74
     0
 49
0.25
 74
     0
 49
-1.5
 74
     0
  0
LTYPE
  5
47
330
5
100
AcDbSymbolTableRecord
100
AcDbLinetypeTableRecord
  2
UNDEFINED
 70
     0
  3
--------------------------------
 72
    65
 73
     0
 40
0.0
  0
ENDTAB
  0
TABLE
  2
LAYER
  5
2
330
0
100
AcDbSymbolTable
 70
     9
  0
LAYER
  5
10
330
2
100
AcDbSymbolTableRecord
100
AcDbLayerTableRecord
  2
0
 70
     0
 62
     7
  6
CONTINUOUS
370
    -3
390
F
  0
LAYER
  5
49
330
2
100
AcDbSymbolTableRecord
100
AcDbLayerTableRecord
  2
_0-0_パイプ
 70
     0
 62
     7
  6
CONTINUOUS
370
    -3
390
F
  0
LAYER
  5
4A
330
2
100
AcDbSymbolTableRecord
100
AcDbLayerTableRecord
  2
_0-1_ＧＬ
 70
     0
 62
     7
  6
CONTINUOUS
370
    -3
390
F
  0
LAYER
  5
4B
330
2
100
AcDbSymbolTableRecord
100
AcDbLayerTableRecord
  2
_0-2_メッセン
 70
     0
 62
     7
  6
CONTINUOUS
370
    -3
390
F
  0
LAYER
  5
4C
330
2
100
AcDbSymbolTableRecord
100
AcDbLayerTableRecord
  2
_0-3_寸法
 70
     0
 62
     7
  6
CONTINUOUS
370
    -3
390
F
  0
LAYER
  5
4D
330
2
100
AcDbSymbolTableRecord
100
AcDbLayerTableRecord
  2
_0-4_ハッチ
 70
     0
 62
     7
  6
CONTINUOUS
370
    -3
390
F
  0
LAYER
  5
4E
330
2
100
AcDbSymbolTableRecord
100
AcDbLayerTableRecord
  2
_0-5_枠
 70
     0
 62
     7
  6
CONTINUOUS
370
    -3
390
F
  0
LAYER
  5
4F
330
2
100
AcDbSymbolTableRecord
100
AcDbLayerTableRecord
  2
_0-6_仕上
 70
     0
 62
     7
  6
CONTINUOUS
370
    -3
390
F
  0
LAYER
  5
50
330
2
100
AcDbSymbolTableRecord
100
AcDbLayerTableRecord
  2
ADD_LINE
 70
     0
 62
     7
  6
CONTINUOUS
370
    -3
390
F
  0
ENDTAB
  0
TABLE
  2
STYLE
  5
3
330
0
100
AcDbSymbolTable
 70
     2
  0
STYLE
  5
11
330
3
100
AcDbSymbolTableRecord
100
AcDbTextStyleTableRecord
  2
STANDARD
 70
     0
 40
0.0
 41
1.0
 50
0.0
 71
     0
 42
0.2
  3
MS Gothic.ttf
  4

1001
ACAD
1000
MS Gothic
1071
    32817
  0
STYLE
  5
48
330
3
100
AcDbSymbolTableRecord
100
AcDbTextStyleTableRecord
  2
TATEGAKI
 70
     4
 40
0.0
 41
1.0
 50
0.0
 71
     0
 42
1.0
  3
txt
  4
bigfont.shx
  0
ENDTAB
  0
TABLE
  2
VIEW
  5
6
330
0
100
AcDbSymbolTable
 70
     0
  0
ENDTAB
  0
TABLE
  2
UCS
  5
7
330
0
100
AcDbSymbolTable
 70
     0
  0
ENDTAB
  0
TABLE
  2
APPID
  5
9
330
0
100
AcDbSymbolTable
 70
     3
  0
APPID
  5
12
330
9
100
AcDbSymbolTableRecord
100
AcDbRegAppTableRecord
  2
ACAD
 70
     0
  0
APPID
  5
88A
330
9
100
AcDbSymbolTableRecord
100
AcDbRegAppTableRecord
  2
DCO15
 70
     0
  0
APPID
  5
88C
330
9
100
AcDbSymbolTableRecord
100
AcDbRegAppTableRecord
  2
ADE
 70
     0
  0
ENDTAB
  0
TABLE
  2
DIMSTYLE
  5
A
330
0
100
AcDbSymbolTable
 70
     1
100
AcDbDimStyleTable
 71
     0
  0
DIMSTYLE
105
5A4
330
A
100
AcDbSymbolTableRecord
100
AcDbDimStyleTableRecord
  2
Standard
 70
     0
340
11
  0
ENDTAB
  0
TABLE
  2
BLOCK_RECORD
  5
1
330
0
100
AcDbSymbolTable
 70
     0
  0
BLOCK_RECORD
  5
22
330
1
100
AcDbSymbolTableRecord
100
AcDbBlockTableRecord
  2
*Model_Space
340
25
  0
BLOCK_RECORD
  5
1E
330
1
100
AcDbSymbolTableRecord
100
AcDbBlockTableRecord
  2
*Paper_Space
340
21
  0
ENDTAB
  0
ENDSEC
  0
SECTION
  2
BLOCKS
  0
BLOCK
  5
23
330
22
100
AcDbEntity
  8
0
100
AcDbBlockBegin
  2
*Model_Space
 70
     0
 10
0.0
 20
0.0
 30
0.0
  3
*Model_Space
  1

  0
ENDBLK
  5
24
330
22
100
AcDbEntity
  8
0
100
AcDbBlockEnd
  0
BLOCK
  5
1F
330
1E
100
AcDbEntity
 67
     1
  8
0
100
AcDbBlockBegin
  2
*Paper_Space
 70
     0
 10
0.0
 20
0.0
 30
0.0
  3
*Paper_Space
  1

  0
ENDBLK
  5
20
330
1E
100
AcDbEntity
 67
     1
  8
0
100
AcDbBlockEnd
  0
ENDSEC
  0
SECTION
  2
ENTITIES
  0
LINE
  5
54
330
22
100
AcDbEntity
  8
_0-5_枠
  6
Continuous
 62
     2
100
AcDbLine
 10
36486.48401208826
 20
28756.75345755913
 30
0.0
 11
36486.48401208826
 21
29756.75675675677
 31
0.0
  0
LINE
  5
55
330
22
100
AcDbEntity
  8
_0-5_枠
  6
Continuous
 62
     2
100
AcDbLine
 10
36486.48401208826
 20
28756.75345755913
 30
0.0
 11
38986.48483688767
 21
28756.75345755913
 31
0.0
  0
LINE
  5
56
330
22
100
AcDbEntity
  8
_0-5_枠
  6
Continuous
 62
     2
100
AcDbLine
 10
1986.483702788481
 20
29756.75675675677
 30
0.0
 11
38986.48483688767
 21
29756.75675675677
 31
0.0
  0
LINE
  5
57
330
22
100
AcDbEntity
  8
_0-5_枠
  6
Continuous
 62
     2
100
AcDbLine
 10
1986.483702788481
 20
4756.754694758234
 30
0.0
 11
1986.483702788481
 21
29756.75675675677
 31
0.0
  0
LINE
  5
58
330
22
100
AcDbEntity
  8
_0-5_枠
  6
Continuous
 62
     2
100
AcDbLine
 10
38986.48483688767
 20
4756.754694758234
 30
0.0
 11
1986.483702788481
 21
4756.754694758234
 31
0.0
  0
LINE
  5
59
330
22
100
AcDbEntity
  8
_0-5_枠
  6
Continuous
 62
     2
100
AcDbLine
 10
38986.48483688767
 20
29756.75675675677
 30
0.0
 11
38986.48483688767
 21
4756.754694758234
 31
0.0
  0
TEXT
  5
5A
330
22
100
AcDbEntity
  8
_0-5_枠
 62
     7
100
AcDbText
 10
37308.88012035473
 20
29032.8171188767
 30
0.0
 40
400.0
  1
８Ｍ
100
AcDbText
  0
LINE
  5
5B
330
22
100
AcDbEntity
  8
_0-3_寸法
  6
Continuous
 62
     4
100
AcDbLine
 10
7149.647820079987
 20
11344.03915976945
 30
0.0
 11
28149.65029447821
 21
11344.03915976945
 31
0.0
  0
LINE
  5
5C
330
22
100
AcDbEntity
  8
_0-0_パイプ
  6
Continuous
 62
     7
100
AcDbLine
 10
35761.48533176732
 20
15419.03961340912
 30
0.0
 11
35761.48533176732
 21
15469.03977836901
 31
0.0
  0
LINE
  5
5D
330
22
100
AcDbEntity
  8
_0-0_パイプ
  6
Continuous
 62
     7
100
AcDbLine
 10
35836.48434200803
 20
23544.04786140321
 30
0.0
 11
36136.48533176732
 21
23544.04786140321
 31
0.0
  0
LINE
  5
5E
330
22
100
AcDbEntity
  8
_0-0_パイプ
  6
Continuous
 62
     7
100
AcDbLine
 10
36136.48533176732
 20
23594.04555196487
 30
0.0
 11
36136.48533176732
 21
23544.04786140321
 31
0.0
  0
LINE
  5
5F
330
22
100
AcDbEntity
  8
_0-0_パイプ
  6
Continuous
 62
     7
100
AcDbLine
 10
35986.48483688767
 20
23844.04390236605
 30
0.0
 11
36081.48440799198
 21
23844.04390236605
 31
0.0
  0
LINE
  5
60
330
22
100
AcDbEntity
  8
_0-0_パイプ
  6
Continuous
 62
     7
100
AcDbLine
 10
35986.48483688767
 20
23844.0389535696
 30
0.0
 11
35891.48526578336
 21
23844.0389535696
 31
0.0
  0
LINE
  5
61
330
22
100
AcDbEntity
  8
_0-0_パイプ
  6
Continuous
 62
     7
100
AcDbLine
 10
35837.98630173142
 20
13844.0393659693
 30
0.0
 11
36134.98584644216
 21
13844.0393659693
 31
0.0
  0
LINE
  5
62
330
22
100
AcDbEntity
  8
_0-0_パイプ
  6
Continuous
 62
     7
100
AcDbLine
 10
35891.48526578336
 20
23844.0389535696
 30
0.0
 11
35837.98630173142
 21
13844.0393659693
 31
0.0
  0
LINE
  5
63
330
22
100
AcDbEntity
  8
_0-0_パイプ
  6
Continuous
 62
     7
100
AcDbLine
 10
36134.98584644216
 20
13844.0393659693
 30
0.0
 11
36081.48440799198
 21
23844.04390236605
 31
0.0
  0
LINE
  5
64
330
22
100
AcDbEntity
  8
ADD_LINE
  6
DOT
 62
     7
100
AcDbLine
 10
35986.48483688767
 20
23669.28210443531
 30
0.0
 11
35986.48483688767
 21
23479.69371233226
 31
0.0
  0
LINE
  5
65
330
22
100
AcDbEntity
  8
ADD_LINE
  6
DOT
 62
     7
100
AcDbLine
 10
35986.48483688767
 20
15605.96184142327
 30
0.0
 11
35986.48483688767
 21
15293.2201751965
 31
0.0
  0
LINE
  5
66
330
22
100
AcDbEntity
  8
_0-0_パイプ
  6
Continuous
 62
     7
100
AcDbLine
 10
35836.48434200803
 20
23594.04555196487
 30
0.0
 11
36136.48533176732
 21
23594.04555196487
 31
0.0
  0
LINE
  5
67
330
22
100
AcDbEntity
  8
_0-0_パイプ
  6
Continuous
 62
     7
100
AcDbLine
 10
35786.48417704815
 20
19824.04004230482
 30
0.0
 11
35786.48417704815
 21
19924.04037222458
 31
0.0
  0
LINE
  5
68
330
22
100
AcDbEntity
  8
_0-0_パイプ
  6
Continuous
 62
     7
100
AcDbLine
 10
35786.48417704815
 20
19924.04037222458
 30
0.0
 11
36186.48302232898
 21
19924.04037222458
 31
0.0
  0
LINE
  5
69
330
22
100
AcDbEntity
  8
_0-0_パイプ
  6
Continuous
 62
     7
100
AcDbLine
 10
36186.48302232898
 20
19924.04037222458
 30
0.0
 11
36186.48302232898
 21
19824.04004230482
 31
0.0
  0
LINE
  5
6A
330
22
100
AcDbEntity
  8
_0-0_パイプ
  6
Continuous
 62
     7
100
AcDbLine
 10
36186.48302232898
 20
19824.04004230482
 30
0.0
 11
35786.48417704815
 21
19824.04004230482
 31
0.0
  0
LINE
  5
6B
330
22
100
AcDbEntity
  8
_0-0_パイプ
  6
Continuous
 62
     7
100
AcDbLine
 10
35736.48401208826
 20
15989.03827723408
 30
0.0
 11
35736.48401208826
 21
16089.03860715384
 31
0.0
  0
LINE
  5
6C
330
22
100
AcDbEntity
  8
_0-0_パイプ
  6
Continuous
 62
     7
100
AcDbLine
 10
36236.48318728885
 20
15989.03827723408
 30
0.0
 11
35736.48401208826
 21
15989.03827723408
 31
0.0
  0
LINE
  5
6D
330
22
100
AcDbEntity
  8
_0-0_パイプ
  6
Continuous
 62
     7
100
AcDbLine
 10
35736.48401208826
 20
16089.03860715384
 30
0.0
 11
36236.48318728885
 21
16089.03860715384
 31
0.0
  0
LINE
  5
6E
330
22
100
AcDbEntity
  8
_0-0_パイプ
  6
Continuous
 62
     7
100
AcDbLine
 10
36236.48318728885
 20
16089.03860715384
 30
0.0
 11
36236.48318728885
 21
15989.03827723408
 31
0.0
  0
LINE
  5
6F
330
22
100
AcDbEntity
  8
_0-1_ＧＬ
  6
Continuous
 62
     3
100
AcDbLine
 10
33986.48566168708
 20
15844.03854116989
 30
0.0
 11
37986.48401208826
 21
15844.03854116989
 31
0.0
  0
LINE
  5
70
330
22
100
AcDbEntity
  8
_0-0_パイプ
  6
Continuous
 62
     7
100
AcDbLine
 10
36175.89259792019
 20
15544.04002580883
 30
0.0
 11
36176.69430294553
 21
15394.03953092918
 31
0.0
  0
LINE
  5
71
330
22
100
AcDbEntity
  8
_0-0_パイプ
  6
Continuous
 62
     7
100
AcDbLine
 10
36176.69430294553
 20
15394.03953092918
 30
0.0
 11
36376.69743718328
 21
15394.03953092918
 31
0.0
  0
LINE
  5
72
330
22
100
AcDbEntity
  8
_0-0_パイプ
  6
Continuous
 62
     7
100
AcDbLine
 10
36376.69743718328
 20
15394.03953092918
 30
0.0
 11
36376.96467219172
 21
15344.0393659693
 31
0.0
  0
LINE
  5
73
330
22
100
AcDbEntity
  8
_0-0_パイプ
  6
Continuous
 62
     7
100
AcDbLine
 10
36125.88995856208
 20
15544.04002580883
 30
0.0
 11
36175.89259792019
 21
15544.04002580883
 31
0.0
  0
LINE
  5
74
330
22
100
AcDbEntity
  8
_0-0_パイプ
  6
Continuous
 62
     7
100
AcDbLine
 10
36126.96137299409
 20
15344.0393659693
 30
0.0
 11
36376.96467219172
 21
15344.0393659693
 31
0.0
  0
LINE
  5
75
330
22
100
AcDbEntity
  8
_0-0_パイプ
  6
Continuous
 62
     7
100
AcDbLine
 10
35761.48533176732
 20
15469.03977836901
 30
0.0
 11
36126.29081107475
 21
15469.03977836901
 31
0.0
  0
LINE
  5
76
330
22
100
AcDbEntity
  8
_0-0_パイプ
  6
Continuous
 62
     7
100
AcDbLine
 10
36126.56052048142
 20
15419.03961340912
 30
0.0
 11
35761.48533176732
 21
15419.03961340912
 31
0.0
  0
LINE
  5
77
330
22
100
AcDbEntity
  8
_0-0_パイプ
  6
Continuous
 62
     7
100
AcDbLine
 10
35836.48434200803
 20
23544.04786140321
 30
0.0
 11
35836.48434200803
 21
23594.04555196487
 31
0.0
  0
LINE
  5
78
330
22
100
AcDbEntity
  8
_0-4_ハッチ
  6
DASHED1
 62
     5
100
AcDbLine
 10
35836.48434200803
 20
23544.04786140321
 30
0.0
 11
35786.48417704815
 21
19924.04037222458
 31
0.0
  0
LINE
  5
79
330
22
100
AcDbEntity
  8
_0-4_ハッチ
  6
DASHED1
 62
     5
100
AcDbLine
 10
35786.48417704815
 20
19824.04004230482
 30
0.0
 11
35736.48401208826
 21
16089.03860715384
 31
0.0
  0
LINE
  5
7A
330
22
100
AcDbEntity
  8
_0-1_ＧＬ
  6
Continuous
 62
     3
100
AcDbLine
 10
35186.48714632601
 20
15844.03854116989
 30
0.0
 11
35586.48846600507
 21
15444.03845868995
 31
0.0
  0
LINE
  5
7B
330
22
100
AcDbEntity
  8
_0-1_ＧＬ
  6
Continuous
 62
     3
100
AcDbLine
 10
35186.48714632601
 20
15844.03854116989
 30
0.0
 11
34786.48830104519
 21
15444.03845868995
 31
0.0
  0
LINE
  5
7C
330
22
100
AcDbEntity
  8
_0-1_ＧＬ
  6
Continuous
 62
     3
100
AcDbLine
 10
34786.48830104519
 20
15444.03845868995
 30
0.0
 11
34386.48698136614
 21
15844.03854116989
 31
0.0
  0
LINE
  5
7D
330
22
100
AcDbEntity
  8
_0-1_ＧＬ
  6
Continuous
 62
     3
100
AcDbLine
 10
34471.09902871622
 20
15751.53068907952
 30
0.0
 11
34163.60556112754
 21
15444.03845868995
 31
0.0
  0
LINE
  5
7E
330
22
100
AcDbEntity
  8
_0-1_ＧＬ
  6
Continuous
 62
     3
100
AcDbLine
 10
34574.70703125
 20
15651.62191189413
 30
0.0
 11
34367.12481524494
 21
15444.03845868995
 31
0.0
  0
LINE
  5
7F
330
22
100
AcDbEntity
  8
_0-1_ＧＬ
  6
Continuous
 62
     3
100
AcDbLine
 10
34678.31750818201
 20
15551.71189750963
 30
0.0
 11
34570.64406936233
 21
15444.03845868995
 31
0.0
  0
LINE
  5
80
330
22
100
AcDbEntity
  8
_0-1_ＧＬ
  6
Continuous
 62
     3
100
AcDbLine
 10
35286.48747624579
 20
15744.03697405102
 30
0.0
 11
34986.48896088472
 21
15444.03845868995
 31
0.0
  0
LINE
  5
81
330
22
100
AcDbEntity
  8
_0-1_ＧＬ
  6
Continuous
 62
     3
100
AcDbLine
 10
35386.48780616554
 20
15644.03788133037
 30
0.0
 11
35186.48714632601
 21
15444.03845868995
 31
0.0
  0
LINE
  5
82
330
22
100
AcDbEntity
  8
_0-1_ＧＬ
  6
Continuous
 62
     3
100
AcDbLine
 10
35486.48813608531
 20
15544.03878860972
 30
0.0
 11
35386.48533176732
 21
15444.03845868995
 31
0.0
  0
LINE
  5
83
330
22
100
AcDbEntity
  8
_0-1_ＧＬ
  6
Continuous
 62
     3
100
AcDbLine
 10
35086.48681640625
 20
15744.03697405102
 30
0.0
 11
34986.48896088472
 21
15844.03854116989
 31
0.0
  0
LINE
  5
84
330
22
100
AcDbEntity
  8
_0-1_ＧＬ
  6
Continuous
 62
     3
100
AcDbLine
 10
34986.48896088472
 20
15644.03788133037
 30
0.0
 11
34786.48582664697
 21
15844.03854116989
 31
0.0
  0
LINE
  5
85
330
22
100
AcDbEntity
  8
_0-1_ＧＬ
  6
Continuous
 62
     3
100
AcDbLine
 10
34886.48863096495
 20
15544.03878860972
 30
0.0
 11
34586.48764120566
 21
15844.03854116989
 31
0.0
  0
LINE
  5
86
330
22
100
AcDbEntity
  8
_0-1_ＧＬ
  6
Continuous
 62
     3
100
AcDbLine
 10
34386.48698136614
 20
15844.03854116989
 30
0.0
 11
34086.48599160684
 21
15544.03878860972
 31
0.0
  0
LINE
  5
87
330
22
100
AcDbEntity
  8
_0-1_ＧＬ
  6
Continuous
 62
     3
100
AcDbLine
 10
34186.4863215266
 20
15644.03788133037
 30
0.0
 11
33986.48566168708
 21
15844.03854116989
 31
0.0
  0
LINE
  5
88
330
22
100
AcDbEntity
  8
_0-1_ＧＬ
  6
Continuous
 62
     3
100
AcDbLine
 10
34286.48665144637
 20
15744.03697405102
 30
0.0
 11
34186.4863215266
 21
15844.03854116989
 31
0.0
  0
LINE
  5
89
330
22
100
AcDbEntity
  8
_0-6_仕上
  6
Continuous
 62
     4
100
AcDbLine
 10
36186.48302232898
 20
19924.04037222458
 30
0.0
 11
36186.48302232898
 21
20024.04070214435
 31
0.0
  0
LINE
  5
8A
330
22
100
AcDbEntity
  8
_0-6_仕上
  6
Continuous
 62
     4
100
AcDbLine
 10
36586.48434200802
 20
20616.85950361183
 30
0.0
 11
37586.48516680743
 21
20616.85950361183
 31
0.0
  0
LINE
  5
8B
330
22
100
AcDbEntity
  8
_0-6_仕上
  6
Continuous
 62
     4
100
AcDbLine
 10
36186.48302232898
 20
19924.04037222458
 30
0.0
 11
36586.48434200802
 21
20616.85950361183
 31
0.0
  0
LINE
  5
8C
330
22
100
AcDbEntity
  8
_0-6_仕上
  6
Continuous
 62
     4
100
AcDbLine
 10
36136.48533176732
 20
23594.04555196487
 30
0.0
 11
36136.48533176732
 21
23694.04588188464
 31
0.0
  0
LINE
  5
8D
330
22
100
AcDbEntity
  8
_0-6_仕上
  6
Continuous
 62
     4
100
AcDbLine
 10
36536.48665144637
 20
24286.86715775034
 30
0.0
 11
37536.48747624578
 21
24286.86715775034
 31
0.0
  0
LINE
  5
8E
330
22
100
AcDbEntity
  8
_0-6_仕上
  6
Continuous
 62
     4
100
AcDbLine
 10
36136.48533176732
 20
23594.04555196487
 30
0.0
 11
36536.48665144637
 21
24286.86715775034
 31
0.0
  0
LINE
  5
8F
330
22
100
AcDbEntity
  8
_0-6_仕上
  6
Continuous
 62
     4
100
AcDbLine
 10
36236.48318728885
 20
16089.03860715384
 30
0.0
 11
36236.48318728885
 21
16189.03893707361
 31
0.0
  0
LINE
  5
90
330
22
100
AcDbEntity
  8
_0-6_仕上
  6
Continuous
 62
     4
100
AcDbLine
 10
36636.48450696791
 20
16781.85773854109
 30
0.0
 11
37636.48533176732
 21
16781.85773854109
 31
0.0
  0
LINE
  5
91
330
22
100
AcDbEntity
  8
_0-6_仕上
  6
Continuous
 62
     4
100
AcDbLine
 10
36236.48318728885
 20
16089.03860715384
 30
0.0
 11
36636.48450696791
 21
16781.85773854109
 31
0.0
  0
LINE
  5
92
330
22
100
AcDbEntity
  8
_0-0_パイプ
  6
CENTER1
 62
     4
100
AcDbLine
 10
35986.48483688767
 20
24011.05588505187
 30
0.0
 11
35986.48483688767
 21
11844.0389535696
 31
0.0
  0
TEXT
  5
93
330
22
100
AcDbEntity
  8
_0-6_仕上
 62
     7
100
AcDbText
 10
36662.1664511191
 20
20682.68839402568
 30
0.0
 40
300.0
  1
ﾊﾞﾝﾄﾞ
100
AcDbText
  0
TEXT
  5
94
330
22
100
AcDbEntity
  8
_0-6_仕上
 62
     7
100
AcDbText
 10
36612.16876055744
 20
24352.69604816419
 30
0.0
 40
300.0
  1
ﾊﾞﾝﾄﾞ
100
AcDbText
  0
TEXT
  5
95
330
22
100
AcDbEntity
  8
_0-6_仕上
 62
     7
100
AcDbText
 10
36712.16661607897
 20
16847.68662895494
 30
0.0
 40
300.0
  1
ﾊﾞﾝﾄﾞ
100
AcDbText
  0
LINE
  5
96
330
22
100
AcDbEntity
  8
_0-4_ハッチ
  6
Continuous
 62
     5
100
AcDbLine
 10
7149.647820079987
 20
16298.09680170093
 30
0.0
 11
9142.050592725677
 21
16298.09680170093
 31
0.0
  0
LINE
  5
97
330
22
100
AcDbEntity
  8
_0-1_ＧＬ
  6
Continuous
 62
     3
100
AcDbLine
 10
5649.647820079986
 20
15844.03854116989
 30
0.0
 11
6049.649139759041
 21
15444.03845868995
 31
0.0
  0
LINE
  5
98
330
22
100
AcDbEntity
  8
_0-1_ＧＬ
  6
Continuous
 62
     3
100
AcDbLine
 10
5649.647820079986
 20
15844.03854116989
 30
0.0
 11
5249.648974799157
 21
15444.03845868995
 31
0.0
  0
LINE
  5
99
330
22
100
AcDbEntity
  8
_0-1_ＧＬ
  6
Continuous
 62
     3
100
AcDbLine
 10
5249.648974799157
 20
15444.03845868995
 30
0.0
 11
4849.647655120103
 21
15844.03854116989
 31
0.0
  0
LINE
  5
9A
330
22
100
AcDbEntity
  8
_0-1_ＧＬ
  6
Continuous
 62
     3
100
AcDbLine
 10
4934.259702470189
 20
15751.53068907952
 30
0.0
 11
4626.766234881506
 21
15444.03845868995
 31
0.0
  0
LINE
  5
9B
330
22
100
AcDbEntity
  8
_0-1_ＧＬ
  6
Continuous
 62
     3
100
AcDbLine
 10
5037.867705003972
 20
15651.62191189413
 30
0.0
 11
4830.285488998905
 21
15444.03845868995
 31
0.0
  0
LINE
  5
9C
330
22
100
AcDbEntity
  8
_0-1_ＧＬ
  6
Continuous
 62
     3
100
AcDbLine
 10
5141.478181935983
 20
15551.71189750963
 30
0.0
 11
5033.804743116303
 21
15444.03845868995
 31
0.0
  0
LINE
  5
9D
330
22
100
AcDbEntity
  8
_0-1_ＧＬ
  6
Continuous
 62
     3
100
AcDbLine
 10
5749.64814999975
 20
15744.03697405102
 30
0.0
 11
5449.647160240459
 21
15444.03845868995
 31
0.0
  0
LINE
  5
9E
330
22
100
AcDbEntity
  8
_0-1_ＧＬ
  6
Continuous
 62
     3
100
AcDbLine
 10
5849.648479919514
 20
15644.03788133037
 30
0.0
 11
5649.647820079986
 21
15444.03845868995
 31
0.0
  0
LINE
  5
9F
330
22
100
AcDbEntity
  8
_0-1_ＧＬ
  6
Continuous
 62
     3
100
AcDbLine
 10
5949.648809839274
 20
15544.03878860972
 30
0.0
 11
5849.648479919514
 21
15444.03845868995
 31
0.0
  0
LINE
  5
A0
330
22
100
AcDbEntity
  8
_0-1_ＧＬ
  6
Continuous
 62
     3
100
AcDbLine
 10
5549.647490160222
 20
15744.03697405102
 30
0.0
 11
5449.647160240459
 21
15844.03854116989
 31
0.0
  0
LINE
  5
A1
330
22
100
AcDbEntity
  8
_0-1_ＧＬ
  6
Continuous
 62
     3
100
AcDbLine
 10
5449.649634638688
 20
15644.03788133037
 30
0.0
 11
5249.646500400931
 21
15844.03854116989
 31
0.0
  0
LINE
  5
A2
330
22
100
AcDbEntity
  8
_0-1_ＧＬ
  6
Continuous
 62
     3
100
AcDbLine
 10
5349.64930471892
 20
15544.03878860972
 30
0.0
 11
5049.648314959632
 21
15844.03854116989
 31
0.0
  0
LINE
  5
A3
330
22
100
AcDbEntity
  8
_0-1_ＧＬ
  6
Continuous
 62
     3
100
AcDbLine
 10
4849.647655120103
 20
15844.03854116989
 30
0.0
 11
4549.646665360813
 21
15544.03878860972
 31
0.0
  0
LINE
  5
A4
330
22
100
AcDbEntity
  8
_0-1_ＧＬ
  6
Continuous
 62
     3
100
AcDbLine
 10
4649.646995280576
 20
15644.03788133037
 30
0.0
 11
4449.646335441051
 21
15844.03854116989
 31
0.0
  0
LINE
  5
A5
330
22
100
AcDbEntity
  8
_0-1_ＧＬ
  6
Continuous
 62
     3
100
AcDbLine
 10
4749.647325200339
 20
15744.03697405102
 30
0.0
 11
4649.646995280576
 21
15844.03854116989
 31
0.0
  0
LINE
  5
A6
330
22
100
AcDbEntity
  8
_0-0_パイプ
  6
Continuous
 62
     7
100
AcDbLine
 10
6924.645840561405
 20
15419.03961340912
 30
0.0
 11
6924.645840561405
 21
15469.03977836901
 31
0.0
  0
LINE
  5
A7
330
22
100
AcDbEntity
  8
_0-0_パイプ
  6
Continuous
 62
     7
100
AcDbLine
 10
6924.645840561405
 20
15469.03977836901
 30
0.0
 11
7374.647325200339
 21
15469.03977836901
 31
0.0
  0
LINE
  5
A8
330
22
100
AcDbEntity
  8
_0-0_パイプ
  6
Continuous
 62
     7
100
AcDbLine
 10
7374.647325200339
 20
15469.03977836901
 30
0.0
 11
7374.647325200339
 21
15419.03961340912
 31
0.0
  0
LINE
  5
A9
330
22
100
AcDbEntity
  8
_0-0_パイプ
  6
Continuous
 62
     7
100
AcDbLine
 10
7374.647325200339
 20
15419.03961340912
 30
0.0
 11
6924.645840561405
 21
15419.03961340912
 31
0.0
  0
LINE
  5
AA
330
22
100
AcDbEntity
  8
_0-0_パイプ
  6
Continuous
 62
     7
100
AcDbLine
 10
6999.649799598566
 20
23544.04786140321
 30
0.0
 11
6999.649799598566
 21
23644.04324252653
 31
0.0
  0
LINE
  5
AB
330
22
100
AcDbEntity
  8
_0-0_パイプ
  6
Continuous
 62
     7
100
AcDbLine
 10
6999.649799598566
 20
23644.04324252653
 30
0.0
 11
7299.64831495963
 21
23644.04324252653
 31
0.0
  0
LINE
  5
AC
330
22
100
AcDbEntity
  8
_0-0_パイプ
  6
Continuous
 62
     7
100
AcDbLine
 10
6509.543268506927
 20
15344.0393659693
 30
0.0
 11
6509.543268506927
 21
15544.04002580883
 31
0.0
  0
LINE
  5
AD
330
22
100
AcDbEntity
  8
_0-0_パイプ
  6
Continuous
 62
     7
100
AcDbLine
 10
7789.752371653043
 20
15544.04002580883
 30
0.0
 11
7789.752371653043
 21
15344.0393659693
 31
0.0
  0
LINE
  5
AE
330
22
100
AcDbEntity
  8
_0-0_パイプ
  6
Continuous
 62
     7
100
AcDbLine
 10
6999.649799598566
 20
23594.04555196487
 30
0.0
 11
7299.64831495963
 21
23594.04555196487
 31
0.0
  0
LINE
  5
AF
330
22
100
AcDbEntity
  8
_0-0_パイプ
  6
Continuous
 62
     7
100
AcDbLine
 10
7299.64831495963
 20
23644.04324252653
 30
0.0
 11
7299.64831495963
 21
23544.04786140321
 31
0.0
  0
LINE
  5
B0
330
22
100
AcDbEntity
  8
_0-0_パイプ
  6
Continuous
 62
     7
100
AcDbLine
 10
7124.631654011572
 20
23584.04403433396
 30
0.0
 11
7174.631818971457
 21
23584.04403433396
 31
0.0
  0
LINE
  5
B1
330
22
100
AcDbEntity
  8
_0-0_パイプ
  6
Continuous
 62
     7
100
AcDbLine
 10
7174.631818971457
 20
23484.0437044142
 30
0.0
 11
7124.631654011572
 21
23484.0437044142
 31
0.0
  0
LINE
  5
B2
330
22
100
AcDbEntity
  8
_0-0_パイプ
  6
Continuous
 62
     7
100
AcDbLine
 10
6999.649799598566
 20
23544.04786140321
 30
0.0
 11
7124.631654011572
 21
23544.04786140321
 31
0.0
  0
LINE
  5
B3
330
22
100
AcDbEntity
  8
_0-0_パイプ
  6
Continuous
 62
     7
100
AcDbLine
 10
7174.631818971457
 20
23544.04786140321
 30
0.0
 11
7299.64831495963
 21
23544.04786140321
 31
0.0
  0
LINE
  5
B4
330
22
100
AcDbEntity
  8
_0-0_パイプ
  6
Continuous
 62
     7
100
AcDbLine
 10
6949.649634638686
 20
19824.04004230482
 30
0.0
 11
6949.649634638686
 21
19924.04037222458
 31
0.0
  0
LINE
  5
B5
330
22
100
AcDbEntity
  8
_0-0_パイプ
  6
Continuous
 62
     7
100
AcDbLine
 10
6949.649634638686
 20
19924.04037222458
 30
0.0
 11
7349.648479919514
 21
19924.04037222458
 31
0.0
  0
LINE
  5
B6
330
22
100
AcDbEntity
  8
_0-0_パイプ
  6
Continuous
 62
     7
100
AcDbLine
 10
7349.648479919514
 20
19924.04037222458
 30
0.0
 11
7349.648479919514
 21
19824.04004230482
 31
0.0
  0
LINE
  5
B7
330
22
100
AcDbEntity
  8
_0-0_パイプ
  6
Continuous
 62
     7
100
AcDbLine
 10
7349.648479919514
 20
19824.04004230482
 30
0.0
 11
6949.649634638686
 21
19824.04004230482
 31
0.0
  0
LINE
  5
B8
330
22
100
AcDbEntity
  8
_0-0_パイプ
  6
Continuous
 62
     7
100
AcDbLine
 10
7112.145840561405
 20
19749.03979486499
 30
0.0
 11
7112.145840561405
 21
19899.04028974464
 31
0.0
  0
LINE
  5
B9
330
22
100
AcDbEntity
  8
_0-0_パイプ
  6
Continuous
 62
     7
100
AcDbLine
 10
7112.145840561405
 20
19899.04028974464
 30
0.0
 11
7187.147325200344
 21
19899.04028974464
 31
0.0
  0
LINE
  5
BA
330
22
100
AcDbEntity
  8
_0-0_パイプ
  6
Continuous
 62
     7
100
AcDbLine
 10
7187.147325200344
 20
19899.04028974464
 30
0.0
 11
7187.147325200344
 21
19749.03979486499
 31
0.0
  0
LINE
  5
BB
330
22
100
AcDbEntity
  8
_0-0_パイプ
  6
Continuous
 62
     7
100
AcDbLine
 10
7187.147325200344
 20
19749.03979486499
 30
0.0
 11
7112.145840561405
 21
19749.03979486499
 31
0.0
  0
LINE
  5
BC
330
22
100
AcDbEntity
  8
_0-0_パイプ
  6
Continuous
 62
     7
100
AcDbLine
 10
7187.147325200344
 20
19779.03939896128
 30
0.0
 11
7164.647622128129
 21
19779.03939896128
 31
0.0
  0
LINE
  5
BD
330
22
100
AcDbEntity
  8
_0-0_パイプ
  6
Continuous
 62
     7
100
AcDbLine
 10
7134.648018031843
 20
19779.03939896128
 30
0.0
 11
7112.145840561405
 21
19779.03939896128
 31
0.0
  0
LINE
  5
BE
330
22
100
AcDbEntity
  8
_0-0_パイプ
  6
Continuous
 62
     7
100
AcDbLine
 10
7112.148314959632
 20
15914.03802979426
 30
0.0
 11
7112.148314959632
 21
16064.03852467391
 31
0.0
  0
LINE
  5
BF
330
22
100
AcDbEntity
  8
_0-0_パイプ
  6
Continuous
 62
     7
100
AcDbLine
 10
7112.148314959632
 20
16064.03852467391
 30
0.0
 11
7187.149799598566
 21
16064.03852467391
 31
0.0
  0
LINE
  5
C0
330
22
100
AcDbEntity
  8
_0-0_パイプ
  6
Continuous
 62
     7
100
AcDbLine
 10
7187.149799598566
 20
16064.03852467391
 30
0.0
 11
7187.149799598566
 21
15914.03802979426
 31
0.0
  0
LINE
  5
C1
330
22
100
AcDbEntity
  8
_0-0_パイプ
  6
Continuous
 62
     7
100
AcDbLine
 10
7187.149799598566
 20
15914.03802979426
 30
0.0
 11
7112.148314959632
 21
15914.03802979426
 31
0.0
  0
LINE
  5
C2
330
22
100
AcDbEntity
  8
_0-0_パイプ
  6
Continuous
 62
     7
100
AcDbLine
 10
7187.149799598566
 20
15944.03763389054
 30
0.0
 11
7164.647622128129
 21
15944.03763389054
 31
0.0
  0
LINE
  5
C3
330
22
100
AcDbEntity
  8
_0-0_パイプ
  6
Continuous
 62
     7
100
AcDbLine
 10
7134.648018031843
 20
15944.03763389054
 30
0.0
 11
7112.148314959632
 21
15944.03763389054
 31
0.0
  0
LINE
  5
C4
330
22
100
AcDbEntity
  8
_0-0_パイプ
  6
Continuous
 62
     7
100
AcDbLine
 10
6899.649469678802
 20
15989.03827723408
 30
0.0
 11
6899.649469678802
 21
16089.03860715384
 31
0.0
  0
LINE
  5
C5
330
22
100
AcDbEntity
  8
_0-0_パイプ
  6
Continuous
 62
     7
100
AcDbLine
 10
7399.648644879395
 20
15989.03827723408
 30
0.0
 11
6899.649469678802
 21
15989.03827723408
 31
0.0
  0
LINE
  5
C6
330
22
100
AcDbEntity
  8
_0-0_パイプ
  6
Continuous
 62
     7
100
AcDbLine
 10
6899.649469678802
 20
16089.03860715384
 30
0.0
 11
7399.648644879395
 21
16089.03860715384
 31
0.0
  0
LINE
  5
C7
330
22
100
AcDbEntity
  8
_0-0_パイプ
  6
Continuous
 62
     7
100
AcDbLine
 10
7299.64831495963
 20
23644.04324252653
 30
0.0
 11
7348.888839664025
 21
23652.72343150456
 31
0.0
  0
LINE
  5
C8
330
22
100
AcDbEntity
  8
_0-0_パイプ
  6
Continuous
 62
     7
100
AcDbLine
 10
7349.648479919514
 20
23569.04423228581
 30
0.0
 11
7349.648479919514
 21
23669.04456220558
 31
0.0
  0
LINE
  5
C9
330
22
100
AcDbEntity
  8
_0-0_パイプ
  6
Continuous
 62
     7
100
AcDbLine
 10
7299.64831495963
 20
23594.04555196487
 30
0.0
 11
7348.888839664025
 21
23585.36041419037
 31
0.0
  0
LINE
  5
CA
330
22
100
AcDbEntity
  8
_0-0_パイプ
  6
Continuous
 62
     7
100
AcDbLine
 10
7349.648479919514
 20
23669.04456220558
 30
0.0
 11
7549.64913975904
 21
23669.04456220558
 31
0.0
  0
LINE
  5
CB
330
22
100
AcDbEntity
  8
_0-0_パイプ
  6
Continuous
 62
     7
100
AcDbLine
 10
7549.64913975904
 20
23569.04423228581
 30
0.0
 11
7549.64913975904
 21
23669.04456220558
 31
0.0
  0
LINE
  5
CC
330
22
100
AcDbEntity
  8
_0-0_パイプ
  6
Continuous
 62
     7
100
AcDbLine
 10
7549.64913975904
 20
23569.04423228581
 30
0.0
 11
7349.648479919514
 21
23569.04423228581
 31
0.0
  0
LINE
  5
CD
330
22
100
AcDbEntity
  8
_0-0_パイプ
  6
Continuous
 62
     7
100
AcDbLine
 10
7399.648644879395
 20
16089.03860715384
 30
0.0
 11
7399.648644879395
 21
15989.03827723408
 31
0.0
  0
LINE
  5
CE
330
22
100
AcDbEntity
  8
_0-0_パイプ
  6
Continuous
 62
     7
100
AcDbLine
 10
7124.631654011572
 20
23514.04330851048
 30
0.0
 11
7139.656200041978
 21
23514.04330851048
 31
0.0
  0
LINE
  5
CF
330
22
100
AcDbEntity
  8
_0-0_パイプ
  6
Continuous
 62
     7
100
AcDbLine
 10
7159.641914516218
 20
23514.04330851048
 30
0.0
 11
7174.6639861484
 21
23514.04330851048
 31
0.0
  0
LINE
  5
D0
330
22
100
AcDbEntity
  8
ADD_LINE
  6
DOT
 62
     7
100
AcDbLine
 10
7149.647820079987
 20
23435.73850223937
 30
0.0
 11
7149.647820079987
 21
23438.86119280102
 31
0.0
  0
LINE
  5
D1
330
22
100
AcDbEntity
  8
_0-0_パイプ
  6
Continuous
 62
     7
100
AcDbLine
 10
7124.631654011572
 20
23484.0437044142
 30
0.0
 11
7124.631654011572
 21
23584.04403433396
 31
0.0
  0
LINE
  5
D2
330
22
100
AcDbEntity
  8
_0-0_パイプ
  6
Continuous
 62
     7
100
AcDbLine
 10
7174.631818971457
 20
23584.04403433396
 30
0.0
 11
7174.631818971457
 21
23484.0437044142
 31
0.0
  0
LINE
  5
D3
330
22
100
AcDbEntity
  8
_0-0_パイプ
  6
Continuous
 62
     7
100
AcDbLine
 10
7149.647820079987
 20
23844.04390236605
 30
0.0
 11
7244.64986558252
 21
23844.04390236605
 31
0.0
  0
LINE
  5
D4
330
22
100
AcDbEntity
  8
_0-0_パイプ
  6
Continuous
 62
     7
100
AcDbLine
 10
7149.647820079987
 20
23844.0389535696
 30
0.0
 11
7054.648248975677
 21
23844.0389535696
 31
0.0
  0
LINE
  5
D5
330
22
100
AcDbEntity
  8
_0-0_パイプ
  6
Continuous
 62
     7
100
AcDbLine
 10
7001.149284923737
 20
13844.0393659693
 30
0.0
 11
7298.148829634462
 21
13844.0393659693
 31
0.0
  0
LINE
  5
D6
330
22
100
AcDbEntity
  8
_0-0_パイプ
  6
Continuous
 62
     7
100
AcDbLine
 10
7054.648248975677
 20
23844.0389535696
 30
0.0
 11
7001.149284923737
 21
13844.0393659693
 31
0.0
  0
LINE
  5
D7
330
22
100
AcDbEntity
  8
_0-0_パイプ
  6
Continuous
 62
     7
100
AcDbLine
 10
7298.148829634462
 20
13844.0393659693
 30
0.0
 11
7244.64986558252
 21
23844.04390236605
 31
0.0
  0
LINE
  5
D8
330
22
100
AcDbEntity
  8
ADD_LINE
  6
DOT
 62
     7
100
AcDbLine
 10
7149.647820079987
 20
23669.28210443531
 30
0.0
 11
7149.647820079987
 21
23479.69371233226
 31
0.0
  0
LINE
  5
D9
330
22
100
AcDbEntity
  8
ADD_LINE
  6
DOT
 62
     7
100
AcDbLine
 10
7149.647820079987
 20
15605.96184142327
 30
0.0
 11
7149.647820079987
 21
15293.2201751965
 31
0.0
  0
LINE
  5
DA
330
22
100
AcDbEntity
  8
_0-0_パイプ
  6
Continuous
 62
     7
100
AcDbLine
 10
7789.752371653043
 20
15344.0393659693
 30
0.0
 11
7290.124356186403
 21
15344.0393659693
 31
0.0
  0
LINE
  5
DB
330
22
100
AcDbEntity
  8
_0-0_パイプ
  6
Continuous
 62
     7
100
AcDbLine
 10
7289.052941754395
 20
15544.04002580883
 30
0.0
 11
7789.752371653043
 21
15544.04002580883
 31
0.0
  0
LINE
  5
DC
330
22
100
AcDbEntity
  8
_0-0_パイプ
  6
Continuous
 62
     7
100
AcDbLine
 10
6509.543268506927
 20
15544.04002580883
 30
0.0
 11
7010.242698405576
 21
15544.04002580883
 31
0.0
  0
LINE
  5
DD
330
22
100
AcDbEntity
  8
_0-0_パイプ
  6
Continuous
 62
     7
100
AcDbLine
 10
7009.173758371793
 20
15344.0393659693
 30
0.0
 11
6509.543268506927
 21
15344.0393659693
 31
0.0
  0
LINE
  5
DE
330
22
100
AcDbEntity
  8
_0-0_パイプ
  6
Continuous
 62
     7
100
AcDbLine
 10
13924.64666536081
 20
15419.03961340912
 30
0.0
 11
13924.64666536081
 21
15469.03977836901
 31
0.0
  0
LINE
  5
DF
330
22
100
AcDbEntity
  8
_0-0_パイプ
  6
Continuous
 62
     7
100
AcDbLine
 10
13924.64666536081
 20
15469.03977836901
 30
0.0
 11
14374.64814999974
 21
15469.03977836901
 31
0.0
  0
LINE
  5
E0
330
22
100
AcDbEntity
  8
_0-0_パイプ
  6
Continuous
 62
     7
100
AcDbLine
 10
14374.64814999974
 20
15469.03977836901
 30
0.0
 11
14374.64814999974
 21
15419.03961340912
 31
0.0
  0
LINE
  5
E1
330
22
100
AcDbEntity
  8
_0-0_パイプ
  6
Continuous
 62
     7
100
AcDbLine
 10
14374.64814999974
 20
15419.03961340912
 30
0.0
 11
13924.64666536081
 21
15419.03961340912
 31
0.0
  0
LINE
  5
E2
330
22
100
AcDbEntity
  8
_0-0_パイプ
  6
Continuous
 62
     7
100
AcDbLine
 10
13999.64814999974
 20
23544.04786140321
 30
0.0
 11
13999.64814999974
 21
23644.04324252653
 31
0.0
  0
LINE
  5
E3
330
22
100
AcDbEntity
  8
_0-0_パイプ
  6
Continuous
 62
     7
100
AcDbLine
 10
13999.64814999974
 20
23644.04324252653
 30
0.0
 11
14299.64913975904
 21
23644.04324252653
 31
0.0
  0
LINE
  5
E4
330
22
100
AcDbEntity
  8
_0-0_パイプ
  6
Continuous
 62
     7
100
AcDbLine
 10
13509.54409330633
 20
15344.0393659693
 30
0.0
 11
13509.54409330633
 21
15544.04002580883
 31
0.0
  0
LINE
  5
E5
330
22
100
AcDbEntity
  8
_0-0_パイプ
  6
Continuous
 62
     7
100
AcDbLine
 10
14789.75319645245
 20
15544.04002580883
 30
0.0
 11
14789.75319645245
 21
15344.0393659693
 31
0.0
  0
LINE
  5
E6
330
22
100
AcDbEntity
  8
_0-0_パイプ
  6
Continuous
 62
     7
100
AcDbLine
 10
13999.64814999974
 20
23594.04555196487
 30
0.0
 11
14299.64913975904
 21
23594.04555196487
 31
0.0
  0
LINE
  5
E7
330
22
100
AcDbEntity
  8
_0-0_パイプ
  6
Continuous
 62
     7
100
AcDbLine
 10
14299.64913975904
 20
23644.04324252653
 30
0.0
 11
14299.64913975904
 21
23544.04786140321
 31
0.0
  0
LINE
  5
E8
330
22
100
AcDbEntity
  8
_0-0_パイプ
  6
Continuous
 62
     7
100
AcDbLine
 10
14124.63247881098
 20
23584.04403433396
 30
0.0
 11
14174.63264377087
 21
23584.04403433396
 31
0.0
  0
LINE
  5
E9
330
22
100
AcDbEntity
  8
_0-0_パイプ
  6
Continuous
 62
     7
100
AcDbLine
 10
14174.63264377087
 20
23484.0437044142
 30
0.0
 11
14124.63247881098
 21
23484.0437044142
 31
0.0
  0
LINE
  5
EA
330
22
100
AcDbEntity
  8
_0-0_パイプ
  6
Continuous
 62
     7
100
AcDbLine
 10
13999.64814999974
 20
23544.04786140321
 30
0.0
 11
14124.63247881098
 21
23544.04786140321
 31
0.0
  0
LINE
  5
EB
330
22
100
AcDbEntity
  8
_0-0_パイプ
  6
Continuous
 62
     7
100
AcDbLine
 10
14174.63264377087
 20
23544.04786140321
 30
0.0
 11
14299.64913975904
 21
23544.04786140321
 31
0.0
  0
LINE
  5
EC
330
22
100
AcDbEntity
  8
_0-0_パイプ
  6
Continuous
 62
     7
100
AcDbLine
 10
13999.64814999974
 20
23644.04324252653
 30
0.0
 11
13950.40762529536
 21
23652.72343150456
 31
0.0
  0
LINE
  5
ED
330
22
100
AcDbEntity
  8
_0-0_パイプ
  6
Continuous
 62
     7
100
AcDbLine
 10
13949.64798503987
 20
23569.04423228581
 30
0.0
 11
13949.64798503987
 21
23669.04456220558
 31
0.0
  0
LINE
  5
EE
330
22
100
AcDbEntity
  8
_0-0_パイプ
  6
Continuous
 62
     7
100
AcDbLine
 10
13999.64814999974
 20
23594.04555196487
 30
0.0
 11
13950.40762529536
 21
23585.36041419037
 31
0.0
  0
LINE
  5
EF
330
22
100
AcDbEntity
  8
_0-0_パイプ
  6
Continuous
 62
     7
100
AcDbLine
 10
13949.64798503987
 20
23669.04456220558
 30
0.0
 11
13749.64732520034
 21
23669.04456220558
 31
0.0
  0
LINE
  5
F0
330
22
100
AcDbEntity
  8
_0-0_パイプ
  6
Continuous
 62
     7
100
AcDbLine
 10
13749.64732520034
 20
23569.04423228581
 30
0.0
 11
13749.64732520034
 21
23669.04456220558
 31
0.0
  0
LINE
  5
F1
330
22
100
AcDbEntity
  8
_0-0_パイプ
  6
Continuous
 62
     7
100
AcDbLine
 10
13749.64732520034
 20
23569.04423228581
 30
0.0
 11
13949.64798503987
 21
23569.04423228581
 31
0.0
  0
LINE
  5
F2
330
22
100
AcDbEntity
  8
_0-0_パイプ
  6
Continuous
 62
     7
100
AcDbLine
 10
14124.63247881098
 20
23514.04330851048
 30
0.0
 11
14139.65455044316
 21
23514.04330851048
 31
0.0
  0
LINE
  5
F3
330
22
100
AcDbEntity
  8
_0-0_パイプ
  6
Continuous
 62
     7
100
AcDbLine
 10
14159.64273931562
 20
23514.04330851048
 30
0.0
 11
14174.66481094781
 21
23514.04330851048
 31
0.0
  0
LINE
  5
F4
330
22
100
AcDbEntity
  8
ADD_LINE
  6
DOT
 62
     7
100
AcDbLine
 10
14149.64864487939
 20
23435.73850223937
 30
0.0
 11
14149.64864487939
 21
23438.86119280102
 31
0.0
  0
LINE
  5
F5
330
22
100
AcDbEntity
  8
_0-0_パイプ
  6
Continuous
 62
     7
100
AcDbLine
 10
14124.63247881098
 20
23484.0437044142
 30
0.0
 11
14124.63247881098
 21
23584.04403433396
 31
0.0
  0
LINE
  5
F6
330
22
100
AcDbEntity
  8
_0-0_パイプ
  6
Continuous
 62
     7
100
AcDbLine
 10
14174.63264377087
 20
23584.04403433396
 30
0.0
 11
14174.63264377087
 21
23484.0437044142
 31
0.0
  0
LINE
  5
F7
330
22
100
AcDbEntity
  8
_0-0_パイプ
  6
Continuous
 62
     7
100
AcDbLine
 10
14149.64864487939
 20
23844.04390236605
 30
0.0
 11
14244.6482159837
 21
23844.04390236605
 31
0.0
  0
LINE
  5
F8
330
22
100
AcDbEntity
  8
_0-0_パイプ
  6
Continuous
 62
     7
100
AcDbLine
 10
14149.64864487939
 20
23844.0389535696
 30
0.0
 11
14054.64907377508
 21
23844.0389535696
 31
0.0
  0
LINE
  5
F9
330
22
100
AcDbEntity
  8
_0-0_パイプ
  6
Continuous
 62
     7
100
AcDbLine
 10
14001.14763532491
 20
13844.0393659693
 30
0.0
 11
14298.14965443387
 21
13844.0393659693
 31
0.0
  0
LINE
  5
FA
330
22
100
AcDbEntity
  8
_0-0_パイプ
  6
Continuous
 62
     7
100
AcDbLine
 10
14054.64907377508
 20
23844.0389535696
 30
0.0
 11
14001.14763532491
 21
13844.0393659693
 31
0.0
  0
LINE
  5
FB
330
22
100
AcDbEntity
  8
_0-0_パイプ
  6
Continuous
 62
     7
100
AcDbLine
 10
14298.14965443387
 20
13844.0393659693
 30
0.0
 11
14244.6482159837
 21
23844.04390236605
 31
0.0
  0
LINE
  5
FC
330
22
100
AcDbEntity
  8
ADD_LINE
  6
DOT
 62
     7
100
AcDbLine
 10
14149.64864487939
 20
23669.28210443531
 30
0.0
 11
14149.64864487939
 21
23479.69371233226
 31
0.0
  0
LINE
  5
FD
330
22
100
AcDbEntity
  8
ADD_LINE
  6
DOT
 62
     7
100
AcDbLine
 10
14149.64864487939
 20
15605.96184142327
 30
0.0
 11
14149.64864487939
 21
15293.2201751965
 31
0.0
  0
LINE
  5
FE
330
22
100
AcDbEntity
  8
_0-0_パイプ
  6
Continuous
 62
     7
100
AcDbLine
 10
14789.75319645245
 20
15344.0393659693
 30
0.0
 11
14290.12270658758
 21
15344.0393659693
 31
0.0
  0
LINE
  5
FF
330
22
100
AcDbEntity
  8
_0-0_パイプ
  6
Continuous
 62
     7
100
AcDbLine
 10
14289.0537665538
 20
15544.04002580883
 30
0.0
 11
14789.75319645245
 21
15544.04002580883
 31
0.0
  0
LINE
  5
100
330
22
100
AcDbEntity
  8
_0-0_パイプ
  6
Continuous
 62
     7
100
AcDbLine
 10
13509.54409330633
 20
15544.04002580883
 30
0.0
 11
14010.24352320499
 21
15544.04002580883
 31
0.0
  0
LINE
  5
101
330
22
100
AcDbEntity
  8
_0-0_パイプ
  6
Continuous
 62
     7
100
AcDbLine
 10
14009.1745831712
 20
15344.0393659693
 30
0.0
 11
13509.54409330633
 21
15344.0393659693
 31
0.0
  0
LINE
  5
102
330
22
100
AcDbEntity
  8
_0-0_パイプ
  6
Continuous
 62
     7
100
AcDbLine
 10
20924.64996455845
 20
15419.04085060824
 30
0.0
 11
20924.64996455845
 21
15469.04101556812
 31
0.0
  0
LINE
  5
103
330
22
100
AcDbEntity
  8
_0-0_パイプ
  6
Continuous
 62
     7
100
AcDbLine
 10
20924.64996455845
 20
15469.04101556812
 30
0.0
 11
21374.64897479916
 21
15469.04101556812
 31
0.0
  0
LINE
  5
104
330
22
100
AcDbEntity
  8
_0-0_パイプ
  6
Continuous
 62
     7
100
AcDbLine
 10
21374.64897479916
 20
15469.04101556812
 30
0.0
 11
21374.64897479916
 21
15419.04085060824
 31
0.0
  0
LINE
  5
105
330
22
100
AcDbEntity
  8
_0-0_パイプ
  6
Continuous
 62
     7
100
AcDbLine
 10
21374.64897479916
 20
15419.04085060824
 30
0.0
 11
20924.64996455845
 21
15419.04085060824
 31
0.0
  0
LINE
  5
106
330
22
100
AcDbEntity
  8
_0-0_パイプ
  6
Continuous
 62
     7
100
AcDbLine
 10
20509.54491810574
 20
15344.04060316842
 30
0.0
 11
20509.54491810574
 21
15544.04126300794
 31
0.0
  0
LINE
  5
107
330
22
100
AcDbEntity
  8
_0-0_パイプ
  6
Continuous
 62
     7
100
AcDbLine
 10
21789.75402125186
 20
15544.04126300794
 30
0.0
 11
21789.75402125186
 21
15344.04060316842
 31
0.0
  0
LINE
  5
108
330
22
100
AcDbEntity
  8
_0-0_パイプ
  6
Continuous
 62
     7
100
AcDbLine
 10
20999.64897479916
 20
23594.04555196487
 30
0.0
 11
21299.64996455845
 21
23594.04555196487
 31
0.0
  0
LINE
  5
109
330
22
100
AcDbEntity
  8
_0-0_パイプ
  6
Continuous
 62
     7
100
AcDbLine
 10
20999.64897479916
 20
23544.04786140321
 30
0.0
 11
20999.64897479916
 21
23594.04555196487
 31
0.0
  0
LINE
  5
10A
330
22
100
AcDbEntity
  8
_0-0_パイプ
  6
Continuous
 62
     7
100
AcDbLine
 10
21124.6333036104
 20
23584.04403433396
 30
0.0
 11
21174.63346857027
 21
23584.04403433396
 31
0.0
  0
LINE
  5
10B
330
22
100
AcDbEntity
  8
_0-0_パイプ
  6
Continuous
 62
     7
100
AcDbLine
 10
21174.63346857027
 20
23484.0437044142
 30
0.0
 11
21124.6333036104
 21
23484.0437044142
 31
0.0
  0
LINE
  5
10C
330
22
100
AcDbEntity
  8
_0-0_パイプ
  6
Continuous
 62
     7
100
AcDbLine
 10
20999.64897479916
 20
23544.04786140321
 30
0.0
 11
21124.6333036104
 21
23544.04786140321
 31
0.0
  0
LINE
  5
10D
330
22
100
AcDbEntity
  8
_0-0_パイプ
  6
Continuous
 62
     7
100
AcDbLine
 10
21174.63346857027
 20
23544.04786140321
 30
0.0
 11
21299.64996455845
 21
23544.04786140321
 31
0.0
  0
LINE
  5
10E
330
22
100
AcDbEntity
  8
_0-0_パイプ
  6
Continuous
 62
     7
100
AcDbLine
 10
21124.6333036104
 20
23514.04330851048
 30
0.0
 11
21139.65537524257
 21
23514.04330851048
 31
0.0
  0
LINE
  5
10F
330
22
100
AcDbEntity
  8
_0-0_パイプ
  6
Continuous
 62
     7
100
AcDbLine
 10
21159.64356411504
 20
23514.04330851048
 30
0.0
 11
21174.66811014545
 21
23514.04330851048
 31
0.0
  0
LINE
  5
110
330
22
100
AcDbEntity
  8
ADD_LINE
  6
DOT
 62
     7
100
AcDbLine
 10
21149.65194407703
 20
23435.73850223937
 30
0.0
 11
21149.65194407703
 21
23438.86119280102
 31
0.0
  0
LINE
  5
111
330
22
100
AcDbEntity
  8
_0-0_パイプ
  6
Continuous
 62
     7
100
AcDbLine
 10
21124.6333036104
 20
23484.0437044142
 30
0.0
 11
21124.6333036104
 21
23584.04403433396
 31
0.0
  0
LINE
  5
112
330
22
100
AcDbEntity
  8
_0-0_パイプ
  6
Continuous
 62
     7
100
AcDbLine
 10
21174.63346857027
 20
23584.04403433396
 30
0.0
 11
21174.63346857027
 21
23484.0437044142
 31
0.0
  0
LINE
  5
113
330
22
100
AcDbEntity
  8
_0-0_パイプ
  6
Continuous
 62
     7
100
AcDbLine
 10
21299.64996455845
 20
23594.04555196487
 30
0.0
 11
21299.64996455845
 21
23544.04786140321
 31
0.0
  0
LINE
  5
114
330
22
100
AcDbEntity
  8
_0-0_パイプ
  6
Continuous
 62
     7
100
AcDbLine
 10
21054.64989857449
 20
23844.04390236605
 30
0.0
 11
21244.64904078311
 21
23844.04390236605
 31
0.0
  0
LINE
  5
115
330
22
100
AcDbEntity
  8
_0-0_パイプ
  6
Continuous
 62
     7
100
AcDbLine
 10
21001.15093452256
 20
13844.04060316842
 30
0.0
 11
21298.15047923328
 21
13844.04060316842
 31
0.0
  0
LINE
  5
116
330
22
100
AcDbEntity
  8
_0-0_パイプ
  6
Continuous
 62
     7
100
AcDbLine
 10
21054.64989857449
 20
23844.04390236605
 30
0.0
 11
21001.15093452256
 21
13844.04060316842
 31
0.0
  0
LINE
  5
117
330
22
100
AcDbEntity
  8
_0-0_パイプ
  6
Continuous
 62
     7
100
AcDbLine
 10
21298.15047923328
 20
13844.04060316842
 30
0.0
 11
21244.64904078311
 21
23844.04390236605
 31
0.0
  0
LINE
  5
118
330
22
100
AcDbEntity
  8
ADD_LINE
  6
DOT
 62
     7
100
AcDbLine
 10
21149.64946967881
 20
23669.28210443531
 30
0.0
 11
21149.64946967881
 21
23479.69371233226
 31
0.0
  0
LINE
  5
119
330
22
100
AcDbEntity
  8
ADD_LINE
  6
DOT
 62
     7
100
AcDbLine
 10
21149.64946967881
 20
15605.96307862238
 30
0.0
 11
21149.64946967881
 21
15293.22141239561
 31
0.0
  0
LINE
  5
11A
330
22
100
AcDbEntity
  8
_0-0_パイプ
  6
Continuous
 62
     7
100
AcDbLine
 10
21789.75402125186
 20
15344.04060316842
 30
0.0
 11
21290.123531387
 21
15344.04060316842
 31
0.0
  0
LINE
  5
11B
330
22
100
AcDbEntity
  8
_0-0_パイプ
  6
Continuous
 62
     7
100
AcDbLine
 10
21289.05459135321
 20
15544.04126300794
 30
0.0
 11
21789.75402125186
 21
15544.04126300794
 31
0.0
  0
LINE
  5
11C
330
22
100
AcDbEntity
  8
_0-0_パイプ
  6
Continuous
 62
     7
100
AcDbLine
 10
20509.54491810574
 20
15544.04126300794
 30
0.0
 11
21010.2443480044
 21
15544.04126300794
 31
0.0
  0
LINE
  5
11D
330
22
100
AcDbEntity
  8
_0-0_パイプ
  6
Continuous
 62
     7
100
AcDbLine
 10
21009.17540797061
 20
15344.04060316842
 30
0.0
 11
20509.54491810574
 21
15344.04060316842
 31
0.0
  0
LINE
  5
11E
330
22
100
AcDbEntity
  8
_0-0_パイプ
  6
Continuous
 62
     7
100
AcDbLine
 10
27924.64831495963
 20
15419.03961340912
 30
0.0
 11
27924.64831495963
 21
15469.03977836901
 31
0.0
  0
LINE
  5
11F
330
22
100
AcDbEntity
  8
_0-0_パイプ
  6
Continuous
 62
     7
100
AcDbLine
 10
27924.64831495963
 20
15469.03977836901
 30
0.0
 11
28374.64979959857
 21
15469.03977836901
 31
0.0
  0
LINE
  5
120
330
22
100
AcDbEntity
  8
_0-0_パイプ
  6
Continuous
 62
     7
100
AcDbLine
 10
28374.64979959857
 20
15469.03977836901
 30
0.0
 11
28374.64979959857
 21
15419.03961340912
 31
0.0
  0
LINE
  5
121
330
22
100
AcDbEntity
  8
_0-0_パイプ
  6
Continuous
 62
     7
100
AcDbLine
 10
28374.64979959857
 20
15419.03961340912
 30
0.0
 11
27924.64831495963
 21
15419.03961340912
 31
0.0
  0
LINE
  5
122
330
22
100
AcDbEntity
  8
_0-0_パイプ
  6
Continuous
 62
     7
100
AcDbLine
 10
27509.54574290516
 20
15344.0393659693
 30
0.0
 11
27509.54574290516
 21
15544.04002580883
 31
0.0
  0
LINE
  5
123
330
22
100
AcDbEntity
  8
_0-0_パイプ
  6
Continuous
 62
     7
100
AcDbLine
 10
28789.75484605127
 20
15544.04002580883
 30
0.0
 11
28789.75484605127
 21
15344.0393659693
 31
0.0
  0
LINE
  5
124
330
22
100
AcDbEntity
  8
_0-0_パイプ
  6
Continuous
 62
     7
100
AcDbLine
 10
27999.65227399679
 20
23594.04555196487
 30
0.0
 11
28299.65078935786
 21
23594.04555196487
 31
0.0
  0
LINE
  5
125
330
22
100
AcDbEntity
  8
_0-0_パイプ
  6
Continuous
 62
     7
100
AcDbLine
 10
27999.65227399679
 20
23544.04786140321
 30
0.0
 11
27999.65227399679
 21
23594.04555196487
 31
0.0
  0
LINE
  5
126
330
22
100
AcDbEntity
  8
_0-0_パイプ
  6
Continuous
 62
     7
100
AcDbLine
 10
28124.6341284098
 20
23584.04403433396
 30
0.0
 11
28174.63429336968
 21
23584.04403433396
 31
0.0
  0
LINE
  5
127
330
22
100
AcDbEntity
  8
_0-0_パイプ
  6
Continuous
 62
     7
100
AcDbLine
 10
28174.63429336968
 20
23484.0437044142
 30
0.0
 11
28124.6341284098
 21
23484.0437044142
 31
0.0
  0
LINE
  5
128
330
22
100
AcDbEntity
  8
_0-0_パイプ
  6
Continuous
 62
     7
100
AcDbLine
 10
27999.65227399679
 20
23544.04786140321
 30
0.0
 11
28124.6341284098
 21
23544.04786140321
 31
0.0
  0
LINE
  5
129
330
22
100
AcDbEntity
  8
_0-0_パイプ
  6
Continuous
 62
     7
100
AcDbLine
 10
28174.63429336968
 20
23544.04786140321
 30
0.0
 11
28299.65078935786
 21
23544.04786140321
 31
0.0
  0
LINE
  5
12A
330
22
100
AcDbEntity
  8
_0-0_パイプ
  6
Continuous
 62
     7
100
AcDbLine
 10
28124.6341284098
 20
23514.04330851048
 30
0.0
 11
28139.65867444021
 21
23514.04330851048
 31
0.0
  0
LINE
  5
12B
330
22
100
AcDbEntity
  8
_0-0_パイプ
  6
Continuous
 62
     7
100
AcDbLine
 10
28159.64438891444
 20
23514.04330851048
 30
0.0
 11
28174.66646054662
 21
23514.04330851048
 31
0.0
  0
LINE
  5
12C
330
22
100
AcDbEntity
  8
ADD_LINE
  6
DOT
 62
     7
100
AcDbLine
 10
28149.65029447821
 20
23435.73850223937
 30
0.0
 11
28149.65029447821
 21
23438.86119280102
 31
0.0
  0
LINE
  5
12D
330
22
100
AcDbEntity
  8
_0-0_パイプ
  6
Continuous
 62
     7
100
AcDbLine
 10
28124.6341284098
 20
23484.0437044142
 30
0.0
 11
28124.6341284098
 21
23584.04403433396
 31
0.0
  0
LINE
  5
12E
330
22
100
AcDbEntity
  8
_0-0_パイプ
  6
Continuous
 62
     7
100
AcDbLine
 10
28174.63429336968
 20
23584.04403433396
 30
0.0
 11
28174.63429336968
 21
23484.0437044142
 31
0.0
  0
LINE
  5
12F
330
22
100
AcDbEntity
  8
_0-0_パイプ
  6
Continuous
 62
     7
100
AcDbLine
 10
28299.65078935786
 20
23594.04555196487
 30
0.0
 11
28299.65078935786
 21
23544.04786140321
 31
0.0
  0
LINE
  5
130
330
22
100
AcDbEntity
  8
_0-0_パイプ
  6
Continuous
 62
     7
100
AcDbLine
 10
28149.65029447821
 20
23844.04390236605
 30
0.0
 11
28244.65233998074
 21
23844.04390236605
 31
0.0
  0
LINE
  5
131
330
22
100
AcDbEntity
  8
_0-0_パイプ
  6
Continuous
 62
     7
100
AcDbLine
 10
28149.65029447821
 20
23844.0389535696
 30
0.0
 11
28054.65072337391
 21
23844.0389535696
 31
0.0
  0
LINE
  5
132
330
22
100
AcDbEntity
  8
_0-0_パイプ
  6
Continuous
 62
     7
100
AcDbLine
 10
28001.15175932196
 20
13844.0393659693
 30
0.0
 11
28298.15130403268
 21
13844.0393659693
 31
0.0
  0
LINE
  5
133
330
22
100
AcDbEntity
  8
_0-0_パイプ
  6
Continuous
 62
     7
100
AcDbLine
 10
28054.65072337391
 20
23844.0389535696
 30
0.0
 11
28001.15175932196
 21
13844.0393659693
 31
0.0
  0
LINE
  5
134
330
22
100
AcDbEntity
  8
_0-0_パイプ
  6
Continuous
 62
     7
100
AcDbLine
 10
28298.15130403268
 20
13844.0393659693
 30
0.0
 11
28244.65233998074
 21
23844.04390236605
 31
0.0
  0
LINE
  5
135
330
22
100
AcDbEntity
  8
ADD_LINE
  6
DOT
 62
     7
100
AcDbLine
 10
28149.65029447821
 20
23669.28210443531
 30
0.0
 11
28149.65029447821
 21
23479.69371233226
 31
0.0
  0
LINE
  5
136
330
22
100
AcDbEntity
  8
ADD_LINE
  6
DOT
 62
     7
100
AcDbLine
 10
28149.65029447821
 20
15605.96184142327
 30
0.0
 11
28149.65029447821
 21
15293.2201751965
 31
0.0
  0
LINE
  5
137
330
22
100
AcDbEntity
  8
_0-0_パイプ
  6
Continuous
 62
     7
100
AcDbLine
 10
28789.75484605127
 20
15344.0393659693
 30
0.0
 11
28290.12683058464
 21
15344.0393659693
 31
0.0
  0
LINE
  5
138
330
22
100
AcDbEntity
  8
_0-0_パイプ
  6
Continuous
 62
     7
100
AcDbLine
 10
28289.05541615262
 20
15544.04002580883
 30
0.0
 11
28789.75484605127
 21
15544.04002580883
 31
0.0
  0
LINE
  5
139
330
22
100
AcDbEntity
  8
_0-0_パイプ
  6
Continuous
 62
     7
100
AcDbLine
 10
27509.54574290516
 20
15544.04002580883
 30
0.0
 11
28010.2451728038
 21
15544.04002580883
 31
0.0
  0
LINE
  5
13A
330
22
100
AcDbEntity
  8
_0-0_パイプ
  6
Continuous
 62
     7
100
AcDbLine
 10
28009.17623277002
 20
15344.0393659693
 30
0.0
 11
27509.54574290516
 21
15344.0393659693
 31
0.0
  0
LINE
  5
13B
330
22
100
AcDbEntity
  8
_0-0_パイプ
  6
Continuous
 62
     7
100
AcDbLine
 10
7549.64913975904
 20
23574.04251670304
 30
0.0
 11
13749.64732520034
 21
23574.04251670304
 31
0.0
  0
LINE
  5
13C
330
22
100
AcDbEntity
  8
_0-0_パイプ
  6
Continuous
 62
     7
100
AcDbLine
 10
7549.64913975904
 20
23664.0413289919
 30
0.0
 11
13749.64732520034
 21
23664.0413289919
 31
0.0
  0
LINE
  5
13D
330
22
100
AcDbEntity
  8
_0-0_パイプ
  6
Continuous
 62
     7
100
AcDbLine
 10
13949.65045943809
 20
19824.04004230482
 30
0.0
 11
13949.65045943809
 21
19924.04037222458
 31
0.0
  0
LINE
  5
13E
330
22
100
AcDbEntity
  8
_0-0_パイプ
  6
Continuous
 62
     7
100
AcDbLine
 10
13949.65045943809
 20
19924.04037222458
 30
0.0
 11
14349.64683032069
 21
19924.04037222458
 31
0.0
  0
LINE
  5
13F
330
22
100
AcDbEntity
  8
_0-0_パイプ
  6
Continuous
 62
     7
100
AcDbLine
 10
14349.64683032069
 20
19924.04037222458
 30
0.0
 11
14349.64683032069
 21
19824.04004230482
 31
0.0
  0
LINE
  5
140
330
22
100
AcDbEntity
  8
_0-0_パイプ
  6
Continuous
 62
     7
100
AcDbLine
 10
14349.64683032069
 20
19824.04004230482
 30
0.0
 11
13949.65045943809
 21
19824.04004230482
 31
0.0
  0
LINE
  5
141
330
22
100
AcDbEntity
  8
_0-0_パイプ
  6
Continuous
 62
     7
100
AcDbLine
 10
14112.14666536081
 20
19749.03979486499
 30
0.0
 11
14112.14666536081
 21
19899.04028974464
 31
0.0
  0
LINE
  5
142
330
22
100
AcDbEntity
  8
_0-0_パイプ
  6
Continuous
 62
     7
100
AcDbLine
 10
14112.14666536081
 20
19899.04028974464
 30
0.0
 11
14187.14814999974
 21
19899.04028974464
 31
0.0
  0
LINE
  5
143
330
22
100
AcDbEntity
  8
_0-0_パイプ
  6
Continuous
 62
     7
100
AcDbLine
 10
14187.14814999974
 20
19899.04028974464
 30
0.0
 11
14187.14814999974
 21
19749.03979486499
 31
0.0
  0
LINE
  5
144
330
22
100
AcDbEntity
  8
_0-0_パイプ
  6
Continuous
 62
     7
100
AcDbLine
 10
14187.14814999974
 20
19749.03979486499
 30
0.0
 11
14112.14666536081
 21
19749.03979486499
 31
0.0
  0
LINE
  5
145
330
22
100
AcDbEntity
  8
_0-0_パイプ
  6
Continuous
 62
     7
100
AcDbLine
 10
14187.14814999974
 20
19779.03939896128
 30
0.0
 11
14164.64597252931
 21
19779.03939896128
 31
0.0
  0
LINE
  5
146
330
22
100
AcDbEntity
  8
_0-0_パイプ
  6
Continuous
 62
     7
100
AcDbLine
 10
14134.64636843302
 20
19779.03939896128
 30
0.0
 11
14112.14666536081
 21
19779.03939896128
 31
0.0
  0
LINE
  5
147
330
22
100
AcDbEntity
  8
_0-0_パイプ
  6
Continuous
 62
     7
100
AcDbLine
 10
20949.64880983928
 20
19824.04004230482
 30
0.0
 11
20949.64880983928
 21
19924.04037222458
 31
0.0
  0
LINE
  5
148
330
22
100
AcDbEntity
  8
_0-0_パイプ
  6
Continuous
 62
     7
100
AcDbLine
 10
20949.64880983928
 20
19924.04037222458
 30
0.0
 11
21349.64765512011
 21
19924.04037222458
 31
0.0
  0
LINE
  5
149
330
22
100
AcDbEntity
  8
_0-0_パイプ
  6
Continuous
 62
     7
100
AcDbLine
 10
21349.64765512011
 20
19924.04037222458
 30
0.0
 11
21349.64765512011
 21
19824.04004230482
 31
0.0
  0
LINE
  5
14A
330
22
100
AcDbEntity
  8
_0-0_パイプ
  6
Continuous
 62
     7
100
AcDbLine
 10
21349.64765512011
 20
19824.04004230482
 30
0.0
 11
20949.64880983928
 21
19824.04004230482
 31
0.0
  0
LINE
  5
14B
330
22
100
AcDbEntity
  8
_0-0_パイプ
  6
Continuous
 62
     7
100
AcDbLine
 10
21112.14749016022
 20
19749.03979486499
 30
0.0
 11
21112.14749016022
 21
19899.04028974464
 31
0.0
  0
LINE
  5
14C
330
22
100
AcDbEntity
  8
_0-0_パイプ
  6
Continuous
 62
     7
100
AcDbLine
 10
21112.14749016022
 20
19899.04028974464
 30
0.0
 11
21187.14897479916
 21
19899.04028974464
 31
0.0
  0
LINE
  5
14D
330
22
100
AcDbEntity
  8
_0-0_パイプ
  6
Continuous
 62
     7
100
AcDbLine
 10
21187.14897479916
 20
19899.04028974464
 30
0.0
 11
21187.14897479916
 21
19749.03979486499
 31
0.0
  0
LINE
  5
14E
330
22
100
AcDbEntity
  8
_0-0_パイプ
  6
Continuous
 62
     7
100
AcDbLine
 10
21187.14897479916
 20
19749.03979486499
 30
0.0
 11
21112.14749016022
 21
19749.03979486499
 31
0.0
  0
LINE
  5
14F
330
22
100
AcDbEntity
  8
_0-0_パイプ
  6
Continuous
 62
     7
100
AcDbLine
 10
21187.14897479916
 20
19779.03939896128
 30
0.0
 11
21164.64679732872
 21
19779.03939896128
 31
0.0
  0
LINE
  5
150
330
22
100
AcDbEntity
  8
_0-0_パイプ
  6
Continuous
 62
     7
100
AcDbLine
 10
21134.64719323244
 20
19779.03939896128
 30
0.0
 11
21112.14749016022
 21
19779.03939896128
 31
0.0
  0
LINE
  5
151
330
22
100
AcDbEntity
  8
_0-0_パイプ
  6
Continuous
 62
     7
100
AcDbLine
 10
27949.64963463868
 20
19824.04004230482
 30
0.0
 11
27949.64963463868
 21
19924.04037222458
 31
0.0
  0
LINE
  5
152
330
22
100
AcDbEntity
  8
_0-0_パイプ
  6
Continuous
 62
     7
100
AcDbLine
 10
27949.64963463868
 20
19924.04037222458
 30
0.0
 11
28349.64847991952
 21
19924.04037222458
 31
0.0
  0
LINE
  5
153
330
22
100
AcDbEntity
  8
_0-0_パイプ
  6
Continuous
 62
     7
100
AcDbLine
 10
28349.64847991952
 20
19924.04037222458
 30
0.0
 11
28349.64847991952
 21
19824.04004230482
 31
0.0
  0
LINE
  5
154
330
22
100
AcDbEntity
  8
_0-0_パイプ
  6
Continuous
 62
     7
100
AcDbLine
 10
28349.64847991952
 20
19824.04004230482
 30
0.0
 11
27949.64963463868
 21
19824.04004230482
 31
0.0
  0
LINE
  5
155
330
22
100
AcDbEntity
  8
_0-0_パイプ
  6
Continuous
 62
     7
100
AcDbLine
 10
28112.14584056141
 20
19749.03979486499
 30
0.0
 11
28112.14584056141
 21
19899.04028974464
 31
0.0
  0
LINE
  5
156
330
22
100
AcDbEntity
  8
_0-0_パイプ
  6
Continuous
 62
     7
100
AcDbLine
 10
28112.14584056141
 20
19899.04028974464
 30
0.0
 11
28187.14732520034
 21
19899.04028974464
 31
0.0
  0
LINE
  5
157
330
22
100
AcDbEntity
  8
_0-0_パイプ
  6
Continuous
 62
     7
100
AcDbLine
 10
28187.14732520034
 20
19899.04028974464
 30
0.0
 11
28187.14732520034
 21
19749.03979486499
 31
0.0
  0
LINE
  5
158
330
22
100
AcDbEntity
  8
_0-0_パイプ
  6
Continuous
 62
     7
100
AcDbLine
 10
28187.14732520034
 20
19749.03979486499
 30
0.0
 11
28112.14584056141
 21
19749.03979486499
 31
0.0
  0
LINE
  5
159
330
22
100
AcDbEntity
  8
_0-0_パイプ
  6
Continuous
 62
     7
100
AcDbLine
 10
28187.14732520034
 20
19779.03939896128
 30
0.0
 11
28164.64762212813
 21
19779.03939896128
 31
0.0
  0
LINE
  5
15A
330
22
100
AcDbEntity
  8
_0-0_パイプ
  6
Continuous
 62
     7
100
AcDbLine
 10
28134.64801803185
 20
19779.03939896128
 30
0.0
 11
28112.14584056141
 21
19779.03939896128
 31
0.0
  0
LINE
  5
15B
330
22
100
AcDbEntity
  8
_0-0_パイプ
  6
Continuous
 62
     7
100
AcDbLine
 10
14112.14913975904
 20
15914.03802979426
 30
0.0
 11
14112.14913975904
 21
16064.03852467391
 31
0.0
  0
LINE
  5
15C
330
22
100
AcDbEntity
  8
_0-0_パイプ
  6
Continuous
 62
     7
100
AcDbLine
 10
14112.14913975904
 20
16064.03852467391
 30
0.0
 11
14187.14814999974
 21
16064.03852467391
 31
0.0
  0
LINE
  5
15D
330
22
100
AcDbEntity
  8
_0-0_パイプ
  6
Continuous
 62
     7
100
AcDbLine
 10
14187.14814999974
 20
16064.03852467391
 30
0.0
 11
14187.14814999974
 21
15914.03802979426
 31
0.0
  0
LINE
  5
15E
330
22
100
AcDbEntity
  8
_0-0_パイプ
  6
Continuous
 62
     7
100
AcDbLine
 10
14187.14814999974
 20
15914.03802979426
 30
0.0
 11
14112.14913975904
 21
15914.03802979426
 31
0.0
  0
LINE
  5
15F
330
22
100
AcDbEntity
  8
_0-0_パイプ
  6
Continuous
 62
     7
100
AcDbLine
 10
14187.14814999974
 20
15944.03763389054
 30
0.0
 11
14164.64844692754
 21
15944.03763389054
 31
0.0
  0
LINE
  5
160
330
22
100
AcDbEntity
  8
_0-0_パイプ
  6
Continuous
 62
     7
100
AcDbLine
 10
14134.64884283125
 20
15944.03763389054
 30
0.0
 11
14112.14913975904
 21
15944.03763389054
 31
0.0
  0
LINE
  5
161
330
22
100
AcDbEntity
  8
_0-0_パイプ
  6
Continuous
 62
     7
100
AcDbLine
 10
13899.64782007999
 20
15989.03827723408
 30
0.0
 11
13899.64782007999
 21
16089.03860715384
 31
0.0
  0
LINE
  5
162
330
22
100
AcDbEntity
  8
_0-0_パイプ
  6
Continuous
 62
     7
100
AcDbLine
 10
14399.64699528057
 20
15989.03827723408
 30
0.0
 11
13899.64782007999
 21
15989.03827723408
 31
0.0
  0
LINE
  5
163
330
22
100
AcDbEntity
  8
_0-0_パイプ
  6
Continuous
 62
     7
100
AcDbLine
 10
13899.64782007999
 20
16089.03860715384
 30
0.0
 11
14399.64699528057
 21
16089.03860715384
 31
0.0
  0
LINE
  5
164
330
22
100
AcDbEntity
  8
_0-0_パイプ
  6
Continuous
 62
     7
100
AcDbLine
 10
14399.64699528057
 20
16089.03860715384
 30
0.0
 11
14399.64699528057
 21
15989.03827723408
 31
0.0
  0
LINE
  5
165
330
22
100
AcDbEntity
  8
_0-0_パイプ
  6
Continuous
 62
     7
100
AcDbLine
 10
21112.14996455845
 20
15914.03802979426
 30
0.0
 11
21112.14996455845
 21
16064.03852467391
 31
0.0
  0
LINE
  5
166
330
22
100
AcDbEntity
  8
_0-0_パイプ
  6
Continuous
 62
     7
100
AcDbLine
 10
21112.14996455845
 20
16064.03852467391
 30
0.0
 11
21187.14897479916
 21
16064.03852467391
 31
0.0
  0
LINE
  5
167
330
22
100
AcDbEntity
  8
_0-0_パイプ
  6
Continuous
 62
     7
100
AcDbLine
 10
21187.14897479916
 20
16064.03852467391
 30
0.0
 11
21187.14897479916
 21
15914.03802979426
 31
0.0
  0
LINE
  5
168
330
22
100
AcDbEntity
  8
_0-0_パイプ
  6
Continuous
 62
     7
100
AcDbLine
 10
21187.14897479916
 20
15914.03802979426
 30
0.0
 11
21112.14996455845
 21
15914.03802979426
 31
0.0
  0
LINE
  5
169
330
22
100
AcDbEntity
  8
_0-0_パイプ
  6
Continuous
 62
     7
100
AcDbLine
 10
21187.14897479916
 20
15944.03763389054
 30
0.0
 11
21164.64679732872
 21
15944.03763389054
 31
0.0
  0
LINE
  5
16A
330
22
100
AcDbEntity
  8
_0-0_パイプ
  6
Continuous
 62
     7
100
AcDbLine
 10
21134.64966763066
 20
15944.03763389054
 30
0.0
 11
21112.14996455845
 21
15944.03763389054
 31
0.0
  0
LINE
  5
16B
330
22
100
AcDbEntity
  8
_0-0_パイプ
  6
Continuous
 62
     7
100
AcDbLine
 10
20899.6486448794
 20
15989.03827723408
 30
0.0
 11
20899.6486448794
 21
16089.03860715384
 31
0.0
  0
LINE
  5
16C
330
22
100
AcDbEntity
  8
_0-0_パイプ
  6
Continuous
 62
     7
100
AcDbLine
 10
21399.64782007999
 20
15989.03827723408
 30
0.0
 11
20899.6486448794
 21
15989.03827723408
 31
0.0
  0
LINE
  5
16D
330
22
100
AcDbEntity
  8
_0-0_パイプ
  6
Continuous
 62
     7
100
AcDbLine
 10
20899.6486448794
 20
16089.03860715384
 30
0.0
 11
21399.64782007999
 21
16089.03860715384
 31
0.0
  0
LINE
  5
16E
330
22
100
AcDbEntity
  8
_0-0_パイプ
  6
Continuous
 62
     7
100
AcDbLine
 10
21399.64782007999
 20
16089.03860715384
 30
0.0
 11
21399.64782007999
 21
15989.03827723408
 31
0.0
  0
LINE
  5
16F
330
22
100
AcDbEntity
  8
_0-0_パイプ
  6
Continuous
 62
     7
100
AcDbLine
 10
28112.14831495964
 20
15914.03802979426
 30
0.0
 11
28112.14831495964
 21
16064.03852467391
 31
0.0
  0
LINE
  5
170
330
22
100
AcDbEntity
  8
_0-0_パイプ
  6
Continuous
 62
     7
100
AcDbLine
 10
28112.14831495964
 20
16064.03852467391
 30
0.0
 11
28187.14732520034
 21
16064.03852467391
 31
0.0
  0
LINE
  5
171
330
22
100
AcDbEntity
  8
_0-0_パイプ
  6
Continuous
 62
     7
100
AcDbLine
 10
28187.14732520034
 20
16064.03852467391
 30
0.0
 11
28187.14732520034
 21
15914.03802979426
 31
0.0
  0
LINE
  5
172
330
22
100
AcDbEntity
  8
_0-0_パイプ
  6
Continuous
 62
     7
100
AcDbLine
 10
28187.14732520034
 20
15914.03802979426
 30
0.0
 11
28112.14831495964
 21
15914.03802979426
 31
0.0
  0
LINE
  5
173
330
22
100
AcDbEntity
  8
_0-0_パイプ
  6
Continuous
 62
     7
100
AcDbLine
 10
28187.14732520034
 20
15944.03763389054
 30
0.0
 11
28164.64762212813
 21
15944.03763389054
 31
0.0
  0
LINE
  5
174
330
22
100
AcDbEntity
  8
_0-0_パイプ
  6
Continuous
 62
     7
100
AcDbLine
 10
28134.64801803185
 20
15944.03763389054
 30
0.0
 11
28112.14831495964
 21
15944.03763389054
 31
0.0
  0
LINE
  5
175
330
22
100
AcDbEntity
  8
_0-0_パイプ
  6
Continuous
 62
     7
100
AcDbLine
 10
27899.6494696788
 20
15989.03827723408
 30
0.0
 11
27899.6494696788
 21
16089.03860715384
 31
0.0
  0
LINE
  5
176
330
22
100
AcDbEntity
  8
_0-0_パイプ
  6
Continuous
 62
     7
100
AcDbLine
 10
28399.64864487939
 20
15989.03827723408
 30
0.0
 11
27899.6494696788
 21
15989.03827723408
 31
0.0
  0
LINE
  5
177
330
22
100
AcDbEntity
  8
_0-0_パイプ
  6
Continuous
 62
     7
100
AcDbLine
 10
27899.6494696788
 20
16089.03860715384
 30
0.0
 11
28399.64864487939
 21
16089.03860715384
 31
0.0
  0
LINE
  5
178
330
22
100
AcDbEntity
  8
_0-0_パイプ
  6
Continuous
 62
     7
100
AcDbLine
 10
28399.64864487939
 20
16089.03860715384
 30
0.0
 11
28399.64864487939
 21
15989.03827723408
 31
0.0
  0
LINE
  5
179
330
22
100
AcDbEntity
  8
_0-2_メッセン
  6
Continuous
 62
     6
100
AcDbLine
 10
7187.149799598566
 20
15944.03887108966
 30
0.0
 11
14112.14913975904
 21
15944.03887108966
 31
0.0
  0
LINE
  5
17A
330
22
100
AcDbEntity
  8
_0-2_メッセン
  6
Continuous
 62
     6
100
AcDbLine
 10
14187.14814999974
 20
15944.03887108966
 30
0.0
 11
21112.14996455845
 21
15944.03887108966
 31
0.0
  0
LINE
  5
17B
330
22
100
AcDbEntity
  8
_0-2_メッセン
  6
Continuous
 62
     6
100
AcDbLine
 10
21187.14897479916
 20
15944.03887108966
 30
0.0
 11
28112.14831495964
 21
15944.03887108966
 31
0.0
  0
LINE
  5
17C
330
22
100
AcDbEntity
  8
_0-2_メッセン
  6
Continuous
 62
     6
100
AcDbLine
 10
7149.647820079987
 20
23435.73850223937
 30
0.0
 11
7149.647820079987
 21
19899.04028974464
 31
0.0
  0
LINE
  5
17D
330
22
100
AcDbEntity
  8
_0-2_メッセン
  6
Continuous
 62
     6
100
AcDbLine
 10
7149.647820079987
 20
19764.03959691314
 30
0.0
 11
7149.647820079987
 21
16064.03852467391
 31
0.0
  0
LINE
  5
17E
330
22
100
AcDbEntity
  8
_0-2_メッセン
  6
Continuous
 62
     6
100
AcDbLine
 10
7399.648644879395
 20
16089.03860715384
 30
0.0
 11
13999.64814999974
 21
23544.04786140321
 31
0.0
  0
LINE
  5
17F
330
22
100
AcDbEntity
  8
_0-2_メッセン
  6
Continuous
 62
     6
100
AcDbLine
 10
7299.64831495963
 20
23544.04786140321
 30
0.0
 11
13899.64782007999
 21
16089.03860715384
 31
0.0
  0
LINE
  5
180
330
22
100
AcDbEntity
  8
_0-2_メッセン
  6
Continuous
 62
     6
100
AcDbLine
 10
7174.6639861484
 20
23514.04330851048
 30
0.0
 11
14124.63247881098
 21
23514.04330851048
 31
0.0
  0
LINE
  5
181
330
22
100
AcDbEntity
  8
_0-2_メッセン
  6
Continuous
 62
     6
100
AcDbLine
 10
14149.64864487939
 20
23435.73850223937
 30
0.0
 11
14149.64864487939
 21
19899.04028974464
 31
0.0
  0
LINE
  5
182
330
22
100
AcDbEntity
  8
_0-2_メッセン
  6
Continuous
 62
     6
100
AcDbLine
 10
14149.64864487939
 20
19764.03959691314
 30
0.0
 11
14149.64864487939
 21
16064.03852467391
 31
0.0
  0
LINE
  5
183
330
22
100
AcDbEntity
  8
_0-2_メッセン
  6
Continuous
 62
     6
100
AcDbLine
 10
7187.147325200344
 20
19779.03939896128
 30
0.0
 11
14112.14666536081
 21
19779.03939896128
 31
0.0
  0
LINE
  5
184
330
22
100
AcDbEntity
  8
_0-2_メッセン
  6
Continuous
 62
     6
100
AcDbLine
 10
21149.64699528058
 20
23435.73850223937
 30
0.0
 11
21149.64699528058
 21
19899.04028974464
 31
0.0
  0
LINE
  5
185
330
22
100
AcDbEntity
  8
_0-2_メッセン
  6
Continuous
 62
     6
100
AcDbLine
 10
21149.64946967881
 20
19764.03959691314
 30
0.0
 11
21149.64946967881
 21
16064.03852467391
 31
0.0
  0
LINE
  5
186
330
22
100
AcDbEntity
  8
_0-2_メッセン
  6
Continuous
 62
     6
100
AcDbLine
 10
20899.6486448794
 20
16089.03860715384
 30
0.0
 11
14299.64913975904
 21
23544.04786140321
 31
0.0
  0
LINE
  5
187
330
22
100
AcDbEntity
  8
_0-2_メッセン
  6
Continuous
 62
     6
100
AcDbLine
 10
20999.64897479916
 20
23544.04786140321
 30
0.0
 11
14399.64699528057
 21
16089.03860715384
 31
0.0
  0
LINE
  5
188
330
22
100
AcDbEntity
  8
_0-2_メッセン
  6
Continuous
 62
     6
100
AcDbLine
 10
21124.63082921216
 20
23514.04330851048
 30
0.0
 11
14174.66481094781
 21
23514.04330851048
 31
0.0
  0
LINE
  5
189
330
22
100
AcDbEntity
  8
_0-2_メッセン
  6
Continuous
 62
     6
100
AcDbLine
 10
21112.14996455845
 20
19779.03939896128
 30
0.0
 11
14187.15062439797
 21
19779.03939896128
 31
0.0
  0
LINE
  5
18A
330
22
100
AcDbEntity
  8
_0-2_メッセン
  6
Continuous
 62
     6
100
AcDbLine
 10
28149.64782007999
 20
23514.04330851048
 30
0.0
 11
28149.64782007999
 21
19899.04028974464
 31
0.0
  0
LINE
  5
18B
330
22
100
AcDbEntity
  8
_0-2_メッセン
  6
Continuous
 62
     6
100
AcDbLine
 10
21149.64699528058
 20
19764.03959691314
 30
0.0
 11
21149.64699528058
 21
16064.03852467391
 31
0.0
  0
LINE
  5
18C
330
22
100
AcDbEntity
  8
_0-2_メッセン
  6
Continuous
 62
     6
100
AcDbLine
 10
21399.64782007999
 20
16089.03860715384
 30
0.0
 11
27999.64732520034
 21
23544.04786140321
 31
0.0
  0
LINE
  5
18D
330
22
100
AcDbEntity
  8
_0-2_メッセン
  6
Continuous
 62
     6
100
AcDbLine
 10
21299.64749016022
 20
23544.04786140321
 30
0.0
 11
27899.64699528057
 21
16089.03860715384
 31
0.0
  0
LINE
  5
18E
330
22
100
AcDbEntity
  8
_0-2_メッセン
  6
Continuous
 62
     6
100
AcDbLine
 10
21174.66316134899
 20
23514.04330851048
 30
0.0
 11
28124.63165401157
 21
23514.04330851048
 31
0.0
  0
LINE
  5
18F
330
22
100
AcDbEntity
  8
_0-2_メッセン
  6
Continuous
 62
     6
100
AcDbLine
 10
21187.14650040093
 20
19779.03939896128
 30
0.0
 11
28112.14584056141
 21
19779.03939896128
 31
0.0
  0
LINE
  5
190
330
22
100
AcDbEntity
  8
_0-2_メッセン
  6
Continuous
 62
     6
100
AcDbLine
 10
7099.647655120103
 20
16239.03910203349
 30
0.0
 11
7099.647655120103
 21
16439.03728747479
 31
0.0
  0
LINE
  5
191
330
22
100
AcDbEntity
  8
_0-2_メッセン
  6
Continuous
 62
     6
100
AcDbLine
 10
7199.647985039868
 20
16439.03728747479
 30
0.0
 11
7199.647985039868
 21
16239.03910203349
 31
0.0
  0
LINE
  5
192
330
22
100
AcDbEntity
  8
_0-2_メッセン
  6
Continuous
 62
     6
100
AcDbLine
 10
7431.627767556759
 20
16200.59066519333
 30
0.0
 11
7564.198601329987
 21
16350.33629705566
 31
0.0
  0
LINE
  5
193
330
22
100
AcDbEntity
  8
_0-2_メッセン
  6
Continuous
 62
     6
100
AcDbLine
 10
7639.068942862924
 20
16284.04593137259
 30
0.0
 11
7506.500583487924
 21
16134.30401110761
 31
0.0
  0
LINE
  5
194
330
22
100
AcDbEntity
  8
_0-2_メッセン
  6
Continuous
 62
     6
100
AcDbLine
 10
7486.915721526354
 20
15994.03903604954
 30
0.0
 11
7686.916381365882
 21
15994.03903604954
 31
0.0
  0
LINE
  5
195
330
22
100
AcDbEntity
  8
_0-2_メッセン
  6
Continuous
 62
     6
100
AcDbLine
 10
7686.916381365882
 20
15894.03870612977
 30
0.0
 11
7486.915721526354
 21
15894.03870612977
 31
0.0
  0
LINE
  5
196
330
22
100
AcDbEntity
  8
_0-2_メッセン
  6
Continuous
 62
     6
100
AcDbLine
 10
14199.64880983927
 20
16239.03910203349
 30
0.0
 11
14199.64880983927
 21
16439.03728747479
 31
0.0
  0
LINE
  5
197
330
22
100
AcDbEntity
  8
_0-2_メッセン
  6
Continuous
 62
     6
100
AcDbLine
 10
14099.64847991951
 20
16439.03728747479
 30
0.0
 11
14099.64847991951
 21
16239.03910203349
 31
0.0
  0
LINE
  5
198
330
22
100
AcDbEntity
  8
_0-2_メッセン
  6
Continuous
 62
     6
100
AcDbLine
 10
13867.66869740262
 20
16200.59066519333
 30
0.0
 11
13735.09786362939
 21
16350.33629705566
 31
0.0
  0
LINE
  5
199
330
22
100
AcDbEntity
  8
_0-2_メッセン
  6
Continuous
 62
     6
100
AcDbLine
 10
13660.22752209645
 20
16284.04593137259
 30
0.0
 11
13792.79588147145
 21
16134.30401110761
 31
0.0
  0
LINE
  5
19A
330
22
100
AcDbEntity
  8
_0-2_メッセン
  6
Continuous
 62
     6
100
AcDbLine
 10
14431.62859235616
 20
16200.59066519333
 30
0.0
 11
14564.19942612939
 21
16350.33629705566
 31
0.0
  0
LINE
  5
19B
330
22
100
AcDbEntity
  8
_0-2_メッセン
  6
Continuous
 62
     6
100
AcDbLine
 10
14639.06976766234
 20
16284.04593137259
 30
0.0
 11
14506.50140828734
 21
16134.30401110761
 31
0.0
  0
LINE
  5
19C
330
22
100
AcDbEntity
  8
_0-2_メッセン
  6
Continuous
 62
     6
100
AcDbLine
 10
21199.64963463869
 20
16239.03910203349
 30
0.0
 11
21199.64963463869
 21
16439.03728747479
 31
0.0
  0
LINE
  5
19D
330
22
100
AcDbEntity
  8
_0-2_メッセン
  6
Continuous
 62
     6
100
AcDbLine
 10
21099.64930471892
 20
16439.03728747479
 30
0.0
 11
21099.64930471892
 21
16239.03910203349
 31
0.0
  0
LINE
  5
19E
330
22
100
AcDbEntity
  8
_0-2_メッセン
  6
Continuous
 62
     6
100
AcDbLine
 10
20867.66952220203
 20
16200.59066519333
 30
0.0
 11
20735.0986884288
 21
16350.33629705566
 31
0.0
  0
LINE
  5
19F
330
22
100
AcDbEntity
  8
_0-2_メッセン
  6
Continuous
 62
     6
100
AcDbLine
 10
20660.22834689587
 20
16284.04593137259
 30
0.0
 11
20792.79670627087
 21
16134.30401110761
 31
0.0
  0
LINE
  5
1A0
330
22
100
AcDbEntity
  8
_0-2_メッセン
  6
Continuous
 62
     6
100
AcDbLine
 10
21431.62941715558
 20
16200.59066519333
 30
0.0
 11
21564.2002509288
 21
16350.33629705566
 31
0.0
  0
LINE
  5
1A1
330
22
100
AcDbEntity
  8
_0-2_メッセン
  6
Continuous
 62
     6
100
AcDbLine
 10
21639.07059246174
 20
16284.04593137259
 30
0.0
 11
21506.50223308674
 21
16134.30401110761
 31
0.0
  0
LINE
  5
1A2
330
22
100
AcDbEntity
  8
_0-2_メッセン
  6
Continuous
 62
     6
100
AcDbLine
 10
28199.6504594381
 20
16239.03910203349
 30
0.0
 11
28199.6504594381
 21
16439.03728747479
 31
0.0
  0
LINE
  5
1A3
330
22
100
AcDbEntity
  8
_0-2_メッセン
  6
Continuous
 62
     6
100
AcDbLine
 10
28099.65012951833
 20
16439.03728747479
 30
0.0
 11
28099.65012951833
 21
16239.03910203349
 31
0.0
  0
LINE
  5
1A4
330
22
100
AcDbEntity
  8
_0-2_メッセン
  6
Continuous
 62
     6
100
AcDbLine
 10
27867.67034700144
 20
16200.59066519333
 30
0.0
 11
27735.09951322821
 21
16350.33629705566
 31
0.0
  0
LINE
  5
1A5
330
22
100
AcDbEntity
  8
_0-2_メッセン
  6
Continuous
 62
     6
100
AcDbLine
 10
27660.22917169527
 20
16284.04593137259
 30
0.0
 11
27792.79753107028
 21
16134.30401110761
 31
0.0
  0
LINE
  5
1A6
330
22
100
AcDbEntity
  8
_0-2_メッセン
  6
Continuous
 62
     6
100
AcDbLine
 10
28431.63024195499
 20
16200.59066519333
 30
0.0
 11
28564.20107572821
 21
16350.33629705566
 31
0.0
  0
LINE
  5
1A7
330
22
100
AcDbEntity
  8
_0-2_メッセン
  6
Continuous
 62
     6
100
AcDbLine
 10
28639.07141726116
 20
16284.04593137259
 30
0.0
 11
28506.50305788615
 21
16134.30401110761
 31
0.0
  0
LINE
  5
1A8
330
22
100
AcDbEntity
  8
_0-1_ＧＬ
  6
Continuous
 62
     3
100
AcDbLine
 10
14011.84940765388
 20
15844.03854116989
 30
0.0
 11
7287.447057305493
 21
15844.03854116989
 31
0.0
  0
LINE
  5
1A9
330
22
100
AcDbEntity
  8
_0-1_ＧＬ
  6
Continuous
 62
     3
100
AcDbLine
 10
21287.45118130254
 20
15844.03854116989
 30
0.0
 11
28011.85353165093
 21
15844.03854116989
 31
0.0
  0
LINE
  5
1AA
330
22
100
AcDbEntity
  8
_0-1_ＧＬ
  6
Continuous
 62
     3
100
AcDbLine
 10
28287.44953170372
 20
15844.03854116989
 30
0.0
 11
31149.65029447821
 21
15844.03854116989
 31
0.0
  0
LINE
  5
1AB
330
22
100
AcDbEntity
  8
_0-1_ＧＬ
  6
Continuous
 62
     3
100
AcDbLine
 10
14287.4478821049
 20
15844.03854116989
 30
0.0
 11
21011.8502324533
 21
15844.03854116989
 31
0.0
  0
LINE
  5
1AC
330
22
100
AcDbEntity
  8
_0-0_パイプ
  6
CENTER1
 62
     4
100
AcDbLine
 10
7149.647820079987
 20
24011.05588505187
 30
0.0
 11
7149.647820079987
 21
11844.0389535696
 31
0.0
  0
LINE
  5
1AD
330
22
100
AcDbEntity
  8
_0-0_パイプ
  6
CENTER1
 62
     4
100
AcDbLine
 10
14149.64864487939
 20
24011.05588505187
 30
0.0
 11
14149.64864487939
 21
11844.0389535696
 31
0.0
  0
LINE
  5
1AE
330
22
100
AcDbEntity
  8
_0-0_パイプ
  6
CENTER1
 62
     4
100
AcDbLine
 10
21149.64946967881
 20
24011.05588505187
 30
0.0
 11
21149.64946967881
 21
11844.0389535696
 31
0.0
  0
LINE
  5
1AF
330
22
100
AcDbEntity
  8
_0-0_パイプ
  6
CENTER1
 62
     4
100
AcDbLine
 10
28149.65029447821
 20
24011.05588505187
 30
0.0
 11
28149.65029447821
 21
11844.0389535696
 31
0.0
  0
LINE
  5
1B0
330
22
100
AcDbEntity
  8
_0-2_メッセン
  6
Continuous
 62
     6
100
AcDbLine
 10
30149.64699528057
 20
23514.04330851048
 30
0.0
 11
28174.6639861484
 21
23514.04330851048
 31
0.0
  0
LINE
  5
1B1
330
22
100
AcDbEntity
  8
_0-2_メッセン
  6
Continuous
 62
     6
100
AcDbLine
 10
30149.64699528057
 20
21454.38515487345
 30
0.0
 11
28299.64831495964
 21
23544.04786140321
 31
0.0
  0
LINE
  5
1B2
330
22
100
AcDbEntity
  8
_0-2_メッセン
  6
Continuous
 62
     6
100
AcDbLine
 10
30149.64699528057
 20
19779.03939896128
 30
0.0
 11
28187.14979959856
 21
19779.03939896128
 31
0.0
  0
LINE
  5
1B3
330
22
100
AcDbEntity
  8
_0-2_メッセン
  6
Continuous
 62
     6
100
AcDbLine
 10
30149.64699528057
 20
18065.74256025245
 30
0.0
 11
28399.64864487939
 21
16089.03860715384
 31
0.0
  0
LINE
  5
1B4
330
22
100
AcDbEntity
  8
_0-2_メッセン
  6
Continuous
 62
     6
100
AcDbLine
 10
28187.14732520034
 20
15944.03887108966
 30
0.0
 11
30149.64699528057
 21
15944.03887108966
 31
0.0
  0
LINE
  5
1B5
330
22
100
AcDbEntity
  8
_0-1_ＧＬ
  6
Continuous
 62
     3
100
AcDbLine
 10
30349.65260391656
 20
15844.03854116989
 30
0.0
 11
30749.65392359561
 21
15444.03845868995
 31
0.0
  0
LINE
  5
1B6
330
22
100
AcDbEntity
  8
_0-1_ＧＬ
  6
Continuous
 62
     3
100
AcDbLine
 10
30349.65260391656
 20
15844.03854116989
 30
0.0
 11
29949.65375863573
 21
15444.03845868995
 31
0.0
  0
LINE
  5
1B7
330
22
100
AcDbEntity
  8
_0-1_ＧＬ
  6
Continuous
 62
     3
100
AcDbLine
 10
29949.65375863573
 20
15444.03845868995
 30
0.0
 11
29549.65243895667
 21
15844.03854116989
 31
0.0
  0
LINE
  5
1B8
330
22
100
AcDbEntity
  8
_0-1_ＧＬ
  6
Continuous
 62
     3
100
AcDbLine
 10
29634.26448630676
 20
15751.53068907952
 30
0.0
 11
29326.77101871807
 21
15444.03845868995
 31
0.0
  0
LINE
  5
1B9
330
22
100
AcDbEntity
  8
_0-1_ＧＬ
  6
Continuous
 62
     3
100
AcDbLine
 10
29737.87248884054
 20
15651.62191189413
 30
0.0
 11
29530.29027283548
 21
15444.03845868995
 31
0.0
  0
LINE
  5
1BA
330
22
100
AcDbEntity
  8
_0-1_ＧＬ
  6
Continuous
 62
     3
100
AcDbLine
 10
29841.48296577255
 20
15551.71189750963
 30
0.0
 11
29733.80952695287
 21
15444.03845868995
 31
0.0
  0
LINE
  5
1BB
330
22
100
AcDbEntity
  8
_0-1_ＧＬ
  6
Continuous
 62
     3
100
AcDbLine
 10
30449.65293383632
 20
15744.03697405102
 30
0.0
 11
30149.65441847525
 21
15444.03845868995
 31
0.0
  0
LINE
  5
1BC
330
22
100
AcDbEntity
  8
_0-1_ＧＬ
  6
Continuous
 62
     3
100
AcDbLine
 10
30549.65326375608
 20
15644.03788133037
 30
0.0
 11
30349.65260391656
 21
15444.03845868995
 31
0.0
  0
LINE
  5
1BD
330
22
100
AcDbEntity
  8
_0-1_ＧＬ
  6
Continuous
 62
     3
100
AcDbLine
 10
30649.65359367584
 20
15544.03878860972
 30
0.0
 11
30549.65078935786
 21
15444.03845868995
 31
0.0
  0
LINE
  5
1BE
330
22
100
AcDbEntity
  8
_0-1_ＧＬ
  6
Continuous
 62
     3
100
AcDbLine
 10
30249.65227399679
 20
15744.03697405102
 30
0.0
 11
30149.65441847525
 21
15844.03854116989
 31
0.0
  0
LINE
  5
1BF
330
22
100
AcDbEntity
  8
_0-1_ＧＬ
  6
Continuous
 62
     3
100
AcDbLine
 10
30149.65441847525
 20
15644.03788133037
 30
0.0
 11
29949.6512842375
 21
15844.03854116989
 31
0.0
  0
LINE
  5
1C0
330
22
100
AcDbEntity
  8
_0-1_ＧＬ
  6
Continuous
 62
     3
100
AcDbLine
 10
30049.65408855549
 20
15544.03878860972
 30
0.0
 11
29749.6530987962
 21
15844.03854116989
 31
0.0
  0
LINE
  5
1C1
330
22
100
AcDbEntity
  8
_0-1_ＧＬ
  6
Continuous
 62
     3
100
AcDbLine
 10
29549.65243895667
 20
15844.03854116989
 30
0.0
 11
29249.65144919738
 21
15544.03878860972
 31
0.0
  0
LINE
  5
1C2
330
22
100
AcDbEntity
  8
_0-1_ＧＬ
  6
Continuous
 62
     3
100
AcDbLine
 10
29349.65177911714
 20
15644.03788133037
 30
0.0
 11
29149.65111927762
 21
15844.03854116989
 31
0.0
  0
LINE
  5
1C3
330
22
100
AcDbEntity
  8
_0-1_ＧＬ
  6
Continuous
 62
     3
100
AcDbLine
 10
29449.65210903692
 20
15744.03697405102
 30
0.0
 11
29349.65177911714
 21
15844.03854116989
 31
0.0
  0
LINE
  5
1C4
330
22
100
AcDbEntity
  8
_0-3_寸法
  6
Continuous
 62
     4
100
AcDbLine
 10
3649.648644879394
 20
23844.0389535696
 30
0.0
 11
3649.648644879394
 21
13844.0393659693
 31
0.0
  0
LINE
  5
1C5
330
22
100
AcDbEntity
  8
_0-3_寸法
  6
Continuous
 62
     4
100
AcDbLine
 10
6649.648644879395
 20
23514.04330851048
 30
0.0
 11
3649.648644879394
 21
23514.04330851048
 31
0.0
  0
LINE
  5
1C6
330
22
100
AcDbEntity
  8
_0-3_寸法
  6
Continuous
 62
     4
100
AcDbLine
 10
4149.647820079986
 20
15944.03887108966
 30
0.0
 11
3649.648644879394
 21
15944.03887108966
 31
0.0
  0
LINE
  5
1C7
330
22
100
AcDbEntity
  8
_0-3_寸法
  6
Continuous
 62
     4
100
AcDbLine
 10
4149.647820079986
 20
15844.03854116989
 30
0.0
 11
3149.649469678803
 21
15844.03854116989
 31
0.0
  0
LINE
  5
1C8
330
22
100
AcDbEntity
  8
_0-3_寸法
  6
Continuous
 62
     4
100
AcDbLine
 10
4149.647820079986
 20
15444.03969588906
 30
0.0
 11
3649.648644879394
 21
15444.03969588906
 31
0.0
  0
LINE
  5
1C9
330
22
100
AcDbEntity
  8
_0-3_寸法
  6
Continuous
 62
     4
100
AcDbLine
 10
3149.649469678803
 20
23844.0389535696
 30
0.0
 11
3149.649469678803
 21
13844.0393659693
 31
0.0
  0
LINE
  5
1CA
330
22
100
AcDbEntity
  8
_0-3_寸法
  6
Continuous
 62
     4
100
AcDbLine
 10
6649.648644879395
 20
23844.0389535696
 30
0.0
 11
2649.647820079986
 21
23844.0389535696
 31
0.0
  0
LINE
  5
1CB
330
22
100
AcDbEntity
  8
_0-3_寸法
  6
Continuous
 62
     4
100
AcDbLine
 10
6649.648644879395
 20
13844.0393659693
 30
0.0
 11
2649.647820079986
 21
13844.0393659693
 31
0.0
  0
LINE
  5
1CC
330
22
100
AcDbEntity
  8
_0-3_寸法
  6
Continuous
 62
     4
100
AcDbLine
 10
2649.647820079986
 20
23844.0389535696
 30
0.0
 11
2649.647820079986
 21
13844.0393659693
 31
0.0
  0
LINE
  5
1CD
330
22
100
AcDbEntity
  8
_0-3_寸法
  6
Continuous
 62
     4
100
AcDbLine
 10
7149.647820079987
 20
11844.0389535696
 30
0.0
 11
7149.647820079987
 21
11344.03915976945
 31
0.0
  0
LINE
  5
1CE
330
22
100
AcDbEntity
  8
_0-3_寸法
  6
Continuous
 62
     4
100
AcDbLine
 10
14149.64864487939
 20
11844.0389535696
 30
0.0
 11
14149.64864487939
 21
11344.03915976945
 31
0.0
  0
LINE
  5
1CF
330
22
100
AcDbEntity
  8
_0-3_寸法
  6
Continuous
 62
     4
100
AcDbLine
 10
21149.64946967881
 20
11844.0389535696
 30
0.0
 11
21149.64946967881
 21
11344.03915976945
 31
0.0
  0
LINE
  5
1D0
330
22
100
AcDbEntity
  8
_0-3_寸法
  6
Continuous
 62
     4
100
AcDbLine
 10
28149.65029447821
 20
11844.0389535696
 30
0.0
 11
28149.65029447821
 21
11344.03915976945
 31
0.0
  0
LINE
  5
1D1
330
22
100
AcDbEntity
  8
_0-6_仕上
  6
Continuous
 62
     4
100
AcDbLine
 10
7745.760045586739
 20
23614.98885855271
 30
0.0
 11
8145.75889086757
 21
24307.81046433818
 31
0.0
  0
LINE
  5
1D2
330
22
100
AcDbEntity
  8
_0-6_仕上
  6
Continuous
 62
     4
100
AcDbLine
 10
8807.430297381506
 20
21845.86464706095
 30
0.0
 11
9207.431617060558
 21
22538.68377844819
 31
0.0
  0
LINE
  5
1D3
330
22
100
AcDbEntity
  8
_0-6_仕上
  6
Continuous
 62
     4
100
AcDbLine
 10
7745.760045586739
 20
23614.98885855271
 30
0.0
 11
7745.760045586739
 21
23714.98918847247
 31
0.0
  0
LINE
  5
1D4
330
22
100
AcDbEntity
  8
_0-6_仕上
  6
Continuous
 62
     4
100
AcDbLine
 10
8807.430297381506
 20
21845.86464706095
 30
0.0
 11
8807.430297381506
 21
21945.8649769807
 31
0.0
  0
LINE
  5
1D5
330
22
100
AcDbEntity
  8
_0-6_仕上
  6
Continuous
 62
     4
100
AcDbLine
 10
9207.431617060558
 20
22538.68377844819
 30
0.0
 11
12215.38433296005
 21
22538.68377844819
 31
0.0
  0
LINE
  5
1D6
330
22
100
AcDbEntity
  8
_0-6_仕上
  6
Continuous
 62
     4
100
AcDbLine
 10
28898.63331680718
 20
23313.3052779995
 30
0.0
 11
28898.63331680718
 21
23413.31055671572
 31
0.0
  0
LINE
  5
1D7
330
22
100
AcDbEntity
  8
_0-6_仕上
  6
Continuous
 62
     4
100
AcDbLine
 10
14184.92119159603
 20
20844.09091593236
 30
0.0
 11
14584.92003687686
 21
21536.90757292137
 31
0.0
  0
LINE
  5
1D8
330
22
100
AcDbEntity
  8
_0-6_仕上
  6
Continuous
 62
     4
100
AcDbLine
 10
14184.92119159603
 20
20844.09091593236
 30
0.0
 11
14184.92119159603
 21
20944.090008653
 31
0.0
  0
LINE
  5
1D9
330
22
100
AcDbEntity
  8
_0-6_仕上
  6
Continuous
 62
     4
100
AcDbLine
 10
14584.92003687686
 20
21536.90757292137
 30
0.0
 11
14784.92069671638
 21
21536.90757292137
 31
0.0
  0
LINE
  5
1DA
330
22
100
AcDbEntity
  8
_0-6_仕上
  6
Continuous
 62
     4
100
AcDbLine
 10
8145.75889086757
 20
24307.81046433818
 30
0.0
 11
10084.82600974426
 21
24307.81046433818
 31
0.0
  0
LINE
  5
1DB
330
22
100
AcDbEntity
  8
_0-6_仕上
  6
Continuous
 62
     4
100
AcDbLine
 10
7789.752371653043
 20
15344.04060316842
 30
0.0
 11
7789.752371653043
 21
15244.04027324865
 31
0.0
  0
LINE
  5
1DC
330
22
100
AcDbEntity
  8
_0-6_仕上
  6
Continuous
 62
     4
100
AcDbLine
 10
8189.751216933869
 20
14651.22023458206
 30
0.0
 11
8989.753856291978
 21
14651.22023458206
 31
0.0
  0
LINE
  5
1DD
330
22
100
AcDbEntity
  8
_0-6_仕上
  6
Continuous
 62
     4
100
AcDbLine
 10
14169.26814841613
 20
21879.36057585106
 30
0.0
 11
14569.26699369696
 21
22572.17723284008
 31
0.0
  0
LINE
  5
1DE
330
22
100
AcDbEntity
  8
_0-6_仕上
  6
Continuous
 62
     4
100
AcDbLine
 10
14169.26814841613
 20
21879.36057585106
 30
0.0
 11
14169.26814841613
 21
21979.36090577083
 31
0.0
  0
LINE
  5
1DF
330
22
100
AcDbEntity
  8
_0-6_仕上
  6
Continuous
 62
     4
100
AcDbLine
 10
14569.26699369696
 20
22572.17723284008
 30
0.0
 11
14769.26765353649
 21
22572.17723284008
 31
0.0
  0
LINE
  5
1E0
330
22
100
AcDbEntity
  8
_0-6_仕上
  6
Continuous
 62
     4
100
AcDbLine
 10
16276.59434668471
 20
23533.69992802061
 30
0.0
 11
16676.59319196554
 21
24226.51658500964
 31
0.0
  0
LINE
  5
1E1
330
22
100
AcDbEntity
  8
_0-6_仕上
  6
Continuous
 62
     4
100
AcDbLine
 10
16276.59434668471
 20
23533.69992802061
 30
0.0
 11
16276.59434668471
 21
23633.70025794037
 31
0.0
  0
LINE
  5
1E2
330
22
100
AcDbEntity
  8
_0-6_仕上
  6
Continuous
 62
     4
100
AcDbLine
 10
16676.59319196554
 20
24226.51658500964
 30
0.0
 11
16876.59385180507
 21
24226.51658500964
 31
0.0
  0
LINE
  5
1E3
330
22
100
AcDbEntity
  8
_0-6_仕上
  6
Continuous
 62
     4
100
AcDbLine
 10
7789.752371653043
 20
15344.04060316842
 30
0.0
 11
8189.751216933869
 21
14651.22023458206
 31
0.0
  0
LINE
  5
1E4
330
22
100
AcDbEntity
  8
_0-6_仕上
  6
Continuous
 62
     4
100
AcDbLine
 10
16276.59434668471
 20
19771.77209137049
 30
0.0
 11
16676.59319196554
 21
20464.58874835951
 31
0.0
  0
LINE
  5
1E5
330
22
100
AcDbEntity
  8
_0-6_仕上
  6
Continuous
 62
     4
100
AcDbLine
 10
16276.59434668471
 20
19771.77209137049
 30
0.0
 11
16276.59434668471
 21
19871.77242129025
 31
0.0
  0
LINE
  5
1E6
330
22
100
AcDbEntity
  8
_0-6_仕上
  6
Continuous
 62
     4
100
AcDbLine
 10
16676.59319196554
 20
20464.58874835951
 30
0.0
 11
16876.59385180507
 21
20464.58874835951
 31
0.0
  0
LINE
  5
1E7
330
22
100
AcDbEntity
  8
_0-6_仕上
  6
Continuous
 62
     4
100
AcDbLine
 10
16276.59434668471
 20
15949.28335813041
 30
0.0
 11
16676.59319196554
 21
16642.10001511943
 31
0.0
  0
LINE
  5
1E8
330
22
100
AcDbEntity
  8
_0-6_仕上
  6
Continuous
 62
     4
100
AcDbLine
 10
16276.59434668471
 20
15949.28335813041
 30
0.0
 11
16276.59434668471
 21
16049.28368805017
 31
0.0
  0
LINE
  5
1E9
330
22
100
AcDbEntity
  8
_0-6_仕上
  6
Continuous
 62
     4
100
AcDbLine
 10
16676.59319196554
 20
16642.10001511943
 30
0.0
 11
16876.59385180507
 21
16642.10001511943
 31
0.0
  0
LINE
  5
1EA
330
22
100
AcDbEntity
  8
_0-4_ハッチ
  6
Continuous
 62
     5
100
AcDbLine
 10
30095.59624042416
 20
16037.65772798366
 30
0.0
 11
30095.59624042416
 21
23514.04330851048
 31
0.0
  0
LINE
  5
1EB
330
22
100
AcDbEntity
  8
_0-4_ハッチ
  6
Continuous
 62
     5
100
AcDbLine
 10
30145.59640538404
 20
16298.09556450182
 30
0.0
 11
30045.59607546429
 21
16298.09556450182
 31
0.0
  0
LINE
  5
1EC
330
22
100
AcDbEntity
  8
_0-4_ハッチ
  6
Continuous
 62
     5
100
AcDbLine
 10
30145.59640538404
 20
16398.09589442158
 30
0.0
 11
30045.59607546429
 21
16398.09589442158
 31
0.0
  0
LINE
  5
1ED
330
22
100
AcDbEntity
  8
_0-4_ハッチ
  6
Continuous
 62
     5
100
AcDbLine
 10
30145.59640538404
 20
16498.09622434135
 30
0.0
 11
30045.59607546429
 21
16498.09622434135
 31
0.0
  0
LINE
  5
1EE
330
22
100
AcDbEntity
  8
_0-4_ハッチ
  6
Continuous
 62
     5
100
AcDbLine
 10
30145.59640538404
 20
16598.0965542611
 30
0.0
 11
30045.59607546429
 21
16598.0965542611
 31
0.0
  0
LINE
  5
1EF
330
22
100
AcDbEntity
  8
_0-4_ハッチ
  6
Continuous
 62
     5
100
AcDbLine
 10
30145.59640538404
 20
16698.09688418087
 30
0.0
 11
30045.59607546429
 21
16698.09688418087
 31
0.0
  0
LINE
  5
1F0
330
22
100
AcDbEntity
  8
_0-4_ハッチ
  6
Continuous
 62
     5
100
AcDbLine
 10
30145.59640538404
 20
16798.09721410064
 30
0.0
 11
30045.59607546429
 21
16798.09721410064
 31
0.0
  0
LINE
  5
1F1
330
22
100
AcDbEntity
  8
_0-4_ハッチ
  6
Continuous
 62
     5
100
AcDbLine
 10
30145.59640538404
 20
16898.0975440204
 30
0.0
 11
30045.59607546429
 21
16898.0975440204
 31
0.0
  0
LINE
  5
1F2
330
22
100
AcDbEntity
  8
_0-4_ハッチ
  6
Continuous
 62
     5
100
AcDbLine
 10
30145.59640538404
 20
16998.09787394016
 30
0.0
 11
30045.59607546429
 21
16998.09787394016
 31
0.0
  0
LINE
  5
1F3
330
22
100
AcDbEntity
  8
_0-4_ハッチ
  6
Continuous
 62
     5
100
AcDbLine
 10
30145.59640538404
 20
17098.09820385993
 30
0.0
 11
30045.59607546429
 21
17098.09820385993
 31
0.0
  0
LINE
  5
1F4
330
22
100
AcDbEntity
  8
_0-4_ハッチ
  6
Continuous
 62
     5
100
AcDbLine
 10
30145.59640538404
 20
17198.09853377969
 30
0.0
 11
30045.59607546429
 21
17198.09853377969
 31
0.0
  0
LINE
  5
1F5
330
22
100
AcDbEntity
  8
_0-4_ハッチ
  6
Continuous
 62
     5
100
AcDbLine
 10
30145.59640538404
 20
17298.09886369945
 30
0.0
 11
30045.59607546429
 21
17298.09886369945
 31
0.0
  0
LINE
  5
1F6
330
22
100
AcDbEntity
  8
_0-4_ハッチ
  6
Continuous
 62
     5
100
AcDbLine
 10
30145.59640538404
 20
17398.09919361922
 30
0.0
 11
30045.59607546429
 21
17398.09919361922
 31
0.0
  0
LINE
  5
1F7
330
22
100
AcDbEntity
  8
_0-4_ハッチ
  6
Continuous
 62
     5
100
AcDbLine
 10
30145.59640538404
 20
17498.09952353898
 30
0.0
 11
30045.59607546429
 21
17498.09952353898
 31
0.0
  0
LINE
  5
1F8
330
22
100
AcDbEntity
  8
_0-4_ハッチ
  6
Continuous
 62
     5
100
AcDbLine
 10
30145.59640538404
 20
17598.09985345874
 30
0.0
 11
30045.59607546429
 21
17598.09985345874
 31
0.0
  0
LINE
  5
1F9
330
22
100
AcDbEntity
  8
_0-4_ハッチ
  6
Continuous
 62
     5
100
AcDbLine
 10
30145.59640538404
 20
17698.10018337851
 30
0.0
 11
30045.59607546429
 21
17698.10018337851
 31
0.0
  0
LINE
  5
1FA
330
22
100
AcDbEntity
  8
_0-4_ハッチ
  6
Continuous
 62
     5
100
AcDbLine
 10
30145.59640538404
 20
17798.10051329827
 30
0.0
 11
30045.59607546429
 21
17798.10051329827
 31
0.0
  0
LINE
  5
1FB
330
22
100
AcDbEntity
  8
_0-4_ハッチ
  6
Continuous
 62
     5
100
AcDbLine
 10
30145.59640538404
 20
17898.10084321804
 30
0.0
 11
30045.59607546429
 21
17898.10084321804
 31
0.0
  0
LINE
  5
1FC
330
22
100
AcDbEntity
  8
_0-4_ハッチ
  6
Continuous
 62
     5
100
AcDbLine
 10
30145.59640538404
 20
17998.1011731378
 30
0.0
 11
30045.59607546429
 21
17998.1011731378
 31
0.0
  0
LINE
  5
1FD
330
22
100
AcDbEntity
  8
_0-4_ハッチ
  6
Continuous
 62
     5
100
AcDbLine
 10
30145.59640538404
 20
18098.10150305756
 30
0.0
 11
30045.59607546429
 21
18098.10150305756
 31
0.0
  0
LINE
  5
1FE
330
22
100
AcDbEntity
  8
_0-4_ハッチ
  6
Continuous
 62
     5
100
AcDbLine
 10
30145.59640538404
 20
18198.10183297733
 30
0.0
 11
30045.59607546429
 21
18198.10183297733
 31
0.0
  0
LINE
  5
1FF
330
22
100
AcDbEntity
  8
_0-4_ハッチ
  6
Continuous
 62
     5
100
AcDbLine
 10
30145.59640538404
 20
18298.10216289709
 30
0.0
 11
30045.59607546429
 21
18298.10216289709
 31
0.0
  0
LINE
  5
200
330
22
100
AcDbEntity
  8
_0-4_ハッチ
  6
Continuous
 62
     5
100
AcDbLine
 10
30145.59640538404
 20
18398.10249281685
 30
0.0
 11
30045.59607546429
 21
18398.10249281685
 31
0.0
  0
LINE
  5
201
330
22
100
AcDbEntity
  8
_0-4_ハッチ
  6
Continuous
 62
     5
100
AcDbLine
 10
30145.59640538404
 20
18498.10282273661
 30
0.0
 11
30045.59607546429
 21
18498.10282273661
 31
0.0
  0
LINE
  5
202
330
22
100
AcDbEntity
  8
_0-4_ハッチ
  6
Continuous
 62
     5
100
AcDbLine
 10
30145.59640538404
 20
18598.10315265638
 30
0.0
 11
30045.59607546429
 21
18598.10315265638
 31
0.0
  0
LINE
  5
203
330
22
100
AcDbEntity
  8
_0-4_ハッチ
  6
Continuous
 62
     5
100
AcDbLine
 10
30145.59640538404
 20
18698.10348257614
 30
0.0
 11
30045.59607546429
 21
18698.10348257614
 31
0.0
  0
LINE
  5
204
330
22
100
AcDbEntity
  8
_0-4_ハッチ
  6
Continuous
 62
     5
100
AcDbLine
 10
30145.59640538404
 20
18798.10381249591
 30
0.0
 11
30045.59607546429
 21
18798.10381249591
 31
0.0
  0
LINE
  5
205
330
22
100
AcDbEntity
  8
_0-4_ハッチ
  6
Continuous
 62
     5
100
AcDbLine
 10
30145.59640538404
 20
18898.10414241567
 30
0.0
 11
30045.59607546429
 21
18898.10414241567
 31
0.0
  0
LINE
  5
206
330
22
100
AcDbEntity
  8
_0-4_ハッチ
  6
Continuous
 62
     5
100
AcDbLine
 10
30145.59640538404
 20
18998.10447233543
 30
0.0
 11
30045.59607546429
 21
18998.10447233543
 31
0.0
  0
LINE
  5
207
330
22
100
AcDbEntity
  8
_0-4_ハッチ
  6
Continuous
 62
     5
100
AcDbLine
 10
30145.59640538404
 20
19098.1048022552
 30
0.0
 11
30045.59607546429
 21
19098.1048022552
 31
0.0
  0
LINE
  5
208
330
22
100
AcDbEntity
  8
_0-4_ハッチ
  6
Continuous
 62
     5
100
AcDbLine
 10
30145.59640538404
 20
19198.10513217496
 30
0.0
 11
30045.59607546429
 21
19198.10513217496
 31
0.0
  0
LINE
  5
209
330
22
100
AcDbEntity
  8
_0-4_ハッチ
  6
Continuous
 62
     5
100
AcDbLine
 10
30145.59640538404
 20
19298.10546209473
 30
0.0
 11
30045.59607546429
 21
19298.10546209473
 31
0.0
  0
LINE
  5
20A
330
22
100
AcDbEntity
  8
_0-4_ハッチ
  6
Continuous
 62
     5
100
AcDbLine
 10
30145.59640538404
 20
19398.10579201449
 30
0.0
 11
30045.59607546429
 21
19398.10579201449
 31
0.0
  0
LINE
  5
20B
330
22
100
AcDbEntity
  8
_0-4_ハッチ
  6
Continuous
 62
     5
100
AcDbLine
 10
30145.59640538404
 20
19498.10612193425
 30
0.0
 11
30045.59607546429
 21
19498.10612193425
 31
0.0
  0
LINE
  5
20C
330
22
100
AcDbEntity
  8
_0-4_ハッチ
  6
Continuous
 62
     5
100
AcDbLine
 10
30145.59640538404
 20
19598.10645185401
 30
0.0
 11
30045.59607546429
 21
19598.10645185401
 31
0.0
  0
LINE
  5
20D
330
22
100
AcDbEntity
  8
_0-4_ハッチ
  6
Continuous
 62
     5
100
AcDbLine
 10
30145.59640538404
 20
19698.10678177378
 30
0.0
 11
30045.59607546429
 21
19698.10678177378
 31
0.0
  0
LINE
  5
20E
330
22
100
AcDbEntity
  8
_0-4_ハッチ
  6
Continuous
 62
     5
100
AcDbLine
 10
30145.59640538404
 20
19798.10711169354
 30
0.0
 11
30045.59607546429
 21
19798.10711169354
 31
0.0
  0
LINE
  5
20F
330
22
100
AcDbEntity
  8
_0-4_ハッチ
  6
Continuous
 62
     5
100
AcDbLine
 10
30145.59640538404
 20
19898.10744161331
 30
0.0
 11
30045.59607546429
 21
19898.10744161331
 31
0.0
  0
LINE
  5
210
330
22
100
AcDbEntity
  8
_0-4_ハッチ
  6
Continuous
 62
     5
100
AcDbLine
 10
30145.59640538404
 20
19998.10777153307
 30
0.0
 11
30045.59607546429
 21
19998.10777153307
 31
0.0
  0
LINE
  5
211
330
22
100
AcDbEntity
  8
_0-4_ハッチ
  6
Continuous
 62
     5
100
AcDbLine
 10
30145.59640538404
 20
20098.10810145284
 30
0.0
 11
30045.59607546429
 21
20098.10810145284
 31
0.0
  0
LINE
  5
212
330
22
100
AcDbEntity
  8
_0-4_ハッチ
  6
Continuous
 62
     5
100
AcDbLine
 10
30145.59640538404
 20
20198.1084313726
 30
0.0
 11
30045.59607546429
 21
20198.1084313726
 31
0.0
  0
LINE
  5
213
330
22
100
AcDbEntity
  8
_0-4_ハッチ
  6
Continuous
 62
     5
100
AcDbLine
 10
30145.59640538404
 20
20298.10876129236
 30
0.0
 11
30045.59607546429
 21
20298.10876129236
 31
0.0
  0
LINE
  5
214
330
22
100
AcDbEntity
  8
_0-4_ハッチ
  6
Continuous
 62
     5
100
AcDbLine
 10
30145.59640538404
 20
20398.10909121213
 30
0.0
 11
30045.59607546429
 21
20398.10909121213
 31
0.0
  0
LINE
  5
215
330
22
100
AcDbEntity
  8
_0-4_ハッチ
  6
Continuous
 62
     5
100
AcDbLine
 10
30145.59640538404
 20
20498.10942113189
 30
0.0
 11
30045.59607546429
 21
20498.10942113189
 31
0.0
  0
LINE
  5
216
330
22
100
AcDbEntity
  8
_0-4_ハッチ
  6
Continuous
 62
     5
100
AcDbLine
 10
30145.59640538404
 20
20598.10975105165
 30
0.0
 11
30045.59607546429
 21
20598.10975105165
 31
0.0
  0
LINE
  5
217
330
22
100
AcDbEntity
  8
_0-4_ハッチ
  6
Continuous
 62
     5
100
AcDbLine
 10
30145.59640538404
 20
20698.11008097141
 30
0.0
 11
30045.59607546429
 21
20698.11008097141
 31
0.0
  0
LINE
  5
218
330
22
100
AcDbEntity
  8
_0-4_ハッチ
  6
Continuous
 62
     5
100
AcDbLine
 10
30145.59640538404
 20
20798.11041089119
 30
0.0
 11
30045.59607546429
 21
20798.11041089119
 31
0.0
  0
LINE
  5
219
330
22
100
AcDbEntity
  8
_0-4_ハッチ
  6
Continuous
 62
     5
100
AcDbLine
 10
30145.59640538404
 20
20898.11074081095
 30
0.0
 11
30045.59607546429
 21
20898.11074081095
 31
0.0
  0
LINE
  5
21A
330
22
100
AcDbEntity
  8
_0-4_ハッチ
  6
Continuous
 62
     5
100
AcDbLine
 10
30145.59640538404
 20
20998.1110707307
 30
0.0
 11
30045.59607546429
 21
20998.1110707307
 31
0.0
  0
LINE
  5
21B
330
22
100
AcDbEntity
  8
_0-4_ハッチ
  6
Continuous
 62
     5
100
AcDbLine
 10
30145.59640538404
 20
21098.11140065047
 30
0.0
 11
30045.59607546429
 21
21098.11140065047
 31
0.0
  0
LINE
  5
21C
330
22
100
AcDbEntity
  8
_0-4_ハッチ
  6
Continuous
 62
     5
100
AcDbLine
 10
30145.59640538404
 20
21198.11173057023
 30
0.0
 11
30045.59607546429
 21
21198.11173057023
 31
0.0
  0
LINE
  5
21D
330
22
100
AcDbEntity
  8
_0-4_ハッチ
  6
Continuous
 62
     5
100
AcDbLine
 10
30145.59640538404
 20
21298.11206049
 30
0.0
 11
30045.59607546429
 21
21298.11206049
 31
0.0
  0
LINE
  5
21E
330
22
100
AcDbEntity
  8
_0-4_ハッチ
  6
Continuous
 62
     5
100
AcDbLine
 10
30145.59640538404
 20
21398.11239040976
 30
0.0
 11
30045.59607546429
 21
21398.11239040976
 31
0.0
  0
LINE
  5
21F
330
22
100
AcDbEntity
  8
_0-4_ハッチ
  6
Continuous
 62
     5
100
AcDbLine
 10
30145.59640538404
 20
21498.11272032953
 30
0.0
 11
30045.59607546429
 21
21498.11272032953
 31
0.0
  0
LINE
  5
220
330
22
100
AcDbEntity
  8
_0-4_ハッチ
  6
Continuous
 62
     5
100
AcDbLine
 10
30145.59640538404
 20
21598.11305024929
 30
0.0
 11
30045.59607546429
 21
21598.11305024929
 31
0.0
  0
LINE
  5
221
330
22
100
AcDbEntity
  8
_0-4_ハッチ
  6
Continuous
 62
     5
100
AcDbLine
 10
30145.59640538404
 20
21698.11338016905
 30
0.0
 11
30045.59607546429
 21
21698.11338016905
 31
0.0
  0
LINE
  5
222
330
22
100
AcDbEntity
  8
_0-4_ハッチ
  6
Continuous
 62
     5
100
AcDbLine
 10
30145.59640538404
 20
21798.11371008881
 30
0.0
 11
30045.59607546429
 21
21798.11371008881
 31
0.0
  0
LINE
  5
223
330
22
100
AcDbEntity
  8
_0-4_ハッチ
  6
Continuous
 62
     5
100
AcDbLine
 10
30145.59640538404
 20
21898.11404000858
 30
0.0
 11
30045.59607546429
 21
21898.11404000858
 31
0.0
  0
LINE
  5
224
330
22
100
AcDbEntity
  8
_0-4_ハッチ
  6
Continuous
 62
     5
100
AcDbLine
 10
30145.59640538404
 20
21998.11436992835
 30
0.0
 11
30045.59607546429
 21
21998.11436992835
 31
0.0
  0
LINE
  5
225
330
22
100
AcDbEntity
  8
_0-4_ハッチ
  6
Continuous
 62
     5
100
AcDbLine
 10
30145.59640538404
 20
22098.11469984811
 30
0.0
 11
30045.59607546429
 21
22098.11469984811
 31
0.0
  0
LINE
  5
226
330
22
100
AcDbEntity
  8
_0-4_ハッチ
  6
Continuous
 62
     5
100
AcDbLine
 10
30145.59640538404
 20
22198.11502976786
 30
0.0
 11
30045.59607546429
 21
22198.11502976786
 31
0.0
  0
LINE
  5
227
330
22
100
AcDbEntity
  8
_0-4_ハッチ
  6
Continuous
 62
     5
100
AcDbLine
 10
30145.59640538404
 20
22298.11535968763
 30
0.0
 11
30045.59607546429
 21
22298.11535968763
 31
0.0
  0
LINE
  5
228
330
22
100
AcDbEntity
  8
_0-4_ハッチ
  6
Continuous
 62
     5
100
AcDbLine
 10
30145.59640538404
 20
22398.1156896074
 30
0.0
 11
30045.59607546429
 21
22398.1156896074
 31
0.0
  0
LINE
  5
229
330
22
100
AcDbEntity
  8
_0-4_ハッチ
  6
Continuous
 62
     5
100
AcDbLine
 10
30145.59640538404
 20
22498.11601952716
 30
0.0
 11
30045.59607546429
 21
22498.11601952716
 31
0.0
  0
LINE
  5
22A
330
22
100
AcDbEntity
  8
_0-4_ハッチ
  6
Continuous
 62
     5
100
AcDbLine
 10
30145.59640538404
 20
22598.11634944692
 30
0.0
 11
30045.59607546429
 21
22598.11634944692
 31
0.0
  0
LINE
  5
22B
330
22
100
AcDbEntity
  8
_0-4_ハッチ
  6
Continuous
 62
     5
100
AcDbLine
 10
30145.59640538404
 20
22698.11667936668
 30
0.0
 11
30045.59607546429
 21
22698.11667936668
 31
0.0
  0
LINE
  5
22C
330
22
100
AcDbEntity
  8
_0-4_ハッチ
  6
Continuous
 62
     5
100
AcDbLine
 10
30145.59640538404
 20
22798.11700928645
 30
0.0
 11
30045.59607546429
 21
22798.11700928645
 31
0.0
  0
LINE
  5
22D
330
22
100
AcDbEntity
  8
_0-4_ハッチ
  6
Continuous
 62
     5
100
AcDbLine
 10
30145.59640538404
 20
22898.1161020071
 30
0.0
 11
29645.59475578522
 21
22898.1161020071
 31
0.0
  0
LINE
  5
22E
330
22
100
AcDbEntity
  8
_0-4_ハッチ
  6
Continuous
 62
     5
100
AcDbLine
 10
30145.59640538404
 20
22998.11643192687
 30
0.0
 11
29645.59475578522
 21
22998.11643192687
 31
0.0
  0
LINE
  5
22F
330
22
100
AcDbEntity
  8
_0-4_ハッチ
  6
Continuous
 62
     5
100
AcDbLine
 10
30145.59640538404
 20
23098.11676184662
 30
0.0
 11
29645.59475578522
 21
23098.11676184662
 31
0.0
  0
LINE
  5
230
330
22
100
AcDbEntity
  8
_0-4_ハッチ
  6
Continuous
 62
     5
100
AcDbLine
 10
30145.59640538404
 20
23198.11709176639
 30
0.0
 11
29645.59475578522
 21
23198.11709176639
 31
0.0
  0
LINE
  5
231
330
22
100
AcDbEntity
  8
_0-4_ハッチ
  6
Continuous
 62
     5
100
AcDbLine
 10
30145.59640538404
 20
23298.11742168616
 30
0.0
 11
29645.59475578522
 21
23298.11742168616
 31
0.0
  0
LINE
  5
232
330
22
100
AcDbEntity
  8
_0-4_ハッチ
  6
Continuous
 62
     5
100
AcDbLine
 10
30145.59640538404
 20
23398.12270040237
 30
0.0
 11
30045.59607546429
 21
23398.12270040237
 31
0.0
  0
LINE
  5
233
330
22
100
AcDbEntity
  8
_0-4_ハッチ
  6
Continuous
 62
     5
100
AcDbLine
 10
29995.59591050439
 20
16210.86312943003
 30
0.0
 11
29995.59591050439
 21
23514.04330851048
 31
0.0
  0
LINE
  5
234
330
22
100
AcDbEntity
  8
_0-4_ハッチ
  6
Continuous
 62
     5
100
AcDbLine
 10
30045.59607546429
 20
16498.09498714223
 30
0.0
 11
29829.76174137433
 21
16498.09498714223
 31
0.0
  0
LINE
  5
235
330
22
100
AcDbEntity
  8
_0-4_ハッチ
  6
Continuous
 62
     5
100
AcDbLine
 10
30045.59607546429
 20
16698.09564698176
 30
0.0
 11
29845.59541562475
 21
16698.09564698176
 31
0.0
  0
LINE
  5
236
330
22
100
AcDbEntity
  8
_0-4_ハッチ
  6
Continuous
 62
     5
100
AcDbLine
 10
30045.59607546429
 20
16798.09597690152
 30
0.0
 11
29845.59541562475
 21
16798.09597690152
 31
0.0
  0
LINE
  5
237
330
22
100
AcDbEntity
  8
_0-4_ハッチ
  6
Continuous
 62
     5
100
AcDbLine
 10
30045.59607546429
 20
16898.09630682129
 30
0.0
 11
29845.59541562475
 21
16898.09630682129
 31
0.0
  0
LINE
  5
238
330
22
100
AcDbEntity
  8
_0-4_ハッチ
  6
Continuous
 62
     5
100
AcDbLine
 10
30045.59607546429
 20
16998.09663674106
 30
0.0
 11
29845.59541562475
 21
16998.09663674106
 31
0.0
  0
LINE
  5
239
330
22
100
AcDbEntity
  8
_0-4_ハッチ
  6
Continuous
 62
     5
100
AcDbLine
 10
30045.59607546429
 20
17098.09696666081
 30
0.0
 11
29845.59541562475
 21
17098.09696666081
 31
0.0
  0
LINE
  5
23A
330
22
100
AcDbEntity
  8
_0-4_ハッチ
  6
Continuous
 62
     5
100
AcDbLine
 10
30045.59607546429
 20
17198.09729658058
 30
0.0
 11
29845.59541562475
 21
17198.09729658058
 31
0.0
  0
LINE
  5
23B
330
22
100
AcDbEntity
  8
_0-4_ハッチ
  6
Continuous
 62
     5
100
AcDbLine
 10
30045.59607546429
 20
17298.09762650034
 30
0.0
 11
29845.59541562475
 21
17298.09762650034
 31
0.0
  0
LINE
  5
23C
330
22
100
AcDbEntity
  8
_0-4_ハッチ
  6
Continuous
 62
     5
100
AcDbLine
 10
30045.59607546429
 20
17398.09795642011
 30
0.0
 11
29845.59541562475
 21
17398.09795642011
 31
0.0
  0
LINE
  5
23D
330
22
100
AcDbEntity
  8
_0-4_ハッチ
  6
Continuous
 62
     5
100
AcDbLine
 10
30045.59607546429
 20
17498.09828633987
 30
0.0
 11
29845.59541562475
 21
17498.09828633987
 31
0.0
  0
LINE
  5
23E
330
22
100
AcDbEntity
  8
_0-4_ハッチ
  6
Continuous
 62
     5
100
AcDbLine
 10
30045.59607546429
 20
17598.09861625963
 30
0.0
 11
29845.59541562475
 21
17598.09861625963
 31
0.0
  0
LINE
  5
23F
330
22
100
AcDbEntity
  8
_0-4_ハッチ
  6
Continuous
 62
     5
100
AcDbLine
 10
30045.59607546429
 20
17698.0989461794
 30
0.0
 11
29845.59541562475
 21
17698.0989461794
 31
0.0
  0
LINE
  5
240
330
22
100
AcDbEntity
  8
_0-4_ハッチ
  6
Continuous
 62
     5
100
AcDbLine
 10
30045.59607546429
 20
17798.09927609916
 30
0.0
 11
29845.59541562475
 21
17798.09927609916
 31
0.0
  0
LINE
  5
241
330
22
100
AcDbEntity
  8
_0-4_ハッチ
  6
Continuous
 62
     5
100
AcDbLine
 10
30045.59607546429
 20
17898.09960601892
 30
0.0
 11
29845.59541562475
 21
17898.09960601892
 31
0.0
  0
LINE
  5
242
330
22
100
AcDbEntity
  8
_0-4_ハッチ
  6
Continuous
 62
     5
100
AcDbLine
 10
30045.59607546429
 20
17998.09993593869
 30
0.0
 11
29845.59541562475
 21
17998.09993593869
 31
0.0
  0
LINE
  5
243
330
22
100
AcDbEntity
  8
_0-4_ハッチ
  6
Continuous
 62
     5
100
AcDbLine
 10
30045.59607546429
 20
18098.10026585845
 30
0.0
 11
29845.59541562475
 21
18098.10026585845
 31
0.0
  0
LINE
  5
244
330
22
100
AcDbEntity
  8
_0-4_ハッチ
  6
Continuous
 62
     5
100
AcDbLine
 10
30045.59607546429
 20
18198.10059577821
 30
0.0
 11
29845.59541562475
 21
18198.10059577821
 31
0.0
  0
LINE
  5
245
330
22
100
AcDbEntity
  8
_0-4_ハッチ
  6
Continuous
 62
     5
100
AcDbLine
 10
30045.59607546429
 20
18298.10092569798
 30
0.0
 11
29845.59541562475
 21
18298.10092569798
 31
0.0
  0
LINE
  5
246
330
22
100
AcDbEntity
  8
_0-4_ハッチ
  6
Continuous
 62
     5
100
AcDbLine
 10
30045.59607546429
 20
18398.10125561774
 30
0.0
 11
29845.59541562475
 21
18398.10125561774
 31
0.0
  0
LINE
  5
247
330
22
100
AcDbEntity
  8
_0-4_ハッチ
  6
Continuous
 62
     5
100
AcDbLine
 10
30045.59607546429
 20
18498.10158553751
 30
0.0
 11
29845.59541562475
 21
18498.10158553751
 31
0.0
  0
LINE
  5
248
330
22
100
AcDbEntity
  8
_0-4_ハッチ
  6
Continuous
 62
     5
100
AcDbLine
 10
30045.59607546429
 20
18598.10191545727
 30
0.0
 11
29845.59541562475
 21
18598.10191545727
 31
0.0
  0
LINE
  5
249
330
22
100
AcDbEntity
  8
_0-4_ハッチ
  6
Continuous
 62
     5
100
AcDbLine
 10
30045.59607546429
 20
18698.10224537703
 30
0.0
 11
29845.59541562475
 21
18698.10224537703
 31
0.0
  0
LINE
  5
24A
330
22
100
AcDbEntity
  8
_0-4_ハッチ
  6
Continuous
 62
     5
100
AcDbLine
 10
30045.59607546429
 20
18798.1025752968
 30
0.0
 11
29845.59541562475
 21
18798.1025752968
 31
0.0
  0
LINE
  5
24B
330
22
100
AcDbEntity
  8
_0-4_ハッチ
  6
Continuous
 62
     5
100
AcDbLine
 10
30045.59607546429
 20
18898.10290521656
 30
0.0
 11
29845.59541562475
 21
18898.10290521656
 31
0.0
  0
LINE
  5
24C
330
22
100
AcDbEntity
  8
_0-4_ハッチ
  6
Continuous
 62
     5
100
AcDbLine
 10
30045.59607546429
 20
18998.10323513632
 30
0.0
 11
29845.59541562475
 21
18998.10323513632
 31
0.0
  0
LINE
  5
24D
330
22
100
AcDbEntity
  8
_0-4_ハッチ
  6
Continuous
 62
     5
100
AcDbLine
 10
30045.59607546429
 20
19098.10356505609
 30
0.0
 11
29845.59541562475
 21
19098.10356505609
 31
0.0
  0
LINE
  5
24E
330
22
100
AcDbEntity
  8
_0-4_ハッチ
  6
Continuous
 62
     5
100
AcDbLine
 10
30045.59607546429
 20
19198.10389497585
 30
0.0
 11
29845.59541562475
 21
19198.10389497585
 31
0.0
  0
LINE
  5
24F
330
22
100
AcDbEntity
  8
_0-4_ハッチ
  6
Continuous
 62
     5
100
AcDbLine
 10
30045.59607546429
 20
19298.10422489561
 30
0.0
 11
29845.59541562475
 21
19298.10422489561
 31
0.0
  0
LINE
  5
250
330
22
100
AcDbEntity
  8
_0-4_ハッチ
  6
Continuous
 62
     5
100
AcDbLine
 10
30045.59607546429
 20
19398.10455481537
 30
0.0
 11
29845.59541562475
 21
19398.10455481537
 31
0.0
  0
LINE
  5
251
330
22
100
AcDbEntity
  8
_0-4_ハッチ
  6
Continuous
 62
     5
100
AcDbLine
 10
30045.59607546429
 20
19498.10488473514
 30
0.0
 11
29845.59541562475
 21
19498.10488473514
 31
0.0
  0
LINE
  5
252
330
22
100
AcDbEntity
  8
_0-4_ハッチ
  6
Continuous
 62
     5
100
AcDbLine
 10
30045.59607546429
 20
19598.1052146549
 30
0.0
 11
29845.59541562475
 21
19598.1052146549
 31
0.0
  0
LINE
  5
253
330
22
100
AcDbEntity
  8
_0-4_ハッチ
  6
Continuous
 62
     5
100
AcDbLine
 10
30045.59607546429
 20
19698.10554457467
 30
0.0
 11
29845.59541562475
 21
19698.10554457467
 31
0.0
  0
LINE
  5
254
330
22
100
AcDbEntity
  8
_0-4_ハッチ
  6
Continuous
 62
     5
100
AcDbLine
 10
30045.59607546429
 20
19798.10587449443
 30
0.0
 11
29845.59541562475
 21
19798.10587449443
 31
0.0
  0
LINE
  5
255
330
22
100
AcDbEntity
  8
_0-4_ハッチ
  6
Continuous
 62
     5
100
AcDbLine
 10
30045.59607546429
 20
19898.1062044142
 30
0.0
 11
29845.59541562475
 21
19898.1062044142
 31
0.0
  0
LINE
  5
256
330
22
100
AcDbEntity
  8
_0-4_ハッチ
  6
Continuous
 62
     5
100
AcDbLine
 10
30045.59607546429
 20
19998.10653433396
 30
0.0
 11
29845.59541562475
 21
19998.10653433396
 31
0.0
  0
LINE
  5
257
330
22
100
AcDbEntity
  8
_0-4_ハッチ
  6
Continuous
 62
     5
100
AcDbLine
 10
30045.59607546429
 20
20098.10686425372
 30
0.0
 11
29845.59541562475
 21
20098.10686425372
 31
0.0
  0
LINE
  5
258
330
22
100
AcDbEntity
  8
_0-4_ハッチ
  6
Continuous
 62
     5
100
AcDbLine
 10
30045.59607546429
 20
20198.10719417348
 30
0.0
 11
29845.59541562475
 21
20198.10719417348
 31
0.0
  0
LINE
  5
259
330
22
100
AcDbEntity
  8
_0-4_ハッチ
  6
Continuous
 62
     5
100
AcDbLine
 10
30045.59607546429
 20
20298.10752409325
 30
0.0
 11
29845.59541562475
 21
20298.10752409325
 31
0.0
  0
LINE
  5
25A
330
22
100
AcDbEntity
  8
_0-4_ハッチ
  6
Continuous
 62
     5
100
AcDbLine
 10
30045.59607546429
 20
20398.10785401301
 30
0.0
 11
29845.59541562475
 21
20398.10785401301
 31
0.0
  0
LINE
  5
25B
330
22
100
AcDbEntity
  8
_0-4_ハッチ
  6
Continuous
 62
     5
100
AcDbLine
 10
30045.59607546429
 20
20498.10818393277
 30
0.0
 11
29845.59541562475
 21
20498.10818393277
 31
0.0
  0
LINE
  5
25C
330
22
100
AcDbEntity
  8
_0-4_ハッチ
  6
Continuous
 62
     5
100
AcDbLine
 10
30045.59607546429
 20
20598.10851385254
 30
0.0
 11
29845.59541562475
 21
20598.10851385254
 31
0.0
  0
LINE
  5
25D
330
22
100
AcDbEntity
  8
_0-4_ハッチ
  6
Continuous
 62
     5
100
AcDbLine
 10
30045.59607546429
 20
20698.1088437723
 30
0.0
 11
29845.59541562475
 21
20698.1088437723
 31
0.0
  0
LINE
  5
25E
330
22
100
AcDbEntity
  8
_0-4_ハッチ
  6
Continuous
 62
     5
100
AcDbLine
 10
30045.59607546429
 20
20798.10917369206
 30
0.0
 11
29845.59541562475
 21
20798.10917369206
 31
0.0
  0
LINE
  5
25F
330
22
100
AcDbEntity
  8
_0-4_ハッチ
  6
Continuous
 62
     5
100
AcDbLine
 10
30045.59607546429
 20
20898.10950361183
 30
0.0
 11
29845.59541562475
 21
20898.10950361183
 31
0.0
  0
LINE
  5
260
330
22
100
AcDbEntity
  8
_0-4_ハッチ
  6
Continuous
 62
     5
100
AcDbLine
 10
30045.59607546429
 20
20998.10983353159
 30
0.0
 11
29845.59541562475
 21
20998.10983353159
 31
0.0
  0
LINE
  5
261
330
22
100
AcDbEntity
  8
_0-4_ハッチ
  6
Continuous
 62
     5
100
AcDbLine
 10
30045.59607546429
 20
21098.11016345136
 30
0.0
 11
29845.59541562475
 21
21098.11016345136
 31
0.0
  0
LINE
  5
262
330
22
100
AcDbEntity
  8
_0-4_ハッチ
  6
Continuous
 62
     5
100
AcDbLine
 10
30045.59607546429
 20
21198.11049337112
 30
0.0
 11
29845.59541562475
 21
21198.11049337112
 31
0.0
  0
LINE
  5
263
330
22
100
AcDbEntity
  8
_0-4_ハッチ
  6
Continuous
 62
     5
100
AcDbLine
 10
30045.59607546429
 20
21298.11082329089
 30
0.0
 11
29845.59541562475
 21
21298.11082329089
 31
0.0
  0
LINE
  5
264
330
22
100
AcDbEntity
  8
_0-4_ハッチ
  6
Continuous
 62
     5
100
AcDbLine
 10
30045.59607546429
 20
21398.11115321065
 30
0.0
 11
29845.59541562475
 21
21398.11115321065
 31
0.0
  0
LINE
  5
265
330
22
100
AcDbEntity
  8
_0-4_ハッチ
  6
Continuous
 62
     5
100
AcDbLine
 10
30045.59607546429
 20
21498.11148313041
 30
0.0
 11
29845.59541562475
 21
21498.11148313041
 31
0.0
  0
LINE
  5
266
330
22
100
AcDbEntity
  8
_0-4_ハッチ
  6
Continuous
 62
     5
100
AcDbLine
 10
30045.59607546429
 20
21598.11181305017
 30
0.0
 11
29845.59541562475
 21
21598.11181305017
 31
0.0
  0
LINE
  5
267
330
22
100
AcDbEntity
  8
_0-4_ハッチ
  6
Continuous
 62
     5
100
AcDbLine
 10
30045.59607546429
 20
21698.11214296994
 30
0.0
 11
29845.59541562475
 21
21698.11214296994
 31
0.0
  0
LINE
  5
268
330
22
100
AcDbEntity
  8
_0-4_ハッチ
  6
Continuous
 62
     5
100
AcDbLine
 10
30045.59607546429
 20
21798.1124728897
 30
0.0
 11
29845.59541562475
 21
21798.1124728897
 31
0.0
  0
LINE
  5
269
330
22
100
AcDbEntity
  8
_0-4_ハッチ
  6
Continuous
 62
     5
100
AcDbLine
 10
30045.59607546429
 20
21898.11280280947
 30
0.0
 11
29845.59541562475
 21
21898.11280280947
 31
0.0
  0
LINE
  5
26A
330
22
100
AcDbEntity
  8
_0-4_ハッチ
  6
Continuous
 62
     5
100
AcDbLine
 10
30045.59607546429
 20
21998.11313272923
 30
0.0
 11
29845.59541562475
 21
21998.11313272923
 31
0.0
  0
LINE
  5
26B
330
22
100
AcDbEntity
  8
_0-4_ハッチ
  6
Continuous
 62
     5
100
AcDbLine
 10
30045.59607546429
 20
22098.113462649
 30
0.0
 11
29845.59541562475
 21
22098.113462649
 31
0.0
  0
LINE
  5
26C
330
22
100
AcDbEntity
  8
_0-4_ハッチ
  6
Continuous
 62
     5
100
AcDbLine
 10
30045.59607546429
 20
22198.11255536964
 30
0.0
 11
29645.59475578522
 21
22198.11255536964
 31
0.0
  0
LINE
  5
26D
330
22
100
AcDbEntity
  8
_0-4_ハッチ
  6
Continuous
 62
     5
100
AcDbLine
 10
30045.59607546429
 20
22298.1128852894
 30
0.0
 11
29645.59475578522
 21
22298.1128852894
 31
0.0
  0
LINE
  5
26E
330
22
100
AcDbEntity
  8
_0-4_ハッチ
  6
Continuous
 62
     5
100
AcDbLine
 10
30045.59607546429
 20
22398.11321520917
 30
0.0
 11
29645.59475578522
 21
22398.11321520917
 31
0.0
  0
LINE
  5
26F
330
22
100
AcDbEntity
  8
_0-4_ハッチ
  6
Continuous
 62
     5
100
AcDbLine
 10
30045.59607546429
 20
22498.11354512893
 30
0.0
 11
29645.59475578522
 21
22498.11354512893
 31
0.0
  0
LINE
  5
270
330
22
100
AcDbEntity
  8
_0-4_ハッチ
  6
Continuous
 62
     5
100
AcDbLine
 10
30045.59607546429
 20
22598.1138750487
 30
0.0
 11
29645.59475578522
 21
22598.1138750487
 31
0.0
  0
LINE
  5
271
330
22
100
AcDbEntity
  8
_0-4_ハッチ
  6
Continuous
 62
     5
100
AcDbLine
 10
30045.59607546429
 20
22698.11420496846
 30
0.0
 11
29645.59475578522
 21
22698.11420496846
 31
0.0
  0
LINE
  5
272
330
22
100
AcDbEntity
  8
_0-4_ハッチ
  6
Continuous
 62
     5
100
AcDbLine
 10
30045.59607546429
 20
22798.11453488822
 30
0.0
 11
29645.59475578522
 21
22798.11453488822
 31
0.0
  0
LINE
  5
273
330
22
100
AcDbEntity
  8
_0-4_ハッチ
  6
Continuous
 62
     5
100
AcDbLine
 10
30045.59607546429
 20
23398.11775160592
 30
0.0
 11
29145.59310618641
 21
23398.11775160592
 31
0.0
  0
LINE
  5
274
330
22
100
AcDbEntity
  8
_0-4_ハッチ
  6
Continuous
 62
     5
100
AcDbLine
 10
29895.59558058464
 20
16384.0685308764
 30
0.0
 11
29895.59558058464
 21
23514.04330851048
 31
0.0
  0
LINE
  5
275
330
22
100
AcDbEntity
  8
_0-4_ハッチ
  6
Continuous
 62
     5
100
AcDbLine
 10
30045.59607546429
 20
16598.095317062
 30
0.0
 11
29772.02660755887
 21
16598.095317062
 31
0.0
  0
LINE
  5
276
330
22
100
AcDbEntity
  8
_0-4_ハッチ
  6
Continuous
 62
     5
100
AcDbLine
 10
29795.59525066487
 20
16557.27516952188
 30
0.0
 11
29795.59525066487
 21
23514.04330851048
 31
0.0
  0
LINE
  5
277
330
22
100
AcDbEntity
  8
_0-4_ハッチ
  6
Continuous
 62
     5
100
AcDbLine
 10
29845.59541562475
 20
16798.09473970241
 30
0.0
 11
29656.55881432618
 21
16798.09473970241
 31
0.0
  0
LINE
  5
278
330
22
100
AcDbEntity
  8
_0-4_ハッチ
  6
Continuous
 62
     5
100
AcDbLine
 10
29845.59541562475
 20
16898.09506962218
 30
0.0
 11
29598.82368051072
 21
16898.09506962218
 31
0.0
  0
LINE
  5
279
330
22
100
AcDbEntity
  8
_0-4_ハッチ
  6
Continuous
 62
     5
100
AcDbLine
 10
29845.59541562475
 20
16998.09539954193
 30
0.0
 11
29645.59475578522
 21
16998.09539954193
 31
0.0
  0
LINE
  5
27A
330
22
100
AcDbEntity
  8
_0-4_ハッチ
  6
Continuous
 62
     5
100
AcDbLine
 10
29845.59541562475
 20
17098.0957294617
 30
0.0
 11
29645.59475578522
 21
17098.0957294617
 31
0.0
  0
LINE
  5
27B
330
22
100
AcDbEntity
  8
_0-4_ハッチ
  6
Continuous
 62
     5
100
AcDbLine
 10
29845.59541562475
 20
17198.09605938146
 30
0.0
 11
29645.59475578522
 21
17198.09605938146
 31
0.0
  0
LINE
  5
27C
330
22
100
AcDbEntity
  8
_0-4_ハッチ
  6
Continuous
 62
     5
100
AcDbLine
 10
29845.59541562475
 20
17298.09638930123
 30
0.0
 11
29645.59475578522
 21
17298.09638930123
 31
0.0
  0
LINE
  5
27D
330
22
100
AcDbEntity
  8
_0-4_ハッチ
  6
Continuous
 62
     5
100
AcDbLine
 10
29845.59541562475
 20
17398.09671922099
 30
0.0
 11
29645.59475578522
 21
17398.09671922099
 31
0.0
  0
LINE
  5
27E
330
22
100
AcDbEntity
  8
_0-4_ハッチ
  6
Continuous
 62
     5
100
AcDbLine
 10
29845.59541562475
 20
17498.09704914075
 30
0.0
 11
29645.59475578522
 21
17498.09704914075
 31
0.0
  0
LINE
  5
27F
330
22
100
AcDbEntity
  8
_0-4_ハッチ
  6
Continuous
 62
     5
100
AcDbLine
 10
29845.59541562475
 20
17598.09737906051
 30
0.0
 11
29645.59475578522
 21
17598.09737906051
 31
0.0
  0
LINE
  5
280
330
22
100
AcDbEntity
  8
_0-4_ハッチ
  6
Continuous
 62
     5
100
AcDbLine
 10
29845.59541562475
 20
17698.09770898028
 30
0.0
 11
29645.59475578522
 21
17698.09770898028
 31
0.0
  0
LINE
  5
281
330
22
100
AcDbEntity
  8
_0-4_ハッチ
  6
Continuous
 62
     5
100
AcDbLine
 10
29845.59541562475
 20
17798.09803890005
 30
0.0
 11
29645.59475578522
 21
17798.09803890005
 31
0.0
  0
LINE
  5
282
330
22
100
AcDbEntity
  8
_0-4_ハッチ
  6
Continuous
 62
     5
100
AcDbLine
 10
29845.59541562475
 20
17898.09836881981
 30
0.0
 11
29645.59475578522
 21
17898.09836881981
 31
0.0
  0
LINE
  5
283
330
22
100
AcDbEntity
  8
_0-4_ハッチ
  6
Continuous
 62
     5
100
AcDbLine
 10
29845.59541562475
 20
17998.09869873957
 30
0.0
 11
29645.59475578522
 21
17998.09869873957
 31
0.0
  0
LINE
  5
284
330
22
100
AcDbEntity
  8
_0-4_ハッチ
  6
Continuous
 62
     5
100
AcDbLine
 10
29845.59541562475
 20
18098.09902865934
 30
0.0
 11
29645.59475578522
 21
18098.09902865934
 31
0.0
  0
LINE
  5
285
330
22
100
AcDbEntity
  8
_0-4_ハッチ
  6
Continuous
 62
     5
100
AcDbLine
 10
29845.59541562475
 20
18198.0993585791
 30
0.0
 11
29645.59475578522
 21
18198.0993585791
 31
0.0
  0
LINE
  5
286
330
22
100
AcDbEntity
  8
_0-4_ハッチ
  6
Continuous
 62
     5
100
AcDbLine
 10
29845.59541562475
 20
18298.09968849886
 30
0.0
 11
29645.59475578522
 21
18298.09968849886
 31
0.0
  0
LINE
  5
287
330
22
100
AcDbEntity
  8
_0-4_ハッチ
  6
Continuous
 62
     5
100
AcDbLine
 10
29845.59541562475
 20
18398.10001841863
 30
0.0
 11
29645.59475578522
 21
18398.10001841863
 31
0.0
  0
LINE
  5
288
330
22
100
AcDbEntity
  8
_0-4_ハッチ
  6
Continuous
 62
     5
100
AcDbLine
 10
29845.59541562475
 20
18498.10034833839
 30
0.0
 11
29645.59475578522
 21
18498.10034833839
 31
0.0
  0
LINE
  5
289
330
22
100
AcDbEntity
  8
_0-4_ハッチ
  6
Continuous
 62
     5
100
AcDbLine
 10
29845.59541562475
 20
18598.10067825815
 30
0.0
 11
29645.59475578522
 21
18598.10067825815
 31
0.0
  0
LINE
  5
28A
330
22
100
AcDbEntity
  8
_0-4_ハッチ
  6
Continuous
 62
     5
100
AcDbLine
 10
29845.59541562475
 20
18698.10100817792
 30
0.0
 11
29645.59475578522
 21
18698.10100817792
 31
0.0
  0
LINE
  5
28B
330
22
100
AcDbEntity
  8
_0-4_ハッチ
  6
Continuous
 62
     5
100
AcDbLine
 10
29845.59541562475
 20
18798.10133809768
 30
0.0
 11
29645.59475578522
 21
18798.10133809768
 31
0.0
  0
LINE
  5
28C
330
22
100
AcDbEntity
  8
_0-4_ハッチ
  6
Continuous
 62
     5
100
AcDbLine
 10
29845.59541562475
 20
18898.10166801744
 30
0.0
 11
29645.59475578522
 21
18898.10166801744
 31
0.0
  0
LINE
  5
28D
330
22
100
AcDbEntity
  8
_0-4_ハッチ
  6
Continuous
 62
     5
100
AcDbLine
 10
29845.59541562475
 20
18998.10199793721
 30
0.0
 11
29645.59475578522
 21
18998.10199793721
 31
0.0
  0
LINE
  5
28E
330
22
100
AcDbEntity
  8
_0-4_ハッチ
  6
Continuous
 62
     5
100
AcDbLine
 10
29845.59541562475
 20
19098.10232785697
 30
0.0
 11
29645.59475578522
 21
19098.10232785697
 31
0.0
  0
LINE
  5
28F
330
22
100
AcDbEntity
  8
_0-4_ハッチ
  6
Continuous
 62
     5
100
AcDbLine
 10
29845.59541562475
 20
19198.10265777674
 30
0.0
 11
29645.59475578522
 21
19198.10265777674
 31
0.0
  0
LINE
  5
290
330
22
100
AcDbEntity
  8
_0-4_ハッチ
  6
Continuous
 62
     5
100
AcDbLine
 10
29845.59541562475
 20
19298.1029876965
 30
0.0
 11
29645.59475578522
 21
19298.1029876965
 31
0.0
  0
LINE
  5
291
330
22
100
AcDbEntity
  8
_0-4_ハッチ
  6
Continuous
 62
     5
100
AcDbLine
 10
29845.59541562475
 20
19398.10331761626
 30
0.0
 11
29645.59475578522
 21
19398.10331761626
 31
0.0
  0
LINE
  5
292
330
22
100
AcDbEntity
  8
_0-4_ハッチ
  6
Continuous
 62
     5
100
AcDbLine
 10
29845.59541562475
 20
19498.10364753602
 30
0.0
 11
29645.59475578522
 21
19498.10364753602
 31
0.0
  0
LINE
  5
293
330
22
100
AcDbEntity
  8
_0-4_ハッチ
  6
Continuous
 62
     5
100
AcDbLine
 10
29845.59541562475
 20
19598.10397745579
 30
0.0
 11
29645.59475578522
 21
19598.10397745579
 31
0.0
  0
LINE
  5
294
330
22
100
AcDbEntity
  8
_0-4_ハッチ
  6
Continuous
 62
     5
100
AcDbLine
 10
29845.59541562475
 20
19698.10430737556
 30
0.0
 11
29645.59475578522
 21
19698.10430737556
 31
0.0
  0
LINE
  5
295
330
22
100
AcDbEntity
  8
_0-4_ハッチ
  6
Continuous
 62
     5
100
AcDbLine
 10
29845.59541562475
 20
19798.10463729532
 30
0.0
 11
29645.59475578522
 21
19798.10463729532
 31
0.0
  0
LINE
  5
296
330
22
100
AcDbEntity
  8
_0-4_ハッチ
  6
Continuous
 62
     5
100
AcDbLine
 10
29845.59541562475
 20
19898.10496721508
 30
0.0
 11
29645.59475578522
 21
19898.10496721508
 31
0.0
  0
LINE
  5
297
330
22
100
AcDbEntity
  8
_0-4_ハッチ
  6
Continuous
 62
     5
100
AcDbLine
 10
29845.59541562475
 20
19998.10529713484
 30
0.0
 11
29645.59475578522
 21
19998.10529713484
 31
0.0
  0
LINE
  5
298
330
22
100
AcDbEntity
  8
_0-4_ハッチ
  6
Continuous
 62
     5
100
AcDbLine
 10
29845.59541562475
 20
20098.10562705461
 30
0.0
 11
29645.59475578522
 21
20098.10562705461
 31
0.0
  0
LINE
  5
299
330
22
100
AcDbEntity
  8
_0-4_ハッチ
  6
Continuous
 62
     5
100
AcDbLine
 10
29845.59541562475
 20
20198.10595697437
 30
0.0
 11
29645.59475578522
 21
20198.10595697437
 31
0.0
  0
LINE
  5
29A
330
22
100
AcDbEntity
  8
_0-4_ハッチ
  6
Continuous
 62
     5
100
AcDbLine
 10
29845.59541562475
 20
20298.10628689414
 30
0.0
 11
29645.59475578522
 21
20298.10628689414
 31
0.0
  0
LINE
  5
29B
330
22
100
AcDbEntity
  8
_0-4_ハッチ
  6
Continuous
 62
     5
100
AcDbLine
 10
29845.59541562475
 20
20398.1066168139
 30
0.0
 11
29645.59475578522
 21
20398.1066168139
 31
0.0
  0
LINE
  5
29C
330
22
100
AcDbEntity
  8
_0-4_ハッチ
  6
Continuous
 62
     5
100
AcDbLine
 10
29845.59541562475
 20
20498.10694673366
 30
0.0
 11
29645.59475578522
 21
20498.10694673366
 31
0.0
  0
LINE
  5
29D
330
22
100
AcDbEntity
  8
_0-4_ハッチ
  6
Continuous
 62
     5
100
AcDbLine
 10
29845.59541562475
 20
20598.10727665343
 30
0.0
 11
29645.59475578522
 21
20598.10727665343
 31
0.0
  0
LINE
  5
29E
330
22
100
AcDbEntity
  8
_0-4_ハッチ
  6
Continuous
 62
     5
100
AcDbLine
 10
29845.59541562475
 20
20698.10760657319
 30
0.0
 11
29645.59475578522
 21
20698.10760657319
 31
0.0
  0
LINE
  5
29F
330
22
100
AcDbEntity
  8
_0-4_ハッチ
  6
Continuous
 62
     5
100
AcDbLine
 10
29845.59541562475
 20
20798.10793649296
 30
0.0
 11
29645.59475578522
 21
20798.10793649296
 31
0.0
  0
LINE
  5
2A0
330
22
100
AcDbEntity
  8
_0-4_ハッチ
  6
Continuous
 62
     5
100
AcDbLine
 10
29845.59541562475
 20
20898.10826641272
 30
0.0
 11
29645.59475578522
 21
20898.10826641272
 31
0.0
  0
LINE
  5
2A1
330
22
100
AcDbEntity
  8
_0-4_ハッチ
  6
Continuous
 62
     5
100
AcDbLine
 10
29845.59541562475
 20
20998.10859633248
 30
0.0
 11
29645.59475578522
 21
20998.10859633248
 31
0.0
  0
LINE
  5
2A2
330
22
100
AcDbEntity
  8
_0-4_ハッチ
  6
Continuous
 62
     5
100
AcDbLine
 10
29845.59541562475
 20
21098.10892625224
 30
0.0
 11
29645.59475578522
 21
21098.10892625224
 31
0.0
  0
LINE
  5
2A3
330
22
100
AcDbEntity
  8
_0-4_ハッチ
  6
Continuous
 62
     5
100
AcDbLine
 10
29845.59541562475
 20
21198.10925617201
 30
0.0
 11
29645.59475578522
 21
21198.10925617201
 31
0.0
  0
LINE
  5
2A4
330
22
100
AcDbEntity
  8
_0-4_ハッチ
  6
Continuous
 62
     5
100
AcDbLine
 10
29845.59541562475
 20
21298.10958609177
 30
0.0
 11
29645.59475578522
 21
21298.10958609177
 31
0.0
  0
LINE
  5
2A5
330
22
100
AcDbEntity
  8
_0-4_ハッチ
  6
Continuous
 62
     5
100
AcDbLine
 10
29845.59541562475
 20
21398.10991601153
 30
0.0
 11
29645.59475578522
 21
21398.10991601153
 31
0.0
  0
LINE
  5
2A6
330
22
100
AcDbEntity
  8
_0-4_ハッチ
  6
Continuous
 62
     5
100
AcDbLine
 10
29845.59541562475
 20
21498.1102459313
 30
0.0
 11
29645.59475578522
 21
21498.1102459313
 31
0.0
  0
LINE
  5
2A7
330
22
100
AcDbEntity
  8
_0-4_ハッチ
  6
Continuous
 62
     5
100
AcDbLine
 10
29845.59541562475
 20
21598.11057585106
 30
0.0
 11
29645.59475578522
 21
21598.11057585106
 31
0.0
  0
LINE
  5
2A8
330
22
100
AcDbEntity
  8
_0-4_ハッチ
  6
Continuous
 62
     5
100
AcDbLine
 10
29845.59541562475
 20
21698.11090577082
 30
0.0
 11
29645.59475578522
 21
21698.11090577082
 31
0.0
  0
LINE
  5
2A9
330
22
100
AcDbEntity
  8
_0-4_ハッチ
  6
Continuous
 62
     5
100
AcDbLine
 10
29845.59541562475
 20
21798.11123569059
 30
0.0
 11
29645.59475578522
 21
21798.11123569059
 31
0.0
  0
LINE
  5
2AA
330
22
100
AcDbEntity
  8
_0-4_ハッチ
  6
Continuous
 62
     5
100
AcDbLine
 10
29845.59541562475
 20
21898.11156561036
 30
0.0
 11
29645.59475578522
 21
21898.11156561036
 31
0.0
  0
LINE
  5
2AB
330
22
100
AcDbEntity
  8
_0-4_ハッチ
  6
Continuous
 62
     5
100
AcDbLine
 10
29845.59541562475
 20
21998.11189553012
 30
0.0
 11
29645.59475578522
 21
21998.11189553012
 31
0.0
  0
LINE
  5
2AC
330
22
100
AcDbEntity
  8
_0-4_ハッチ
  6
Continuous
 62
     5
100
AcDbLine
 10
29845.59541562475
 20
22098.11222544988
 30
0.0
 11
29645.59475578522
 21
22098.11222544988
 31
0.0
  0
LINE
  5
2AD
330
22
100
AcDbEntity
  8
_0-4_ハッチ
  6
Continuous
 62
     5
100
AcDbLine
 10
29695.5949207451
 20
16730.48057096825
 30
0.0
 11
29695.5949207451
 21
23514.04330851048
 31
0.0
  0
LINE
  5
2AE
330
22
100
AcDbEntity
  8
_0-4_ハッチ
  6
Continuous
 62
     5
100
AcDbLine
 10
29595.59459082534
 20
16903.68597241461
 30
0.0
 11
29595.59459082534
 21
23514.04330851048
 31
0.0
  0
LINE
  5
2AF
330
22
100
AcDbEntity
  8
_0-4_ハッチ
  6
Continuous
 62
     5
100
AcDbLine
 10
29645.59475578522
 20
17198.09482218235
 30
0.0
 11
29425.61827906436
 21
17198.09482218235
 31
0.0
  0
LINE
  5
2B0
330
22
100
AcDbEntity
  8
_0-4_ハッチ
  6
Continuous
 62
     5
100
AcDbLine
 10
29645.59475578522
 20
17298.09515210211
 30
0.0
 11
29367.88314524891
 21
17298.09515210211
 31
0.0
  0
LINE
  5
2B1
330
22
100
AcDbEntity
  8
_0-4_ハッチ
  6
Continuous
 62
     5
100
AcDbLine
 10
29645.59475578522
 20
17398.09548202188
 30
0.0
 11
29310.14801143345
 21
17398.09548202188
 31
0.0
  0
LINE
  5
2B2
330
22
100
AcDbEntity
  8
_0-4_ハッチ
  6
Continuous
 62
     5
100
AcDbLine
 10
29645.59475578522
 20
17498.09581194164
 30
0.0
 11
29345.59376602593
 21
17498.09581194164
 31
0.0
  0
LINE
  5
2B3
330
22
100
AcDbEntity
  8
_0-4_ハッチ
  6
Continuous
 62
     5
100
AcDbLine
 10
29645.59475578522
 20
17598.0961418614
 30
0.0
 11
29345.59376602593
 21
17598.0961418614
 31
0.0
  0
LINE
  5
2B4
330
22
100
AcDbEntity
  8
_0-4_ハッチ
  6
Continuous
 62
     5
100
AcDbLine
 10
29645.59475578522
 20
17698.09647178116
 30
0.0
 11
29345.59376602593
 21
17698.09647178116
 31
0.0
  0
LINE
  5
2B5
330
22
100
AcDbEntity
  8
_0-4_ハッチ
  6
Continuous
 62
     5
100
AcDbLine
 10
29645.59475578522
 20
17798.09680170093
 30
0.0
 11
29345.59376602593
 21
17798.09680170093
 31
0.0
  0
LINE
  5
2B6
330
22
100
AcDbEntity
  8
_0-4_ハッチ
  6
Continuous
 62
     5
100
AcDbLine
 10
29645.59475578522
 20
17898.0971316207
 30
0.0
 11
29345.59376602593
 21
17898.0971316207
 31
0.0
  0
LINE
  5
2B7
330
22
100
AcDbEntity
  8
_0-4_ハッチ
  6
Continuous
 62
     5
100
AcDbLine
 10
29645.59475578522
 20
17998.09746154046
 30
0.0
 11
29345.59376602593
 21
17998.09746154046
 31
0.0
  0
LINE
  5
2B8
330
22
100
AcDbEntity
  8
_0-4_ハッチ
  6
Continuous
 62
     5
100
AcDbLine
 10
29645.59475578522
 20
18098.09779146022
 30
0.0
 11
29345.59376602593
 21
18098.09779146022
 31
0.0
  0
LINE
  5
2B9
330
22
100
AcDbEntity
  8
_0-4_ハッチ
  6
Continuous
 62
     5
100
AcDbLine
 10
29645.59475578522
 20
18198.09812137999
 30
0.0
 11
29345.59376602593
 21
18198.09812137999
 31
0.0
  0
LINE
  5
2BA
330
22
100
AcDbEntity
  8
_0-4_ハッチ
  6
Continuous
 62
     5
100
AcDbLine
 10
29645.59475578522
 20
18298.09845129975
 30
0.0
 11
29345.59376602593
 21
18298.09845129975
 31
0.0
  0
LINE
  5
2BB
330
22
100
AcDbEntity
  8
_0-4_ハッチ
  6
Continuous
 62
     5
100
AcDbLine
 10
29645.59475578522
 20
18398.09878121952
 30
0.0
 11
29345.59376602593
 21
18398.09878121952
 31
0.0
  0
LINE
  5
2BC
330
22
100
AcDbEntity
  8
_0-4_ハッチ
  6
Continuous
 62
     5
100
AcDbLine
 10
29645.59475578522
 20
18498.09911113928
 30
0.0
 11
29345.59376602593
 21
18498.09911113928
 31
0.0
  0
LINE
  5
2BD
330
22
100
AcDbEntity
  8
_0-4_ハッチ
  6
Continuous
 62
     5
100
AcDbLine
 10
29645.59475578522
 20
18598.09944105904
 30
0.0
 11
29345.59376602593
 21
18598.09944105904
 31
0.0
  0
LINE
  5
2BE
330
22
100
AcDbEntity
  8
_0-4_ハッチ
  6
Continuous
 62
     5
100
AcDbLine
 10
29645.59475578522
 20
18698.09977097881
 30
0.0
 11
29345.59376602593
 21
18698.09977097881
 31
0.0
  0
LINE
  5
2BF
330
22
100
AcDbEntity
  8
_0-4_ハッチ
  6
Continuous
 62
     5
100
AcDbLine
 10
29645.59475578522
 20
18798.10010089857
 30
0.0
 11
29345.59376602593
 21
18798.10010089857
 31
0.0
  0
LINE
  5
2C0
330
22
100
AcDbEntity
  8
_0-4_ハッチ
  6
Continuous
 62
     5
100
AcDbLine
 10
29645.59475578522
 20
18898.10043081833
 30
0.0
 11
29345.59376602593
 21
18898.10043081833
 31
0.0
  0
LINE
  5
2C1
330
22
100
AcDbEntity
  8
_0-4_ハッチ
  6
Continuous
 62
     5
100
AcDbLine
 10
29645.59475578522
 20
18998.10076073809
 30
0.0
 11
29345.59376602593
 21
18998.10076073809
 31
0.0
  0
LINE
  5
2C2
330
22
100
AcDbEntity
  8
_0-4_ハッチ
  6
Continuous
 62
     5
100
AcDbLine
 10
29645.59475578522
 20
19098.10109065785
 30
0.0
 11
29345.59376602593
 21
19098.10109065785
 31
0.0
  0
LINE
  5
2C3
330
22
100
AcDbEntity
  8
_0-4_ハッチ
  6
Continuous
 62
     5
100
AcDbLine
 10
29645.59475578522
 20
19198.10142057762
 30
0.0
 11
29345.59376602593
 21
19198.10142057762
 31
0.0
  0
LINE
  5
2C4
330
22
100
AcDbEntity
  8
_0-4_ハッチ
  6
Continuous
 62
     5
100
AcDbLine
 10
29645.59475578522
 20
19298.10175049738
 30
0.0
 11
29345.59376602593
 21
19298.10175049738
 31
0.0
  0
LINE
  5
2C5
330
22
100
AcDbEntity
  8
_0-4_ハッチ
  6
Continuous
 62
     5
100
AcDbLine
 10
29645.59475578522
 20
19398.10208041715
 30
0.0
 11
29345.59376602593
 21
19398.10208041715
 31
0.0
  0
LINE
  5
2C6
330
22
100
AcDbEntity
  8
_0-4_ハッチ
  6
Continuous
 62
     5
100
AcDbLine
 10
29645.59475578522
 20
19498.10241033692
 30
0.0
 11
29345.59376602593
 21
19498.10241033692
 31
0.0
  0
LINE
  5
2C7
330
22
100
AcDbEntity
  8
_0-4_ハッチ
  6
Continuous
 62
     5
100
AcDbLine
 10
29645.59475578522
 20
19598.10274025668
 30
0.0
 11
29345.59376602593
 21
19598.10274025668
 31
0.0
  0
LINE
  5
2C8
330
22
100
AcDbEntity
  8
_0-4_ハッチ
  6
Continuous
 62
     5
100
AcDbLine
 10
29645.59475578522
 20
19698.10307017644
 30
0.0
 11
29345.59376602593
 21
19698.10307017644
 31
0.0
  0
LINE
  5
2C9
330
22
100
AcDbEntity
  8
_0-4_ハッチ
  6
Continuous
 62
     5
100
AcDbLine
 10
29645.59475578522
 20
19798.1034000962
 30
0.0
 11
29345.59376602593
 21
19798.1034000962
 31
0.0
  0
LINE
  5
2CA
330
22
100
AcDbEntity
  8
_0-4_ハッチ
  6
Continuous
 62
     5
100
AcDbLine
 10
29645.59475578522
 20
19898.10373001597
 30
0.0
 11
29345.59376602593
 21
19898.10373001597
 31
0.0
  0
LINE
  5
2CB
330
22
100
AcDbEntity
  8
_0-4_ハッチ
  6
Continuous
 62
     5
100
AcDbLine
 10
29645.59475578522
 20
19998.10405993573
 30
0.0
 11
29345.59376602593
 21
19998.10405993573
 31
0.0
  0
LINE
  5
2CC
330
22
100
AcDbEntity
  8
_0-4_ハッチ
  6
Continuous
 62
     5
100
AcDbLine
 10
29645.59475578522
 20
20098.1043898555
 30
0.0
 11
29345.59376602593
 21
20098.1043898555
 31
0.0
  0
LINE
  5
2CD
330
22
100
AcDbEntity
  8
_0-4_ハッチ
  6
Continuous
 62
     5
100
AcDbLine
 10
29645.59475578522
 20
20198.10471977526
 30
0.0
 11
29345.59376602593
 21
20198.10471977526
 31
0.0
  0
LINE
  5
2CE
330
22
100
AcDbEntity
  8
_0-4_ハッチ
  6
Continuous
 62
     5
100
AcDbLine
 10
29645.59475578522
 20
20298.10504969502
 30
0.0
 11
29345.59376602593
 21
20298.10504969502
 31
0.0
  0
LINE
  5
2CF
330
22
100
AcDbEntity
  8
_0-4_ハッチ
  6
Continuous
 62
     5
100
AcDbLine
 10
29645.59475578522
 20
20398.10537961479
 30
0.0
 11
29345.59376602593
 21
20398.10537961479
 31
0.0
  0
LINE
  5
2D0
330
22
100
AcDbEntity
  8
_0-4_ハッチ
  6
Continuous
 62
     5
100
AcDbLine
 10
29645.59475578522
 20
20498.10570953455
 30
0.0
 11
29345.59376602593
 21
20498.10570953455
 31
0.0
  0
LINE
  5
2D1
330
22
100
AcDbEntity
  8
_0-4_ハッチ
  6
Continuous
 62
     5
100
AcDbLine
 10
29645.59475578522
 20
20598.10603945432
 30
0.0
 11
29345.59376602593
 21
20598.10603945432
 31
0.0
  0
LINE
  5
2D2
330
22
100
AcDbEntity
  8
_0-4_ハッチ
  6
Continuous
 62
     5
100
AcDbLine
 10
29645.59475578522
 20
20698.10636937408
 30
0.0
 11
29345.59376602593
 21
20698.10636937408
 31
0.0
  0
LINE
  5
2D3
330
22
100
AcDbEntity
  8
_0-4_ハッチ
  6
Continuous
 62
     5
100
AcDbLine
 10
29645.59475578522
 20
20798.10669929384
 30
0.0
 11
29345.59376602593
 21
20798.10669929384
 31
0.0
  0
LINE
  5
2D4
330
22
100
AcDbEntity
  8
_0-4_ハッチ
  6
Continuous
 62
     5
100
AcDbLine
 10
29645.59475578522
 20
20898.1070292136
 30
0.0
 11
29345.59376602593
 21
20898.1070292136
 31
0.0
  0
LINE
  5
2D5
330
22
100
AcDbEntity
  8
_0-4_ハッチ
  6
Continuous
 62
     5
100
AcDbLine
 10
29645.59475578522
 20
20998.10735913337
 30
0.0
 11
29345.59376602593
 21
20998.10735913337
 31
0.0
  0
LINE
  5
2D6
330
22
100
AcDbEntity
  8
_0-4_ハッチ
  6
Continuous
 62
     5
100
AcDbLine
 10
29645.59475578522
 20
21098.10768905314
 30
0.0
 11
29345.59376602593
 21
21098.10768905314
 31
0.0
  0
LINE
  5
2D7
330
22
100
AcDbEntity
  8
_0-4_ハッチ
  6
Continuous
 62
     5
100
AcDbLine
 10
29645.59475578522
 20
21198.10801897289
 30
0.0
 11
29345.59376602593
 21
21198.10801897289
 31
0.0
  0
LINE
  5
2D8
330
22
100
AcDbEntity
  8
_0-4_ハッチ
  6
Continuous
 62
     5
100
AcDbLine
 10
29645.59475578522
 20
21298.10834889266
 30
0.0
 11
29345.59376602593
 21
21298.10834889266
 31
0.0
  0
LINE
  5
2D9
330
22
100
AcDbEntity
  8
_0-4_ハッチ
  6
Continuous
 62
     5
100
AcDbLine
 10
29645.59475578522
 20
21398.10867881242
 30
0.0
 11
29345.59376602593
 21
21398.10867881242
 31
0.0
  0
LINE
  5
2DA
330
22
100
AcDbEntity
  8
_0-4_ハッチ
  6
Continuous
 62
     5
100
AcDbLine
 10
29645.59475578522
 20
21498.10900873219
 30
0.0
 11
29345.59376602593
 21
21498.10900873219
 31
0.0
  0
LINE
  5
2DB
330
22
100
AcDbEntity
  8
_0-4_ハッチ
  6
Continuous
 62
     5
100
AcDbLine
 10
29645.59475578522
 20
21598.10933865195
 30
0.0
 11
29345.59376602593
 21
21598.10933865195
 31
0.0
  0
LINE
  5
2DC
330
22
100
AcDbEntity
  8
_0-4_ハッチ
  6
Continuous
 62
     5
100
AcDbLine
 10
29645.59475578522
 20
21698.10966857172
 30
0.0
 11
29345.59376602593
 21
21698.10966857172
 31
0.0
  0
LINE
  5
2DD
330
22
100
AcDbEntity
  8
_0-4_ハッチ
  6
Continuous
 62
     5
100
AcDbLine
 10
29645.59475578522
 20
21798.10999849148
 30
0.0
 11
29345.59376602593
 21
21798.10999849148
 31
0.0
  0
LINE
  5
2DE
330
22
100
AcDbEntity
  8
_0-4_ハッチ
  6
Continuous
 62
     5
100
AcDbLine
 10
29645.59475578522
 20
21898.11032841124
 30
0.0
 11
29345.59376602593
 21
21898.11032841124
 31
0.0
  0
LINE
  5
2DF
330
22
100
AcDbEntity
  8
_0-4_ハッチ
  6
Continuous
 62
     5
100
AcDbLine
 10
29645.59475578522
 20
21998.110658331
 30
0.0
 11
29345.59376602593
 21
21998.110658331
 31
0.0
  0
LINE
  5
2E0
330
22
100
AcDbEntity
  8
_0-4_ハッチ
  6
Continuous
 62
     5
100
AcDbLine
 10
29645.59475578522
 20
22098.11098825077
 30
0.0
 11
29345.59376602593
 21
22098.11098825077
 31
0.0
  0
LINE
  5
2E1
330
22
100
AcDbEntity
  8
_0-4_ハッチ
  6
Continuous
 62
     5
100
AcDbLine
 10
29645.59475578522
 20
22198.11008097141
 30
0.0
 11
29145.59310618641
 21
22198.11008097141
 31
0.0
  0
LINE
  5
2E2
330
22
100
AcDbEntity
  8
_0-4_ハッチ
  6
Continuous
 62
     5
100
AcDbLine
 10
29645.59475578522
 20
22298.11041089118
 30
0.0
 11
29145.59310618641
 21
22298.11041089118
 31
0.0
  0
LINE
  5
2E3
330
22
100
AcDbEntity
  8
_0-4_ハッチ
  6
Continuous
 62
     5
100
AcDbLine
 10
29645.59475578522
 20
22398.11074081094
 30
0.0
 11
29145.59310618641
 21
22398.11074081094
 31
0.0
  0
LINE
  5
2E4
330
22
100
AcDbEntity
  8
_0-4_ハッチ
  6
Continuous
 62
     5
100
AcDbLine
 10
29645.59475578522
 20
22498.1110707307
 30
0.0
 11
29145.59310618641
 21
22498.1110707307
 31
0.0
  0
LINE
  5
2E5
330
22
100
AcDbEntity
  8
_0-4_ハッチ
  6
Continuous
 62
     5
100
AcDbLine
 10
29645.59475578522
 20
22598.11140065047
 30
0.0
 11
29145.59310618641
 21
22598.11140065047
 31
0.0
  0
LINE
  5
2E6
330
22
100
AcDbEntity
  8
_0-4_ハッチ
  6
Continuous
 62
     5
100
AcDbLine
 10
29645.59475578522
 20
22698.11173057024
 30
0.0
 11
29145.59310618641
 21
22698.11173057024
 31
0.0
  0
LINE
  5
2E7
330
22
100
AcDbEntity
  8
_0-4_ハッチ
  6
Continuous
 62
     5
100
AcDbLine
 10
29645.59475578522
 20
22798.11206049
 30
0.0
 11
29145.59310618641
 21
22798.11206049
 31
0.0
  0
LINE
  5
2E8
330
22
100
AcDbEntity
  8
_0-4_ハッチ
  6
Continuous
 62
     5
100
AcDbLine
 10
29645.59475578522
 20
22898.11115321065
 30
0.0
 11
28745.59178650735
 21
22898.11115321065
 31
0.0
  0
LINE
  5
2E9
330
22
100
AcDbEntity
  8
_0-4_ハッチ
  6
Continuous
 62
     5
100
AcDbLine
 10
29645.59475578522
 20
22998.11148313041
 30
0.0
 11
28745.59178650735
 21
22998.11148313041
 31
0.0
  0
LINE
  5
2EA
330
22
100
AcDbEntity
  8
_0-4_ハッチ
  6
Continuous
 62
     5
100
AcDbLine
 10
29645.59475578522
 20
23098.11181305017
 30
0.0
 11
28745.59178650735
 21
23098.11181305017
 31
0.0
  0
LINE
  5
2EB
330
22
100
AcDbEntity
  8
_0-4_ハッチ
  6
Continuous
 62
     5
100
AcDbLine
 10
29645.59475578522
 20
23198.11214296994
 30
0.0
 11
28745.59178650735
 21
23198.11214296994
 31
0.0
  0
LINE
  5
2EC
330
22
100
AcDbEntity
  8
_0-4_ハッチ
  6
Continuous
 62
     5
100
AcDbLine
 10
29645.59475578522
 20
23298.1124728897
 30
0.0
 11
28745.59178650735
 21
23298.1124728897
 31
0.0
  0
LINE
  5
2ED
330
22
100
AcDbEntity
  8
_0-4_ハッチ
  6
Continuous
 62
     5
100
AcDbLine
 10
29495.59426090557
 20
17076.89137386098
 30
0.0
 11
29495.59426090557
 21
23514.04330851048
 31
0.0
  0
LINE
  5
2EE
330
22
100
AcDbEntity
  8
_0-4_ハッチ
  6
Continuous
 62
     5
100
AcDbLine
 10
29395.59393098581
 20
17250.09801250647
 30
0.0
 11
29395.59393098581
 21
23514.04330851048
 31
0.0
  0
LINE
  5
2EF
330
22
100
AcDbEntity
  8
_0-4_ハッチ
  6
Continuous
 62
     5
100
AcDbLine
 10
29295.59360106605
 20
17423.30341395283
 30
0.0
 11
29295.59360106605
 21
23514.04330851048
 31
0.0
  0
LINE
  5
2F0
330
22
100
AcDbEntity
  8
_0-4_ハッチ
  6
Continuous
 62
     5
100
AcDbLine
 10
29345.59376602593
 20
17698.09523458206
 30
0.0
 11
29136.94260998708
 21
17698.09523458206
 31
0.0
  0
LINE
  5
2F1
330
22
100
AcDbEntity
  8
_0-4_ハッチ
  6
Continuous
 62
     5
100
AcDbLine
 10
29345.59376602593
 20
17898.09589442158
 30
0.0
 11
29145.59310618641
 21
17898.09589442158
 31
0.0
  0
LINE
  5
2F2
330
22
100
AcDbEntity
  8
_0-4_ハッチ
  6
Continuous
 62
     5
100
AcDbLine
 10
29345.59376602593
 20
17998.09622434135
 30
0.0
 11
29145.59310618641
 21
17998.09622434135
 31
0.0
  0
LINE
  5
2F3
330
22
100
AcDbEntity
  8
_0-4_ハッチ
  6
Continuous
 62
     5
100
AcDbLine
 10
29345.59376602593
 20
18098.09655426111
 30
0.0
 11
29145.59310618641
 21
18098.09655426111
 31
0.0
  0
LINE
  5
2F4
330
22
100
AcDbEntity
  8
_0-4_ハッチ
  6
Continuous
 62
     5
100
AcDbLine
 10
29345.59376602593
 20
18198.09688418087
 30
0.0
 11
29145.59310618641
 21
18198.09688418087
 31
0.0
  0
LINE
  5
2F5
330
22
100
AcDbEntity
  8
_0-4_ハッチ
  6
Continuous
 62
     5
100
AcDbLine
 10
29345.59376602593
 20
18298.09721410064
 30
0.0
 11
29145.59310618641
 21
18298.09721410064
 31
0.0
  0
LINE
  5
2F6
330
22
100
AcDbEntity
  8
_0-4_ハッチ
  6
Continuous
 62
     5
100
AcDbLine
 10
29345.59376602593
 20
18398.0975440204
 30
0.0
 11
29145.59310618641
 21
18398.0975440204
 31
0.0
  0
LINE
  5
2F7
330
22
100
AcDbEntity
  8
_0-4_ハッチ
  6
Continuous
 62
     5
100
AcDbLine
 10
29345.59376602593
 20
18498.09787394016
 30
0.0
 11
29145.59310618641
 21
18498.09787394016
 31
0.0
  0
LINE
  5
2F8
330
22
100
AcDbEntity
  8
_0-4_ハッチ
  6
Continuous
 62
     5
100
AcDbLine
 10
29345.59376602593
 20
18598.09820385993
 30
0.0
 11
29145.59310618641
 21
18598.09820385993
 31
0.0
  0
LINE
  5
2F9
330
22
100
AcDbEntity
  8
_0-4_ハッチ
  6
Continuous
 62
     5
100
AcDbLine
 10
29345.59376602593
 20
18698.09853377969
 30
0.0
 11
29145.59310618641
 21
18698.09853377969
 31
0.0
  0
LINE
  5
2FA
330
22
100
AcDbEntity
  8
_0-4_ハッチ
  6
Continuous
 62
     5
100
AcDbLine
 10
29345.59376602593
 20
18798.09886369945
 30
0.0
 11
29145.59310618641
 21
18798.09886369945
 31
0.0
  0
LINE
  5
2FB
330
22
100
AcDbEntity
  8
_0-4_ハッチ
  6
Continuous
 62
     5
100
AcDbLine
 10
29345.59376602593
 20
18898.09919361921
 30
0.0
 11
29145.59310618641
 21
18898.09919361921
 31
0.0
  0
LINE
  5
2FC
330
22
100
AcDbEntity
  8
_0-4_ハッチ
  6
Continuous
 62
     5
100
AcDbLine
 10
29345.59376602593
 20
18998.09952353898
 30
0.0
 11
29145.59310618641
 21
18998.09952353898
 31
0.0
  0
LINE
  5
2FD
330
22
100
AcDbEntity
  8
_0-4_ハッチ
  6
Continuous
 62
     5
100
AcDbLine
 10
29345.59376602593
 20
19098.09985345874
 30
0.0
 11
29145.59310618641
 21
19098.09985345874
 31
0.0
  0
LINE
  5
2FE
330
22
100
AcDbEntity
  8
_0-4_ハッチ
  6
Continuous
 62
     5
100
AcDbLine
 10
29345.59376602593
 20
19198.10018337851
 30
0.0
 11
29145.59310618641
 21
19198.10018337851
 31
0.0
  0
LINE
  5
2FF
330
22
100
AcDbEntity
  8
_0-4_ハッチ
  6
Continuous
 62
     5
100
AcDbLine
 10
29345.59376602593
 20
19298.10051329828
 30
0.0
 11
29145.59310618641
 21
19298.10051329828
 31
0.0
  0
LINE
  5
300
330
22
100
AcDbEntity
  8
_0-4_ハッチ
  6
Continuous
 62
     5
100
AcDbLine
 10
29345.59376602593
 20
19398.10084321804
 30
0.0
 11
29145.59310618641
 21
19398.10084321804
 31
0.0
  0
LINE
  5
301
330
22
100
AcDbEntity
  8
_0-4_ハッチ
  6
Continuous
 62
     5
100
AcDbLine
 10
29345.59376602593
 20
19498.1011731378
 30
0.0
 11
29145.59310618641
 21
19498.1011731378
 31
0.0
  0
LINE
  5
302
330
22
100
AcDbEntity
  8
_0-4_ハッチ
  6
Continuous
 62
     5
100
AcDbLine
 10
29345.59376602593
 20
19598.10150305756
 30
0.0
 11
29145.59310618641
 21
19598.10150305756
 31
0.0
  0
LINE
  5
303
330
22
100
AcDbEntity
  8
_0-4_ハッチ
  6
Continuous
 62
     5
100
AcDbLine
 10
29345.59376602593
 20
19698.10183297733
 30
0.0
 11
29145.59310618641
 21
19698.10183297733
 31
0.0
  0
LINE
  5
304
330
22
100
AcDbEntity
  8
_0-4_ハッチ
  6
Continuous
 62
     5
100
AcDbLine
 10
29345.59376602593
 20
19798.10216289709
 30
0.0
 11
29145.59310618641
 21
19798.10216289709
 31
0.0
  0
LINE
  5
305
330
22
100
AcDbEntity
  8
_0-4_ハッチ
  6
Continuous
 62
     5
100
AcDbLine
 10
29345.59376602593
 20
19898.10249281685
 30
0.0
 11
29145.59310618641
 21
19898.10249281685
 31
0.0
  0
LINE
  5
306
330
22
100
AcDbEntity
  8
_0-4_ハッチ
  6
Continuous
 62
     5
100
AcDbLine
 10
29345.59376602593
 20
19998.10282273661
 30
0.0
 11
29145.59310618641
 21
19998.10282273661
 31
0.0
  0
LINE
  5
307
330
22
100
AcDbEntity
  8
_0-4_ハッチ
  6
Continuous
 62
     5
100
AcDbLine
 10
29345.59376602593
 20
20098.10315265639
 30
0.0
 11
29145.59310618641
 21
20098.10315265639
 31
0.0
  0
LINE
  5
308
330
22
100
AcDbEntity
  8
_0-4_ハッチ
  6
Continuous
 62
     5
100
AcDbLine
 10
29345.59376602593
 20
20198.10348257614
 30
0.0
 11
29145.59310618641
 21
20198.10348257614
 31
0.0
  0
LINE
  5
309
330
22
100
AcDbEntity
  8
_0-4_ハッチ
  6
Continuous
 62
     5
100
AcDbLine
 10
29345.59376602593
 20
20298.10381249591
 30
0.0
 11
29145.59310618641
 21
20298.10381249591
 31
0.0
  0
LINE
  5
30A
330
22
100
AcDbEntity
  8
_0-4_ハッチ
  6
Continuous
 62
     5
100
AcDbLine
 10
29345.59376602593
 20
20398.10414241567
 30
0.0
 11
29145.59310618641
 21
20398.10414241567
 31
0.0
  0
LINE
  5
30B
330
22
100
AcDbEntity
  8
_0-4_ハッチ
  6
Continuous
 62
     5
100
AcDbLine
 10
29345.59376602593
 20
20498.10447233543
 30
0.0
 11
29145.59310618641
 21
20498.10447233543
 31
0.0
  0
LINE
  5
30C
330
22
100
AcDbEntity
  8
_0-4_ハッチ
  6
Continuous
 62
     5
100
AcDbLine
 10
29345.59376602593
 20
20598.1048022552
 30
0.0
 11
29145.59310618641
 21
20598.1048022552
 31
0.0
  0
LINE
  5
30D
330
22
100
AcDbEntity
  8
_0-4_ハッチ
  6
Continuous
 62
     5
100
AcDbLine
 10
29345.59376602593
 20
20698.10513217496
 30
0.0
 11
29145.59310618641
 21
20698.10513217496
 31
0.0
  0
LINE
  5
30E
330
22
100
AcDbEntity
  8
_0-4_ハッチ
  6
Continuous
 62
     5
100
AcDbLine
 10
29345.59376602593
 20
20798.10546209473
 30
0.0
 11
29145.59310618641
 21
20798.10546209473
 31
0.0
  0
LINE
  5
30F
330
22
100
AcDbEntity
  8
_0-4_ハッチ
  6
Continuous
 62
     5
100
AcDbLine
 10
29345.59376602593
 20
20898.10579201449
 30
0.0
 11
29145.59310618641
 21
20898.10579201449
 31
0.0
  0
LINE
  5
310
330
22
100
AcDbEntity
  8
_0-4_ハッチ
  6
Continuous
 62
     5
100
AcDbLine
 10
29345.59376602593
 20
20998.10612193425
 30
0.0
 11
29145.59310618641
 21
20998.10612193425
 31
0.0
  0
LINE
  5
311
330
22
100
AcDbEntity
  8
_0-4_ハッチ
  6
Continuous
 62
     5
100
AcDbLine
 10
29345.59376602593
 20
21098.10645185401
 30
0.0
 11
29145.59310618641
 21
21098.10645185401
 31
0.0
  0
LINE
  5
312
330
22
100
AcDbEntity
  8
_0-4_ハッチ
  6
Continuous
 62
     5
100
AcDbLine
 10
29345.59376602593
 20
21198.10678177378
 30
0.0
 11
29145.59310618641
 21
21198.10678177378
 31
0.0
  0
LINE
  5
313
330
22
100
AcDbEntity
  8
_0-4_ハッチ
  6
Continuous
 62
     5
100
AcDbLine
 10
29345.59376602593
 20
21298.10711169354
 30
0.0
 11
29145.59310618641
 21
21298.10711169354
 31
0.0
  0
LINE
  5
314
330
22
100
AcDbEntity
  8
_0-4_ハッチ
  6
Continuous
 62
     5
100
AcDbLine
 10
29345.59376602593
 20
21398.10744161331
 30
0.0
 11
29145.59310618641
 21
21398.10744161331
 31
0.0
  0
LINE
  5
315
330
22
100
AcDbEntity
  8
_0-4_ハッチ
  6
Continuous
 62
     5
100
AcDbLine
 10
29345.59376602593
 20
21498.10777153307
 30
0.0
 11
29145.59310618641
 21
21498.10777153307
 31
0.0
  0
LINE
  5
316
330
22
100
AcDbEntity
  8
_0-4_ハッチ
  6
Continuous
 62
     5
100
AcDbLine
 10
29345.59376602593
 20
21598.10810145283
 30
0.0
 11
29145.59310618641
 21
21598.10810145283
 31
0.0
  0
LINE
  5
317
330
22
100
AcDbEntity
  8
_0-4_ハッチ
  6
Continuous
 62
     5
100
AcDbLine
 10
29345.59376602593
 20
21698.1084313726
 30
0.0
 11
29145.59310618641
 21
21698.1084313726
 31
0.0
  0
LINE
  5
318
330
22
100
AcDbEntity
  8
_0-4_ハッチ
  6
Continuous
 62
     5
100
AcDbLine
 10
29345.59376602593
 20
21798.10876129236
 30
0.0
 11
29145.59310618641
 21
21798.10876129236
 31
0.0
  0
LINE
  5
319
330
22
100
AcDbEntity
  8
_0-4_ハッチ
  6
Continuous
 62
     5
100
AcDbLine
 10
29345.59376602593
 20
21898.10909121213
 30
0.0
 11
29145.59310618641
 21
21898.10909121213
 31
0.0
  0
LINE
  5
31A
330
22
100
AcDbEntity
  8
_0-4_ハッチ
  6
Continuous
 62
     5
100
AcDbLine
 10
29345.59376602593
 20
21998.10942113189
 30
0.0
 11
29145.59310618641
 21
21998.10942113189
 31
0.0
  0
LINE
  5
31B
330
22
100
AcDbEntity
  8
_0-4_ハッチ
  6
Continuous
 62
     5
100
AcDbLine
 10
29345.59376602593
 20
22098.10975105165
 30
0.0
 11
29145.59310618641
 21
22098.10975105165
 31
0.0
  0
LINE
  5
31C
330
22
100
AcDbEntity
  8
_0-4_ハッチ
  6
Continuous
 62
     5
100
AcDbLine
 10
29195.59327114629
 20
17596.5088153992
 30
0.0
 11
29195.59327114629
 21
23514.04330851048
 31
0.0
  0
LINE
  5
31D
330
22
100
AcDbEntity
  8
_0-4_ハッチ
  6
Continuous
 62
     5
100
AcDbLine
 10
29345.59376602593
 20
17798.09556450182
 30
0.0
 11
29079.20747617162
 21
17798.09556450182
 31
0.0
  0
LINE
  5
31E
330
22
100
AcDbEntity
  8
_0-4_ハッチ
  6
Continuous
 62
     5
100
AcDbLine
 10
29095.59294122652
 20
17769.71421684557
 30
0.0
 11
29095.59294122652
 21
23514.04330851048
 31
0.0
  0
LINE
  5
31F
330
22
100
AcDbEntity
  8
_0-4_ハッチ
  6
Continuous
 62
     5
100
AcDbLine
 10
29145.59310618641
 20
17998.09498714223
 30
0.0
 11
28963.73720854071
 21
17998.09498714223
 31
0.0
  0
LINE
  5
320
330
22
100
AcDbEntity
  8
_0-4_ハッチ
  6
Continuous
 62
     5
100
AcDbLine
 10
29145.59310618641
 20
18098.095317062
 30
0.0
 11
28906.00207472525
 21
18098.095317062
 31
0.0
  0
LINE
  5
321
330
22
100
AcDbEntity
  8
_0-4_ハッチ
  6
Continuous
 62
     5
100
AcDbLine
 10
29145.59310618641
 20
18198.09564698176
 30
0.0
 11
28945.59244634688
 21
18198.09564698176
 31
0.0
  0
LINE
  5
322
330
22
100
AcDbEntity
  8
_0-4_ハッチ
  6
Continuous
 62
     5
100
AcDbLine
 10
29145.59310618641
 20
18298.09597690152
 30
0.0
 11
28945.59244634688
 21
18298.09597690152
 31
0.0
  0
LINE
  5
323
330
22
100
AcDbEntity
  8
_0-4_ハッチ
  6
Continuous
 62
     5
100
AcDbLine
 10
29145.59310618641
 20
18398.09630682129
 30
0.0
 11
28945.59244634688
 21
18398.09630682129
 31
0.0
  0
LINE
  5
324
330
22
100
AcDbEntity
  8
_0-4_ハッチ
  6
Continuous
 62
     5
100
AcDbLine
 10
29145.59310618641
 20
18498.09663674105
 30
0.0
 11
28945.59244634688
 21
18498.09663674105
 31
0.0
  0
LINE
  5
325
330
22
100
AcDbEntity
  8
_0-4_ハッチ
  6
Continuous
 62
     5
100
AcDbLine
 10
29145.59310618641
 20
18598.09696666081
 30
0.0
 11
28945.59244634688
 21
18598.09696666081
 31
0.0
  0
LINE
  5
326
330
22
100
AcDbEntity
  8
_0-4_ハッチ
  6
Continuous
 62
     5
100
AcDbLine
 10
29145.59310618641
 20
18698.09729658058
 30
0.0
 11
28945.59244634688
 21
18698.09729658058
 31
0.0
  0
LINE
  5
327
330
22
100
AcDbEntity
  8
_0-4_ハッチ
  6
Continuous
 62
     5
100
AcDbLine
 10
29145.59310618641
 20
18798.09762650034
 30
0.0
 11
28945.59244634688
 21
18798.09762650034
 31
0.0
  0
LINE
  5
328
330
22
100
AcDbEntity
  8
_0-4_ハッチ
  6
Continuous
 62
     5
100
AcDbLine
 10
29145.59310618641
 20
18898.0979564201
 30
0.0
 11
28945.59244634688
 21
18898.0979564201
 31
0.0
  0
LINE
  5
329
330
22
100
AcDbEntity
  8
_0-4_ハッチ
  6
Continuous
 62
     5
100
AcDbLine
 10
29145.59310618641
 20
18998.09828633987
 30
0.0
 11
28945.59244634688
 21
18998.09828633987
 31
0.0
  0
LINE
  5
32A
330
22
100
AcDbEntity
  8
_0-4_ハッチ
  6
Continuous
 62
     5
100
AcDbLine
 10
29145.59310618641
 20
19098.09861625963
 30
0.0
 11
28945.59244634688
 21
19098.09861625963
 31
0.0
  0
LINE
  5
32B
330
22
100
AcDbEntity
  8
_0-4_ハッチ
  6
Continuous
 62
     5
100
AcDbLine
 10
29145.59310618641
 20
19198.09894617939
 30
0.0
 11
28945.59244634688
 21
19198.09894617939
 31
0.0
  0
LINE
  5
32C
330
22
100
AcDbEntity
  8
_0-4_ハッチ
  6
Continuous
 62
     5
100
AcDbLine
 10
29145.59310618641
 20
19298.09927609916
 30
0.0
 11
28945.59244634688
 21
19298.09927609916
 31
0.0
  0
LINE
  5
32D
330
22
100
AcDbEntity
  8
_0-4_ハッチ
  6
Continuous
 62
     5
100
AcDbLine
 10
29145.59310618641
 20
19398.09960601892
 30
0.0
 11
28945.59244634688
 21
19398.09960601892
 31
0.0
  0
LINE
  5
32E
330
22
100
AcDbEntity
  8
_0-4_ハッチ
  6
Continuous
 62
     5
100
AcDbLine
 10
29145.59310618641
 20
19498.09993593868
 30
0.0
 11
28945.59244634688
 21
19498.09993593868
 31
0.0
  0
LINE
  5
32F
330
22
100
AcDbEntity
  8
_0-4_ハッチ
  6
Continuous
 62
     5
100
AcDbLine
 10
29145.59310618641
 20
19598.10026585845
 30
0.0
 11
28945.59244634688
 21
19598.10026585845
 31
0.0
  0
LINE
  5
330
330
22
100
AcDbEntity
  8
_0-4_ハッチ
  6
Continuous
 62
     5
100
AcDbLine
 10
29145.59310618641
 20
19698.10059577821
 30
0.0
 11
28945.59244634688
 21
19698.10059577821
 31
0.0
  0
LINE
  5
331
330
22
100
AcDbEntity
  8
_0-4_ハッチ
  6
Continuous
 62
     5
100
AcDbLine
 10
29145.59310618641
 20
19798.10092569798
 30
0.0
 11
28945.59244634688
 21
19798.10092569798
 31
0.0
  0
LINE
  5
332
330
22
100
AcDbEntity
  8
_0-4_ハッチ
  6
Continuous
 62
     5
100
AcDbLine
 10
29145.59310618641
 20
19898.10125561774
 30
0.0
 11
28945.59244634688
 21
19898.10125561774
 31
0.0
  0
LINE
  5
333
330
22
100
AcDbEntity
  8
_0-4_ハッチ
  6
Continuous
 62
     5
100
AcDbLine
 10
29145.59310618641
 20
19998.10158553751
 30
0.0
 11
28945.59244634688
 21
19998.10158553751
 31
0.0
  0
LINE
  5
334
330
22
100
AcDbEntity
  8
_0-4_ハッチ
  6
Continuous
 62
     5
100
AcDbLine
 10
29145.59310618641
 20
20098.10191545727
 30
0.0
 11
28945.59244634688
 21
20098.10191545727
 31
0.0
  0
LINE
  5
335
330
22
100
AcDbEntity
  8
_0-4_ハッチ
  6
Continuous
 62
     5
100
AcDbLine
 10
29145.59310618641
 20
20198.10224537703
 30
0.0
 11
28945.59244634688
 21
20198.10224537703
 31
0.0
  0
LINE
  5
336
330
22
100
AcDbEntity
  8
_0-4_ハッチ
  6
Continuous
 62
     5
100
AcDbLine
 10
29145.59310618641
 20
20298.1025752968
 30
0.0
 11
28945.59244634688
 21
20298.1025752968
 31
0.0
  0
LINE
  5
337
330
22
100
AcDbEntity
  8
_0-4_ハッチ
  6
Continuous
 62
     5
100
AcDbLine
 10
29145.59310618641
 20
20398.10290521656
 30
0.0
 11
28945.59244634688
 21
20398.10290521656
 31
0.0
  0
LINE
  5
338
330
22
100
AcDbEntity
  8
_0-4_ハッチ
  6
Continuous
 62
     5
100
AcDbLine
 10
29145.59310618641
 20
20498.10323513633
 30
0.0
 11
28945.59244634688
 21
20498.10323513633
 31
0.0
  0
LINE
  5
339
330
22
100
AcDbEntity
  8
_0-4_ハッチ
  6
Continuous
 62
     5
100
AcDbLine
 10
29145.59310618641
 20
20598.10356505609
 30
0.0
 11
28945.59244634688
 21
20598.10356505609
 31
0.0
  0
LINE
  5
33A
330
22
100
AcDbEntity
  8
_0-4_ハッチ
  6
Continuous
 62
     5
100
AcDbLine
 10
29145.59310618641
 20
20698.10389497585
 30
0.0
 11
28945.59244634688
 21
20698.10389497585
 31
0.0
  0
LINE
  5
33B
330
22
100
AcDbEntity
  8
_0-4_ハッチ
  6
Continuous
 62
     5
100
AcDbLine
 10
29145.59310618641
 20
20798.10422489562
 30
0.0
 11
28945.59244634688
 21
20798.10422489562
 31
0.0
  0
LINE
  5
33C
330
22
100
AcDbEntity
  8
_0-4_ハッチ
  6
Continuous
 62
     5
100
AcDbLine
 10
29145.59310618641
 20
20898.10455481537
 30
0.0
 11
28945.59244634688
 21
20898.10455481537
 31
0.0
  0
LINE
  5
33D
330
22
100
AcDbEntity
  8
_0-4_ハッチ
  6
Continuous
 62
     5
100
AcDbLine
 10
29145.59310618641
 20
20998.10488473514
 30
0.0
 11
28945.59244634688
 21
20998.10488473514
 31
0.0
  0
LINE
  5
33E
330
22
100
AcDbEntity
  8
_0-4_ハッチ
  6
Continuous
 62
     5
100
AcDbLine
 10
29145.59310618641
 20
21098.10521465491
 30
0.0
 11
28945.59244634688
 21
21098.10521465491
 31
0.0
  0
LINE
  5
33F
330
22
100
AcDbEntity
  8
_0-4_ハッチ
  6
Continuous
 62
     5
100
AcDbLine
 10
29145.59310618641
 20
21198.10554457467
 30
0.0
 11
28945.59244634688
 21
21198.10554457467
 31
0.0
  0
LINE
  5
340
330
22
100
AcDbEntity
  8
_0-4_ハッチ
  6
Continuous
 62
     5
100
AcDbLine
 10
29145.59310618641
 20
21298.10587449443
 30
0.0
 11
28945.59244634688
 21
21298.10587449443
 31
0.0
  0
LINE
  5
341
330
22
100
AcDbEntity
  8
_0-4_ハッチ
  6
Continuous
 62
     5
100
AcDbLine
 10
29145.59310618641
 20
21398.1062044142
 30
0.0
 11
28945.59244634688
 21
21398.1062044142
 31
0.0
  0
LINE
  5
342
330
22
100
AcDbEntity
  8
_0-4_ハッチ
  6
Continuous
 62
     5
100
AcDbLine
 10
29145.59310618641
 20
21498.10653433396
 30
0.0
 11
28945.59244634688
 21
21498.10653433396
 31
0.0
  0
LINE
  5
343
330
22
100
AcDbEntity
  8
_0-4_ハッチ
  6
Continuous
 62
     5
100
AcDbLine
 10
29145.59310618641
 20
21598.10686425372
 30
0.0
 11
28945.59244634688
 21
21598.10686425372
 31
0.0
  0
LINE
  5
344
330
22
100
AcDbEntity
  8
_0-4_ハッチ
  6
Continuous
 62
     5
100
AcDbLine
 10
29145.59310618641
 20
21698.10719417348
 30
0.0
 11
28945.59244634688
 21
21698.10719417348
 31
0.0
  0
LINE
  5
345
330
22
100
AcDbEntity
  8
_0-4_ハッチ
  6
Continuous
 62
     5
100
AcDbLine
 10
29145.59310618641
 20
21798.10752409325
 30
0.0
 11
28945.59244634688
 21
21798.10752409325
 31
0.0
  0
LINE
  5
346
330
22
100
AcDbEntity
  8
_0-4_ハッチ
  6
Continuous
 62
     5
100
AcDbLine
 10
29145.59310618641
 20
21898.10785401301
 30
0.0
 11
28945.59244634688
 21
21898.10785401301
 31
0.0
  0
LINE
  5
347
330
22
100
AcDbEntity
  8
_0-4_ハッチ
  6
Continuous
 62
     5
100
AcDbLine
 10
29145.59310618641
 20
21998.10818393277
 30
0.0
 11
28945.59244634688
 21
21998.10818393277
 31
0.0
  0
LINE
  5
348
330
22
100
AcDbEntity
  8
_0-4_ハッチ
  6
Continuous
 62
     5
100
AcDbLine
 10
29145.59310618641
 20
22098.10851385254
 30
0.0
 11
28945.59244634688
 21
22098.10851385254
 31
0.0
  0
LINE
  5
349
330
22
100
AcDbEntity
  8
_0-4_ハッチ
  6
Continuous
 62
     5
100
AcDbLine
 10
29145.59310618641
 20
22198.10760657319
 30
0.0
 11
28745.59178650735
 21
22198.10760657319
 31
0.0
  0
LINE
  5
34A
330
22
100
AcDbEntity
  8
_0-4_ハッチ
  6
Continuous
 62
     5
100
AcDbLine
 10
29145.59310618641
 20
22298.10793649296
 30
0.0
 11
28745.59178650735
 21
22298.10793649296
 31
0.0
  0
LINE
  5
34B
330
22
100
AcDbEntity
  8
_0-4_ハッチ
  6
Continuous
 62
     5
100
AcDbLine
 10
29145.59310618641
 20
22398.10826641272
 30
0.0
 11
28745.59178650735
 21
22398.10826641272
 31
0.0
  0
LINE
  5
34C
330
22
100
AcDbEntity
  8
_0-4_ハッチ
  6
Continuous
 62
     5
100
AcDbLine
 10
29145.59310618641
 20
22498.10859633248
 30
0.0
 11
28745.59178650735
 21
22498.10859633248
 31
0.0
  0
LINE
  5
34D
330
22
100
AcDbEntity
  8
_0-4_ハッチ
  6
Continuous
 62
     5
100
AcDbLine
 10
29145.59310618641
 20
22598.10892625225
 30
0.0
 11
28745.59178650735
 21
22598.10892625225
 31
0.0
  0
LINE
  5
34E
330
22
100
AcDbEntity
  8
_0-4_ハッチ
  6
Continuous
 62
     5
100
AcDbLine
 10
29145.59310618641
 20
22698.10925617201
 30
0.0
 11
28745.59178650735
 21
22698.10925617201
 31
0.0
  0
LINE
  5
34F
330
22
100
AcDbEntity
  8
_0-4_ハッチ
  6
Continuous
 62
     5
100
AcDbLine
 10
29145.59310618641
 20
22798.10958609177
 30
0.0
 11
28745.59178650735
 21
22798.10958609177
 31
0.0
  0
LINE
  5
350
330
22
100
AcDbEntity
  8
_0-4_ハッチ
  6
Continuous
 62
     5
100
AcDbLine
 10
29145.59310618641
 20
23398.11280280946
 30
0.0
 11
28245.59013690853
 21
23398.11280280946
 31
0.0
  0
LINE
  5
351
330
22
100
AcDbEntity
  8
_0-4_ハッチ
  6
Continuous
 62
     5
100
AcDbLine
 10
28995.59261130676
 20
17942.92085549106
 30
0.0
 11
28995.59261130676
 21
23514.04330851048
 31
0.0
  0
LINE
  5
352
330
22
100
AcDbEntity
  8
_0-4_ハッチ
  6
Continuous
 62
     5
100
AcDbLine
 10
28895.592281387
 20
18116.12625693742
 30
0.0
 11
28895.592281387
 21
23514.04330851048
 31
0.0
  0
LINE
  5
353
330
22
100
AcDbEntity
  8
_0-4_ハッチ
  6
Continuous
 62
     5
100
AcDbLine
 10
28945.59244634688
 20
18398.09506962217
 30
0.0
 11
28732.79667327889
 21
18398.09506962217
 31
0.0
  0
LINE
  5
354
330
22
100
AcDbEntity
  8
_0-4_ハッチ
  6
Continuous
 62
     5
100
AcDbLine
 10
28945.59244634688
 20
18598.0957294617
 30
0.0
 11
28745.59178650735
 21
18598.0957294617
 31
0.0
  0
LINE
  5
355
330
22
100
AcDbEntity
  8
_0-4_ハッチ
  6
Continuous
 62
     5
100
AcDbLine
 10
28945.59244634688
 20
18698.09605938147
 30
0.0
 11
28745.59178650735
 21
18698.09605938147
 31
0.0
  0
LINE
  5
356
330
22
100
AcDbEntity
  8
_0-4_ハッチ
  6
Continuous
 62
     5
100
AcDbLine
 10
28945.59244634688
 20
18798.09638930123
 30
0.0
 11
28745.59178650735
 21
18798.09638930123
 31
0.0
  0
LINE
  5
357
330
22
100
AcDbEntity
  8
_0-4_ハッチ
  6
Continuous
 62
     5
100
AcDbLine
 10
28945.59244634688
 20
18898.09671922099
 30
0.0
 11
28745.59178650735
 21
18898.09671922099
 31
0.0
  0
LINE
  5
358
330
22
100
AcDbEntity
  8
_0-4_ハッチ
  6
Continuous
 62
     5
100
AcDbLine
 10
28945.59244634688
 20
18998.09704914076
 30
0.0
 11
28745.59178650735
 21
18998.09704914076
 31
0.0
  0
LINE
  5
359
330
22
100
AcDbEntity
  8
_0-4_ハッチ
  6
Continuous
 62
     5
100
AcDbLine
 10
28945.59244634688
 20
19098.09737906051
 30
0.0
 11
28745.59178650735
 21
19098.09737906051
 31
0.0
  0
LINE
  5
35A
330
22
100
AcDbEntity
  8
_0-4_ハッチ
  6
Continuous
 62
     5
100
AcDbLine
 10
28945.59244634688
 20
19198.09770898028
 30
0.0
 11
28745.59178650735
 21
19198.09770898028
 31
0.0
  0
LINE
  5
35B
330
22
100
AcDbEntity
  8
_0-4_ハッチ
  6
Continuous
 62
     5
100
AcDbLine
 10
28945.59244634688
 20
19298.09803890005
 30
0.0
 11
28745.59178650735
 21
19298.09803890005
 31
0.0
  0
LINE
  5
35C
330
22
100
AcDbEntity
  8
_0-4_ハッチ
  6
Continuous
 62
     5
100
AcDbLine
 10
28945.59244634688
 20
19398.09836881981
 30
0.0
 11
28745.59178650735
 21
19398.09836881981
 31
0.0
  0
LINE
  5
35D
330
22
100
AcDbEntity
  8
_0-4_ハッチ
  6
Continuous
 62
     5
100
AcDbLine
 10
28945.59244634688
 20
19498.09869873957
 30
0.0
 11
28745.59178650735
 21
19498.09869873957
 31
0.0
  0
LINE
  5
35E
330
22
100
AcDbEntity
  8
_0-4_ハッチ
  6
Continuous
 62
     5
100
AcDbLine
 10
28945.59244634688
 20
19598.09902865933
 30
0.0
 11
28745.59178650735
 21
19598.09902865933
 31
0.0
  0
LINE
  5
35F
330
22
100
AcDbEntity
  8
_0-4_ハッチ
  6
Continuous
 62
     5
100
AcDbLine
 10
28945.59244634688
 20
19698.0993585791
 30
0.0
 11
28745.59178650735
 21
19698.0993585791
 31
0.0
  0
LINE
  5
360
330
22
100
AcDbEntity
  8
_0-4_ハッチ
  6
Continuous
 62
     5
100
AcDbLine
 10
28945.59244634688
 20
19798.09968849887
 30
0.0
 11
28745.59178650735
 21
19798.09968849887
 31
0.0
  0
LINE
  5
361
330
22
100
AcDbEntity
  8
_0-4_ハッチ
  6
Continuous
 62
     5
100
AcDbLine
 10
28945.59244634688
 20
19898.10001841862
 30
0.0
 11
28745.59178650735
 21
19898.10001841862
 31
0.0
  0
LINE
  5
362
330
22
100
AcDbEntity
  8
_0-4_ハッチ
  6
Continuous
 62
     5
100
AcDbLine
 10
28945.59244634688
 20
19998.10034833839
 30
0.0
 11
28745.59178650735
 21
19998.10034833839
 31
0.0
  0
LINE
  5
363
330
22
100
AcDbEntity
  8
_0-4_ハッチ
  6
Continuous
 62
     5
100
AcDbLine
 10
28945.59244634688
 20
20098.10067825816
 30
0.0
 11
28745.59178650735
 21
20098.10067825816
 31
0.0
  0
LINE
  5
364
330
22
100
AcDbEntity
  8
_0-4_ハッチ
  6
Continuous
 62
     5
100
AcDbLine
 10
28945.59244634688
 20
20198.10100817792
 30
0.0
 11
28745.59178650735
 21
20198.10100817792
 31
0.0
  0
LINE
  5
365
330
22
100
AcDbEntity
  8
_0-4_ハッチ
  6
Continuous
 62
     5
100
AcDbLine
 10
28945.59244634688
 20
20298.10133809768
 30
0.0
 11
28745.59178650735
 21
20298.10133809768
 31
0.0
  0
LINE
  5
366
330
22
100
AcDbEntity
  8
_0-4_ハッチ
  6
Continuous
 62
     5
100
AcDbLine
 10
28945.59244634688
 20
20398.10166801745
 30
0.0
 11
28745.59178650735
 21
20398.10166801745
 31
0.0
  0
LINE
  5
367
330
22
100
AcDbEntity
  8
_0-4_ハッチ
  6
Continuous
 62
     5
100
AcDbLine
 10
28945.59244634688
 20
20498.10199793721
 30
0.0
 11
28745.59178650735
 21
20498.10199793721
 31
0.0
  0
LINE
  5
368
330
22
100
AcDbEntity
  8
_0-4_ハッチ
  6
Continuous
 62
     5
100
AcDbLine
 10
28945.59244634688
 20
20598.10232785697
 30
0.0
 11
28745.59178650735
 21
20598.10232785697
 31
0.0
  0
LINE
  5
369
330
22
100
AcDbEntity
  8
_0-4_ハッチ
  6
Continuous
 62
     5
100
AcDbLine
 10
28945.59244634688
 20
20698.10265777674
 30
0.0
 11
28745.59178650735
 21
20698.10265777674
 31
0.0
  0
LINE
  5
36A
330
22
100
AcDbEntity
  8
_0-4_ハッチ
  6
Continuous
 62
     5
100
AcDbLine
 10
28945.59244634688
 20
20798.1029876965
 30
0.0
 11
28745.59178650735
 21
20798.1029876965
 31
0.0
  0
LINE
  5
36B
330
22
100
AcDbEntity
  8
_0-4_ハッチ
  6
Continuous
 62
     5
100
AcDbLine
 10
28945.59244634688
 20
20898.10331761627
 30
0.0
 11
28745.59178650735
 21
20898.10331761627
 31
0.0
  0
LINE
  5
36C
330
22
100
AcDbEntity
  8
_0-4_ハッチ
  6
Continuous
 62
     5
100
AcDbLine
 10
28945.59244634688
 20
20998.10364753603
 30
0.0
 11
28745.59178650735
 21
20998.10364753603
 31
0.0
  0
LINE
  5
36D
330
22
100
AcDbEntity
  8
_0-4_ハッチ
  6
Continuous
 62
     5
100
AcDbLine
 10
28945.59244634688
 20
21098.10397745579
 30
0.0
 11
28745.59178650735
 21
21098.10397745579
 31
0.0
  0
LINE
  5
36E
330
22
100
AcDbEntity
  8
_0-4_ハッチ
  6
Continuous
 62
     5
100
AcDbLine
 10
28945.59244634688
 20
21198.10430737556
 30
0.0
 11
28745.59178650735
 21
21198.10430737556
 31
0.0
  0
LINE
  5
36F
330
22
100
AcDbEntity
  8
_0-4_ハッチ
  6
Continuous
 62
     5
100
AcDbLine
 10
28945.59244634688
 20
21298.10463729532
 30
0.0
 11
28745.59178650735
 21
21298.10463729532
 31
0.0
  0
LINE
  5
370
330
22
100
AcDbEntity
  8
_0-4_ハッチ
  6
Continuous
 62
     5
100
AcDbLine
 10
28945.59244634688
 20
21398.10496721508
 30
0.0
 11
28745.59178650735
 21
21398.10496721508
 31
0.0
  0
LINE
  5
371
330
22
100
AcDbEntity
  8
_0-4_ハッチ
  6
Continuous
 62
     5
100
AcDbLine
 10
28945.59244634688
 20
21498.10529713485
 30
0.0
 11
28745.59178650735
 21
21498.10529713485
 31
0.0
  0
LINE
  5
372
330
22
100
AcDbEntity
  8
_0-4_ハッチ
  6
Continuous
 62
     5
100
AcDbLine
 10
28945.59244634688
 20
21598.10562705461
 30
0.0
 11
28745.59178650735
 21
21598.10562705461
 31
0.0
  0
LINE
  5
373
330
22
100
AcDbEntity
  8
_0-4_ハッチ
  6
Continuous
 62
     5
100
AcDbLine
 10
28945.59244634688
 20
21698.10595697437
 30
0.0
 11
28745.59178650735
 21
21698.10595697437
 31
0.0
  0
LINE
  5
374
330
22
100
AcDbEntity
  8
_0-4_ハッチ
  6
Continuous
 62
     5
100
AcDbLine
 10
28945.59244634688
 20
21798.10628689414
 30
0.0
 11
28745.59178650735
 21
21798.10628689414
 31
0.0
  0
LINE
  5
375
330
22
100
AcDbEntity
  8
_0-4_ハッチ
  6
Continuous
 62
     5
100
AcDbLine
 10
28945.59244634688
 20
21898.1066168139
 30
0.0
 11
28745.59178650735
 21
21898.1066168139
 31
0.0
  0
LINE
  5
376
330
22
100
AcDbEntity
  8
_0-4_ハッチ
  6
Continuous
 62
     5
100
AcDbLine
 10
28945.59244634688
 20
21998.10694673367
 30
0.0
 11
28745.59178650735
 21
21998.10694673367
 31
0.0
  0
LINE
  5
377
330
22
100
AcDbEntity
  8
_0-4_ハッチ
  6
Continuous
 62
     5
100
AcDbLine
 10
28945.59244634688
 20
22098.10727665343
 30
0.0
 11
28745.59178650735
 21
22098.10727665343
 31
0.0
  0
LINE
  5
378
330
22
100
AcDbEntity
  8
_0-4_ハッチ
  6
Continuous
 62
     5
100
AcDbLine
 10
28795.59195146723
 20
18289.33165838379
 30
0.0
 11
28795.59195146723
 21
23514.04330851048
 31
0.0
  0
LINE
  5
379
330
22
100
AcDbEntity
  8
_0-4_ハッチ
  6
Continuous
 62
     5
100
AcDbLine
 10
28945.59244634688
 20
18498.09539954194
 30
0.0
 11
28675.06153946343
 21
18498.09539954194
 31
0.0
  0
LINE
  5
37A
330
22
100
AcDbEntity
  8
_0-4_ハッチ
  6
Continuous
 62
     5
100
AcDbLine
 10
28695.59162154747
 20
18462.53705983016
 30
0.0
 11
28695.59162154747
 21
23514.04330851048
 31
0.0
  0
LINE
  5
37B
330
22
100
AcDbEntity
  8
_0-4_ハッチ
  6
Continuous
 62
     5
100
AcDbLine
 10
28745.59178650735
 20
18698.09482218236
 30
0.0
 11
28559.59374623074
 21
18698.09482218236
 31
0.0
  0
LINE
  5
37C
330
22
100
AcDbEntity
  8
_0-4_ハッチ
  6
Continuous
 62
     5
100
AcDbLine
 10
28745.59178650735
 20
18798.09515210212
 30
0.0
 11
28501.85613801706
 21
18798.09515210212
 31
0.0
  0
LINE
  5
37D
330
22
100
AcDbEntity
  8
_0-4_ハッチ
  6
Continuous
 62
     5
100
AcDbLine
 10
28745.59178650735
 20
18898.09548202188
 30
0.0
 11
28545.59112666782
 21
18898.09548202188
 31
0.0
  0
LINE
  5
37E
330
22
100
AcDbEntity
  8
_0-4_ハッチ
  6
Continuous
 62
     5
100
AcDbLine
 10
28745.59178650735
 20
18998.09581194164
 30
0.0
 11
28545.59112666782
 21
18998.09581194164
 31
0.0
  0
LINE
  5
37F
330
22
100
AcDbEntity
  8
_0-4_ハッチ
  6
Continuous
 62
     5
100
AcDbLine
 10
28745.59178650735
 20
19098.09614186141
 30
0.0
 11
28545.59112666782
 21
19098.09614186141
 31
0.0
  0
LINE
  5
380
330
22
100
AcDbEntity
  8
_0-4_ハッチ
  6
Continuous
 62
     5
100
AcDbLine
 10
28745.59178650735
 20
19198.09647178117
 30
0.0
 11
28545.59112666782
 21
19198.09647178117
 31
0.0
  0
LINE
  5
381
330
22
100
AcDbEntity
  8
_0-4_ハッチ
  6
Continuous
 62
     5
100
AcDbLine
 10
28745.59178650735
 20
19298.09680170093
 30
0.0
 11
28545.59112666782
 21
19298.09680170093
 31
0.0
  0
LINE
  5
382
330
22
100
AcDbEntity
  8
_0-4_ハッチ
  6
Continuous
 62
     5
100
AcDbLine
 10
28745.59178650735
 20
19398.0971316207
 30
0.0
 11
28545.59112666782
 21
19398.0971316207
 31
0.0
  0
LINE
  5
383
330
22
100
AcDbEntity
  8
_0-4_ハッチ
  6
Continuous
 62
     5
100
AcDbLine
 10
28745.59178650735
 20
19498.09746154046
 30
0.0
 11
28545.59112666782
 21
19498.09746154046
 31
0.0
  0
LINE
  5
384
330
22
100
AcDbEntity
  8
_0-4_ハッチ
  6
Continuous
 62
     5
100
AcDbLine
 10
28745.59178650735
 20
19598.09779146022
 30
0.0
 11
28545.59112666782
 21
19598.09779146022
 31
0.0
  0
LINE
  5
385
330
22
100
AcDbEntity
  8
_0-4_ハッチ
  6
Continuous
 62
     5
100
AcDbLine
 10
28745.59178650735
 20
19698.09812137999
 30
0.0
 11
28545.59112666782
 21
19698.09812137999
 31
0.0
  0
LINE
  5
386
330
22
100
AcDbEntity
  8
_0-4_ハッチ
  6
Continuous
 62
     5
100
AcDbLine
 10
28745.59178650735
 20
19798.09845129975
 30
0.0
 11
28545.59112666782
 21
19798.09845129975
 31
0.0
  0
LINE
  5
387
330
22
100
AcDbEntity
  8
_0-4_ハッチ
  6
Continuous
 62
     5
100
AcDbLine
 10
28745.59178650735
 20
19898.09878121952
 30
0.0
 11
28545.59112666782
 21
19898.09878121952
 31
0.0
  0
LINE
  5
388
330
22
100
AcDbEntity
  8
_0-4_ハッチ
  6
Continuous
 62
     5
100
AcDbLine
 10
28745.59178650735
 20
19998.09911113928
 30
0.0
 11
28545.59112666782
 21
19998.09911113928
 31
0.0
  0
LINE
  5
389
330
22
100
AcDbEntity
  8
_0-4_ハッチ
  6
Continuous
 62
     5
100
AcDbLine
 10
28745.59178650735
 20
20098.09944105904
 30
0.0
 11
28545.59112666782
 21
20098.09944105904
 31
0.0
  0
LINE
  5
38A
330
22
100
AcDbEntity
  8
_0-4_ハッチ
  6
Continuous
 62
     5
100
AcDbLine
 10
28745.59178650735
 20
20198.09977097881
 30
0.0
 11
28545.59112666782
 21
20198.09977097881
 31
0.0
  0
LINE
  5
38B
330
22
100
AcDbEntity
  8
_0-4_ハッチ
  6
Continuous
 62
     5
100
AcDbLine
 10
28745.59178650735
 20
20298.10010089857
 30
0.0
 11
28545.59112666782
 21
20298.10010089857
 31
0.0
  0
LINE
  5
38C
330
22
100
AcDbEntity
  8
_0-4_ハッチ
  6
Continuous
 62
     5
100
AcDbLine
 10
28745.59178650735
 20
20398.10043081833
 30
0.0
 11
28545.59112666782
 21
20398.10043081833
 31
0.0
  0
LINE
  5
38D
330
22
100
AcDbEntity
  8
_0-4_ハッチ
  6
Continuous
 62
     5
100
AcDbLine
 10
28745.59178650735
 20
20498.1007607381
 30
0.0
 11
28545.59112666782
 21
20498.1007607381
 31
0.0
  0
LINE
  5
38E
330
22
100
AcDbEntity
  8
_0-4_ハッチ
  6
Continuous
 62
     5
100
AcDbLine
 10
28745.59178650735
 20
20598.10109065786
 30
0.0
 11
28545.59112666782
 21
20598.10109065786
 31
0.0
  0
LINE
  5
38F
330
22
100
AcDbEntity
  8
_0-4_ハッチ
  6
Continuous
 62
     5
100
AcDbLine
 10
28745.59178650735
 20
20698.10142057762
 30
0.0
 11
28545.59112666782
 21
20698.10142057762
 31
0.0
  0
LINE
  5
390
330
22
100
AcDbEntity
  8
_0-4_ハッチ
  6
Continuous
 62
     5
100
AcDbLine
 10
28745.59178650735
 20
20798.10175049738
 30
0.0
 11
28545.59112666782
 21
20798.10175049738
 31
0.0
  0
LINE
  5
391
330
22
100
AcDbEntity
  8
_0-4_ハッチ
  6
Continuous
 62
     5
100
AcDbLine
 10
28745.59178650735
 20
20898.10208041715
 30
0.0
 11
28545.59112666782
 21
20898.10208041715
 31
0.0
  0
LINE
  5
392
330
22
100
AcDbEntity
  8
_0-4_ハッチ
  6
Continuous
 62
     5
100
AcDbLine
 10
28745.59178650735
 20
20998.10241033692
 30
0.0
 11
28545.59112666782
 21
20998.10241033692
 31
0.0
  0
LINE
  5
393
330
22
100
AcDbEntity
  8
_0-4_ハッチ
  6
Continuous
 62
     5
100
AcDbLine
 10
28745.59178650735
 20
21098.10274025668
 30
0.0
 11
28545.59112666782
 21
21098.10274025668
 31
0.0
  0
LINE
  5
394
330
22
100
AcDbEntity
  8
_0-4_ハッチ
  6
Continuous
 62
     5
100
AcDbLine
 10
28745.59178650735
 20
21198.10307017644
 30
0.0
 11
28545.59112666782
 21
21198.10307017644
 31
0.0
  0
LINE
  5
395
330
22
100
AcDbEntity
  8
_0-4_ハッチ
  6
Continuous
 62
     5
100
AcDbLine
 10
28745.59178650735
 20
21298.1034000962
 30
0.0
 11
28545.59112666782
 21
21298.1034000962
 31
0.0
  0
LINE
  5
396
330
22
100
AcDbEntity
  8
_0-4_ハッチ
  6
Continuous
 62
     5
100
AcDbLine
 10
28745.59178650735
 20
21398.10373001596
 30
0.0
 11
28545.59112666782
 21
21398.10373001596
 31
0.0
  0
LINE
  5
397
330
22
100
AcDbEntity
  8
_0-4_ハッチ
  6
Continuous
 62
     5
100
AcDbLine
 10
28745.59178650735
 20
21498.10405993573
 30
0.0
 11
28545.59112666782
 21
21498.10405993573
 31
0.0
  0
LINE
  5
398
330
22
100
AcDbEntity
  8
_0-4_ハッチ
  6
Continuous
 62
     5
100
AcDbLine
 10
28745.59178650735
 20
21598.1043898555
 30
0.0
 11
28545.59112666782
 21
21598.1043898555
 31
0.0
  0
LINE
  5
399
330
22
100
AcDbEntity
  8
_0-4_ハッチ
  6
Continuous
 62
     5
100
AcDbLine
 10
28745.59178650735
 20
21698.10471977526
 30
0.0
 11
28545.59112666782
 21
21698.10471977526
 31
0.0
  0
LINE
  5
39A
330
22
100
AcDbEntity
  8
_0-4_ハッチ
  6
Continuous
 62
     5
100
AcDbLine
 10
28745.59178650735
 20
21798.10504969502
 30
0.0
 11
28545.59112666782
 21
21798.10504969502
 31
0.0
  0
LINE
  5
39B
330
22
100
AcDbEntity
  8
_0-4_ハッチ
  6
Continuous
 62
     5
100
AcDbLine
 10
28745.59178650735
 20
21898.10537961478
 30
0.0
 11
28545.59112666782
 21
21898.10537961478
 31
0.0
  0
LINE
  5
39C
330
22
100
AcDbEntity
  8
_0-4_ハッチ
  6
Continuous
 62
     5
100
AcDbLine
 10
28745.59178650735
 20
21998.10570953455
 30
0.0
 11
28545.59112666782
 21
21998.10570953455
 31
0.0
  0
LINE
  5
39D
330
22
100
AcDbEntity
  8
_0-4_ハッチ
  6
Continuous
 62
     5
100
AcDbLine
 10
28745.59178650735
 20
22098.10603945432
 30
0.0
 11
28545.59112666782
 21
22098.10603945432
 31
0.0
  0
LINE
  5
39E
330
22
100
AcDbEntity
  8
_0-4_ハッチ
  6
Continuous
 62
     5
100
AcDbLine
 10
28745.59178650735
 20
22198.10513217497
 30
0.0
 11
28245.59013690853
 21
22198.10513217497
 31
0.0
  0
LINE
  5
39F
330
22
100
AcDbEntity
  8
_0-4_ハッチ
  6
Continuous
 62
     5
100
AcDbLine
 10
28745.59178650735
 20
22298.10546209473
 30
0.0
 11
28245.59013690853
 21
22298.10546209473
 31
0.0
  0
LINE
  5
3A0
330
22
100
AcDbEntity
  8
_0-4_ハッチ
  6
Continuous
 62
     5
100
AcDbLine
 10
28745.59178650735
 20
22398.10579201449
 30
0.0
 11
28245.59013690853
 21
22398.10579201449
 31
0.0
  0
LINE
  5
3A1
330
22
100
AcDbEntity
  8
_0-4_ハッチ
  6
Continuous
 62
     5
100
AcDbLine
 10
28745.59178650735
 20
22498.10612193425
 30
0.0
 11
28245.59013690853
 21
22498.10612193425
 31
0.0
  0
LINE
  5
3A2
330
22
100
AcDbEntity
  8
_0-4_ハッチ
  6
Continuous
 62
     5
100
AcDbLine
 10
28745.59178650735
 20
22598.10645185401
 30
0.0
 11
28245.59013690853
 21
22598.10645185401
 31
0.0
  0
LINE
  5
3A3
330
22
100
AcDbEntity
  8
_0-4_ハッチ
  6
Continuous
 62
     5
100
AcDbLine
 10
28745.59178650735
 20
22698.10678177377
 30
0.0
 11
28245.59013690853
 21
22698.10678177377
 31
0.0
  0
LINE
  5
3A4
330
22
100
AcDbEntity
  8
_0-4_ハッチ
  6
Continuous
 62
     5
100
AcDbLine
 10
28745.59178650735
 20
22798.10711169355
 30
0.0
 11
28245.59013690853
 21
22798.10711169355
 31
0.0
  0
LINE
  5
3A5
330
22
100
AcDbEntity
  8
_0-4_ハッチ
  6
Continuous
 62
     5
100
AcDbLine
 10
28745.59178650735
 20
22898.1062044142
 30
0.0
 11
27845.58881722948
 21
22898.1062044142
 31
0.0
  0
LINE
  5
3A6
330
22
100
AcDbEntity
  8
_0-4_ハッチ
  6
Continuous
 62
     5
100
AcDbLine
 10
28745.59178650735
 20
22998.10653433396
 30
0.0
 11
27845.58881722948
 21
22998.10653433396
 31
0.0
  0
LINE
  5
3A7
330
22
100
AcDbEntity
  8
_0-4_ハッチ
  6
Continuous
 62
     5
100
AcDbLine
 10
28745.59178650735
 20
23098.10686425372
 30
0.0
 11
27845.58881722948
 21
23098.10686425372
 31
0.0
  0
LINE
  5
3A8
330
22
100
AcDbEntity
  8
_0-4_ハッチ
  6
Continuous
 62
     5
100
AcDbLine
 10
28745.59178650735
 20
23198.10719417349
 30
0.0
 11
27845.58881722948
 21
23198.10719417349
 31
0.0
  0
LINE
  5
3A9
330
22
100
AcDbEntity
  8
_0-4_ハッチ
  6
Continuous
 62
     5
100
AcDbLine
 10
28745.59178650735
 20
23298.10752409325
 30
0.0
 11
27845.58881722948
 21
23298.10752409325
 31
0.0
  0
LINE
  5
3AA
330
22
100
AcDbEntity
  8
_0-4_ハッチ
  6
Continuous
 62
     5
100
AcDbLine
 10
28595.59129162771
 20
18635.74246127652
 30
0.0
 11
28595.59129162771
 21
23514.04330851048
 31
0.0
  0
LINE
  5
3AB
330
22
100
AcDbEntity
  8
_0-4_ハッチ
  6
Continuous
 62
     5
100
AcDbLine
 10
28495.59096170794
 20
18808.94909992201
 30
0.0
 11
28495.59096170794
 21
23514.04330851048
 31
0.0
  0
LINE
  5
3AC
330
22
100
AcDbEntity
  8
_0-4_ハッチ
  6
Continuous
 62
     5
100
AcDbLine
 10
28545.59112666782
 20
19098.09490466229
 30
0.0
 11
28328.65321096892
 21
19098.09490466229
 31
0.0
  0
LINE
  5
3AD
330
22
100
AcDbEntity
  8
_0-4_ハッチ
  6
Continuous
 62
     5
100
AcDbLine
 10
28545.59112666782
 20
19198.09523458205
 30
0.0
 11
28270.91807715347
 21
19198.09523458205
 31
0.0
  0
LINE
  5
3AE
330
22
100
AcDbEntity
  8
_0-4_ハッチ
  6
Continuous
 62
     5
100
AcDbLine
 10
28545.59112666782
 20
19298.09556450182
 30
0.0
 11
28213.18294333801
 21
19298.09556450182
 31
0.0
  0
LINE
  5
3AF
330
22
100
AcDbEntity
  8
_0-4_ハッチ
  6
Continuous
 62
     5
100
AcDbLine
 10
28545.59112666782
 20
19398.09589442158
 30
0.0
 11
28245.59013690853
 21
19398.09589442158
 31
0.0
  0
LINE
  5
3B0
330
22
100
AcDbEntity
  8
_0-4_ハッチ
  6
Continuous
 62
     5
100
AcDbLine
 10
28545.59112666782
 20
19498.09622434135
 30
0.0
 11
28245.59013690853
 21
19498.09622434135
 31
0.0
  0
LINE
  5
3B1
330
22
100
AcDbEntity
  8
_0-4_ハッチ
  6
Continuous
 62
     5
100
AcDbLine
 10
28545.59112666782
 20
19598.09655426111
 30
0.0
 11
28245.59013690853
 21
19598.09655426111
 31
0.0
  0
LINE
  5
3B2
330
22
100
AcDbEntity
  8
_0-4_ハッチ
  6
Continuous
 62
     5
100
AcDbLine
 10
28545.59112666782
 20
19698.09688418087
 30
0.0
 11
28245.59013690853
 21
19698.09688418087
 31
0.0
  0
LINE
  5
3B3
330
22
100
AcDbEntity
  8
_0-4_ハッチ
  6
Continuous
 62
     5
100
AcDbLine
 10
28545.59112666782
 20
19798.09721410064
 30
0.0
 11
28245.59013690853
 21
19798.09721410064
 31
0.0
  0
LINE
  5
3B4
330
22
100
AcDbEntity
  8
_0-4_ハッチ
  6
Continuous
 62
     5
100
AcDbLine
 10
28545.59112666782
 20
19898.0975440204
 30
0.0
 11
28245.59013690853
 21
19898.0975440204
 31
0.0
  0
LINE
  5
3B5
330
22
100
AcDbEntity
  8
_0-4_ハッチ
  6
Continuous
 62
     5
100
AcDbLine
 10
28545.59112666782
 20
19998.09787394016
 30
0.0
 11
28245.59013690853
 21
19998.09787394016
 31
0.0
  0
LINE
  5
3B6
330
22
100
AcDbEntity
  8
_0-4_ハッチ
  6
Continuous
 62
     5
100
AcDbLine
 10
28545.59112666782
 20
20098.09820385993
 30
0.0
 11
28245.59013690853
 21
20098.09820385993
 31
0.0
  0
LINE
  5
3B7
330
22
100
AcDbEntity
  8
_0-4_ハッチ
  6
Continuous
 62
     5
100
AcDbLine
 10
28545.59112666782
 20
20198.0985337797
 30
0.0
 11
28245.59013690853
 21
20198.0985337797
 31
0.0
  0
LINE
  5
3B8
330
22
100
AcDbEntity
  8
_0-4_ハッチ
  6
Continuous
 62
     5
100
AcDbLine
 10
28545.59112666782
 20
20298.09886369945
 30
0.0
 11
28245.59013690853
 21
20298.09886369945
 31
0.0
  0
LINE
  5
3B9
330
22
100
AcDbEntity
  8
_0-4_ハッチ
  6
Continuous
 62
     5
100
AcDbLine
 10
28545.59112666782
 20
20398.09919361922
 30
0.0
 11
28245.59013690853
 21
20398.09919361922
 31
0.0
  0
LINE
  5
3BA
330
22
100
AcDbEntity
  8
_0-4_ハッチ
  6
Continuous
 62
     5
100
AcDbLine
 10
28545.59112666782
 20
20498.09952353899
 30
0.0
 11
28245.59013690853
 21
20498.09952353899
 31
0.0
  0
LINE
  5
3BB
330
22
100
AcDbEntity
  8
_0-4_ハッチ
  6
Continuous
 62
     5
100
AcDbLine
 10
28545.59112666782
 20
20598.09985345875
 30
0.0
 11
28245.59013690853
 21
20598.09985345875
 31
0.0
  0
LINE
  5
3BC
330
22
100
AcDbEntity
  8
_0-4_ハッチ
  6
Continuous
 62
     5
100
AcDbLine
 10
28545.59112666782
 20
20698.10018337851
 30
0.0
 11
28245.59013690853
 21
20698.10018337851
 31
0.0
  0
LINE
  5
3BD
330
22
100
AcDbEntity
  8
_0-4_ハッチ
  6
Continuous
 62
     5
100
AcDbLine
 10
28545.59112666782
 20
20798.10051329828
 30
0.0
 11
28245.59013690853
 21
20798.10051329828
 31
0.0
  0
LINE
  5
3BE
330
22
100
AcDbEntity
  8
_0-4_ハッチ
  6
Continuous
 62
     5
100
AcDbLine
 10
28545.59112666782
 20
20898.10084321804
 30
0.0
 11
28245.59013690853
 21
20898.10084321804
 31
0.0
  0
LINE
  5
3BF
330
22
100
AcDbEntity
  8
_0-4_ハッチ
  6
Continuous
 62
     5
100
AcDbLine
 10
28545.59112666782
 20
20998.1011731378
 30
0.0
 11
28245.59013690853
 21
20998.1011731378
 31
0.0
  0
LINE
  5
3C0
330
22
100
AcDbEntity
  8
_0-4_ハッチ
  6
Continuous
 62
     5
100
AcDbLine
 10
28545.59112666782
 20
21098.10150305756
 30
0.0
 11
28245.59013690853
 21
21098.10150305756
 31
0.0
  0
LINE
  5
3C1
330
22
100
AcDbEntity
  8
_0-4_ハッチ
  6
Continuous
 62
     5
100
AcDbLine
 10
28545.59112666782
 20
21198.10183297733
 30
0.0
 11
28245.59013690853
 21
21198.10183297733
 31
0.0
  0
LINE
  5
3C2
330
22
100
AcDbEntity
  8
_0-4_ハッチ
  6
Continuous
 62
     5
100
AcDbLine
 10
28545.59112666782
 20
21298.10216289709
 30
0.0
 11
28245.59013690853
 21
21298.10216289709
 31
0.0
  0
LINE
  5
3C3
330
22
100
AcDbEntity
  8
_0-4_ハッチ
  6
Continuous
 62
     5
100
AcDbLine
 10
28545.59112666782
 20
21398.10249281685
 30
0.0
 11
28245.59013690853
 21
21398.10249281685
 31
0.0
  0
LINE
  5
3C4
330
22
100
AcDbEntity
  8
_0-4_ハッチ
  6
Continuous
 62
     5
100
AcDbLine
 10
28545.59112666782
 20
21498.10282273662
 30
0.0
 11
28245.59013690853
 21
21498.10282273662
 31
0.0
  0
LINE
  5
3C5
330
22
100
AcDbEntity
  8
_0-4_ハッチ
  6
Continuous
 62
     5
100
AcDbLine
 10
28545.59112666782
 20
21598.10315265639
 30
0.0
 11
28245.59013690853
 21
21598.10315265639
 31
0.0
  0
LINE
  5
3C6
330
22
100
AcDbEntity
  8
_0-4_ハッチ
  6
Continuous
 62
     5
100
AcDbLine
 10
28545.59112666782
 20
21698.10348257615
 30
0.0
 11
28245.59013690853
 21
21698.10348257615
 31
0.0
  0
LINE
  5
3C7
330
22
100
AcDbEntity
  8
_0-4_ハッチ
  6
Continuous
 62
     5
100
AcDbLine
 10
28545.59112666782
 20
21798.10381249591
 30
0.0
 11
28245.59013690853
 21
21798.10381249591
 31
0.0
  0
LINE
  5
3C8
330
22
100
AcDbEntity
  8
_0-4_ハッチ
  6
Continuous
 62
     5
100
AcDbLine
 10
28545.59112666782
 20
21898.10414241567
 30
0.0
 11
28245.59013690853
 21
21898.10414241567
 31
0.0
  0
LINE
  5
3C9
330
22
100
AcDbEntity
  8
_0-4_ハッチ
  6
Continuous
 62
     5
100
AcDbLine
 10
28545.59112666782
 20
21998.10447233544
 30
0.0
 11
28245.59013690853
 21
21998.10447233544
 31
0.0
  0
LINE
  5
3CA
330
22
100
AcDbEntity
  8
_0-4_ハッチ
  6
Continuous
 62
     5
100
AcDbLine
 10
28545.59112666782
 20
22098.1048022552
 30
0.0
 11
28245.59013690853
 21
22098.1048022552
 31
0.0
  0
LINE
  5
3CB
330
22
100
AcDbEntity
  8
_0-4_ハッチ
  6
Continuous
 62
     5
100
AcDbLine
 10
28395.59063178818
 20
18982.15450136837
 30
0.0
 11
28395.59063178818
 21
23514.04330851048
 31
0.0
  0
LINE
  5
3CC
330
22
100
AcDbEntity
  8
_0-4_ハッチ
  6
Continuous
 62
     5
100
AcDbLine
 10
28295.59030186841
 20
19155.35990281474
 30
0.0
 11
28295.59030186841
 21
23514.04330851048
 31
0.0
  0
LINE
  5
3CD
330
22
100
AcDbEntity
  8
_0-4_ハッチ
  6
Continuous
 62
     5
100
AcDbLine
 10
28195.58997194865
 20
19328.56654146022
 30
0.0
 11
28195.58997194865
 21
23514.04330851048
 31
0.0
  0
LINE
  5
3CE
330
22
100
AcDbEntity
  8
_0-4_ハッチ
  6
Continuous
 62
     5
100
AcDbLine
 10
28245.59013690853
 20
19598.095317062
 30
0.0
 11
28145.58980698877
 21
19598.095317062
 31
0.0
  0
LINE
  5
3CF
330
22
100
AcDbEntity
  8
_0-4_ハッチ
  6
Continuous
 62
     5
100
AcDbLine
 10
28245.59013690853
 20
19698.09564698176
 30
0.0
 11
28145.58980698877
 21
19698.09564698176
 31
0.0
  0
LINE
  5
3D0
330
22
100
AcDbEntity
  8
_0-4_ハッチ
  6
Continuous
 62
     5
100
AcDbLine
 10
28245.59013690853
 20
19798.09597690152
 30
0.0
 11
28145.58980698877
 21
19798.09597690152
 31
0.0
  0
LINE
  5
3D1
330
22
100
AcDbEntity
  8
_0-4_ハッチ
  6
Continuous
 62
     5
100
AcDbLine
 10
28245.59013690853
 20
19898.09630682129
 30
0.0
 11
28145.58980698877
 21
19898.09630682129
 31
0.0
  0
LINE
  5
3D2
330
22
100
AcDbEntity
  8
_0-4_ハッチ
  6
Continuous
 62
     5
100
AcDbLine
 10
28245.59013690853
 20
19998.09663674105
 30
0.0
 11
28145.58980698877
 21
19998.09663674105
 31
0.0
  0
LINE
  5
3D3
330
22
100
AcDbEntity
  8
_0-4_ハッチ
  6
Continuous
 62
     5
100
AcDbLine
 10
28245.59013690853
 20
20098.09696666081
 30
0.0
 11
28145.58980698877
 21
20098.09696666081
 31
0.0
  0
LINE
  5
3D4
330
22
100
AcDbEntity
  8
_0-4_ハッチ
  6
Continuous
 62
     5
100
AcDbLine
 10
28245.59013690853
 20
20198.09729658058
 30
0.0
 11
28145.58980698877
 21
20198.09729658058
 31
0.0
  0
LINE
  5
3D5
330
22
100
AcDbEntity
  8
_0-4_ハッチ
  6
Continuous
 62
     5
100
AcDbLine
 10
28245.59013690853
 20
20298.09762650034
 30
0.0
 11
28145.58980698877
 21
20298.09762650034
 31
0.0
  0
LINE
  5
3D6
330
22
100
AcDbEntity
  8
_0-4_ハッチ
  6
Continuous
 62
     5
100
AcDbLine
 10
28245.59013690853
 20
20398.09795642011
 30
0.0
 11
28145.58980698877
 21
20398.09795642011
 31
0.0
  0
LINE
  5
3D7
330
22
100
AcDbEntity
  8
_0-4_ハッチ
  6
Continuous
 62
     5
100
AcDbLine
 10
28245.59013690853
 20
20498.09828633987
 30
0.0
 11
28145.58980698877
 21
20498.09828633987
 31
0.0
  0
LINE
  5
3D8
330
22
100
AcDbEntity
  8
_0-4_ハッチ
  6
Continuous
 62
     5
100
AcDbLine
 10
28245.59013690853
 20
20598.09861625963
 30
0.0
 11
28145.58980698877
 21
20598.09861625963
 31
0.0
  0
LINE
  5
3D9
330
22
100
AcDbEntity
  8
_0-4_ハッチ
  6
Continuous
 62
     5
100
AcDbLine
 10
28245.59013690853
 20
20698.0989461794
 30
0.0
 11
28145.58980698877
 21
20698.0989461794
 31
0.0
  0
LINE
  5
3DA
330
22
100
AcDbEntity
  8
_0-4_ハッチ
  6
Continuous
 62
     5
100
AcDbLine
 10
28245.59013690853
 20
20798.09927609916
 30
0.0
 11
28145.58980698877
 21
20798.09927609916
 31
0.0
  0
LINE
  5
3DB
330
22
100
AcDbEntity
  8
_0-4_ハッチ
  6
Continuous
 62
     5
100
AcDbLine
 10
28245.59013690853
 20
20898.09960601892
 30
0.0
 11
28145.58980698877
 21
20898.09960601892
 31
0.0
  0
LINE
  5
3DC
330
22
100
AcDbEntity
  8
_0-4_ハッチ
  6
Continuous
 62
     5
100
AcDbLine
 10
28245.59013690853
 20
20998.09993593869
 30
0.0
 11
28145.58980698877
 21
20998.09993593869
 31
0.0
  0
LINE
  5
3DD
330
22
100
AcDbEntity
  8
_0-4_ハッチ
  6
Continuous
 62
     5
100
AcDbLine
 10
28245.59013690853
 20
21098.10026585845
 30
0.0
 11
28145.58980698877
 21
21098.10026585845
 31
0.0
  0
LINE
  5
3DE
330
22
100
AcDbEntity
  8
_0-4_ハッチ
  6
Continuous
 62
     5
100
AcDbLine
 10
28245.59013690853
 20
21198.10059577821
 30
0.0
 11
28145.58980698877
 21
21198.10059577821
 31
0.0
  0
LINE
  5
3DF
330
22
100
AcDbEntity
  8
_0-4_ハッチ
  6
Continuous
 62
     5
100
AcDbLine
 10
28245.59013690853
 20
21298.10092569798
 30
0.0
 11
28145.58980698877
 21
21298.10092569798
 31
0.0
  0
LINE
  5
3E0
330
22
100
AcDbEntity
  8
_0-4_ハッチ
  6
Continuous
 62
     5
100
AcDbLine
 10
28245.59013690853
 20
21398.10125561774
 30
0.0
 11
28145.58980698877
 21
21398.10125561774
 31
0.0
  0
LINE
  5
3E1
330
22
100
AcDbEntity
  8
_0-4_ハッチ
  6
Continuous
 62
     5
100
AcDbLine
 10
28245.59013690853
 20
21498.10158553751
 30
0.0
 11
28145.58980698877
 21
21498.10158553751
 31
0.0
  0
LINE
  5
3E2
330
22
100
AcDbEntity
  8
_0-4_ハッチ
  6
Continuous
 62
     5
100
AcDbLine
 10
28245.59013690853
 20
21598.10191545727
 30
0.0
 11
28145.58980698877
 21
21598.10191545727
 31
0.0
  0
LINE
  5
3E3
330
22
100
AcDbEntity
  8
_0-4_ハッチ
  6
Continuous
 62
     5
100
AcDbLine
 10
28245.59013690853
 20
21698.10224537703
 30
0.0
 11
28145.58980698877
 21
21698.10224537703
 31
0.0
  0
LINE
  5
3E4
330
22
100
AcDbEntity
  8
_0-4_ハッチ
  6
Continuous
 62
     5
100
AcDbLine
 10
28245.59013690853
 20
21798.1025752968
 30
0.0
 11
28145.58980698877
 21
21798.1025752968
 31
0.0
  0
LINE
  5
3E5
330
22
100
AcDbEntity
  8
_0-4_ハッチ
  6
Continuous
 62
     5
100
AcDbLine
 10
28245.59013690853
 20
21898.10290521656
 30
0.0
 11
28145.58980698877
 21
21898.10290521656
 31
0.0
  0
LINE
  5
3E6
330
22
100
AcDbEntity
  8
_0-4_ハッチ
  6
Continuous
 62
     5
100
AcDbLine
 10
28245.59013690853
 20
21998.10323513633
 30
0.0
 11
28145.58980698877
 21
21998.10323513633
 31
0.0
  0
LINE
  5
3E7
330
22
100
AcDbEntity
  8
_0-4_ハッチ
  6
Continuous
 62
     5
100
AcDbLine
 10
28245.59013690853
 20
22098.10356505609
 30
0.0
 11
28145.58980698877
 21
22098.10356505609
 31
0.0
  0
LINE
  5
3E8
330
22
100
AcDbEntity
  8
_0-4_ハッチ
  6
Continuous
 62
     5
100
AcDbLine
 10
28245.59013690853
 20
22198.10265777674
 30
0.0
 11
27845.58881722948
 21
22198.10265777674
 31
0.0
  0
LINE
  5
3E9
330
22
100
AcDbEntity
  8
_0-4_ハッチ
  6
Continuous
 62
     5
100
AcDbLine
 10
28245.59013690853
 20
22298.1029876965
 30
0.0
 11
27845.58881722948
 21
22298.1029876965
 31
0.0
  0
LINE
  5
3EA
330
22
100
AcDbEntity
  8
_0-4_ハッチ
  6
Continuous
 62
     5
100
AcDbLine
 10
28245.59013690853
 20
22398.10331761626
 30
0.0
 11
27845.58881722948
 21
22398.10331761626
 31
0.0
  0
LINE
  5
3EB
330
22
100
AcDbEntity
  8
_0-4_ハッチ
  6
Continuous
 62
     5
100
AcDbLine
 10
28245.59013690853
 20
22498.10364753603
 30
0.0
 11
27845.58881722948
 21
22498.10364753603
 31
0.0
  0
LINE
  5
3EC
330
22
100
AcDbEntity
  8
_0-4_ハッチ
  6
Continuous
 62
     5
100
AcDbLine
 10
28245.59013690853
 20
22598.10397745579
 30
0.0
 11
27845.58881722948
 21
22598.10397745579
 31
0.0
  0
LINE
  5
3ED
330
22
100
AcDbEntity
  8
_0-4_ハッチ
  6
Continuous
 62
     5
100
AcDbLine
 10
28245.59013690853
 20
22698.10430737556
 30
0.0
 11
27845.58881722948
 21
22698.10430737556
 31
0.0
  0
LINE
  5
3EE
330
22
100
AcDbEntity
  8
_0-4_ハッチ
  6
Continuous
 62
     5
100
AcDbLine
 10
28245.59013690853
 20
22798.10463729532
 30
0.0
 11
27845.58881722948
 21
22798.10463729532
 31
0.0
  0
LINE
  5
3EF
330
22
100
AcDbEntity
  8
_0-4_ハッチ
  6
Continuous
 62
     5
100
AcDbLine
 10
28245.59013690853
 20
23398.10785401301
 30
0.0
 11
27445.58749755042
 21
23398.10785401301
 31
0.0
  0
LINE
  5
3F0
330
22
100
AcDbEntity
  8
_0-4_ハッチ
  6
Continuous
 62
     5
100
AcDbLine
 10
28095.58964202889
 20
19501.77194290659
 30
0.0
 11
28095.58964202889
 21
23514.04330851048
 31
0.0
  0
LINE
  5
3F1
330
22
100
AcDbEntity
  8
_0-4_ハッチ
  6
Continuous
 62
     5
100
AcDbLine
 10
28145.58980698877
 20
19798.09473970241
 30
0.0
 11
27924.50727426073
 21
19798.09473970241
 31
0.0
  0
LINE
  5
3F2
330
22
100
AcDbEntity
  8
_0-4_ハッチ
  6
Continuous
 62
     5
100
AcDbLine
 10
28145.58980698877
 20
19898.09506962217
 30
0.0
 11
27945.58914714924
 21
19898.09506962217
 31
0.0
  0
LINE
  5
3F3
330
22
100
AcDbEntity
  8
_0-4_ハッチ
  6
Continuous
 62
     5
100
AcDbLine
 10
28145.58980698877
 20
19998.09539954194
 30
0.0
 11
27809.03700662981
 21
19998.09539954194
 31
0.0
  0
LINE
  5
3F4
330
22
100
AcDbEntity
  8
_0-4_ハッチ
  6
Continuous
 62
     5
100
AcDbLine
 10
28145.58980698877
 20
20098.09572946171
 30
0.0
 11
27845.58881722948
 21
20098.09572946171
 31
0.0
  0
LINE
  5
3F5
330
22
100
AcDbEntity
  8
_0-4_ハッチ
  6
Continuous
 62
     5
100
AcDbLine
 10
28145.58980698877
 20
20198.09605938147
 30
0.0
 11
27845.58881722948
 21
20198.09605938147
 31
0.0
  0
LINE
  5
3F6
330
22
100
AcDbEntity
  8
_0-4_ハッチ
  6
Continuous
 62
     5
100
AcDbLine
 10
28145.58980698877
 20
20298.09638930123
 30
0.0
 11
27845.58881722948
 21
20298.09638930123
 31
0.0
  0
LINE
  5
3F7
330
22
100
AcDbEntity
  8
_0-4_ハッチ
  6
Continuous
 62
     5
100
AcDbLine
 10
28145.58980698877
 20
20398.096719221
 30
0.0
 11
27845.58881722948
 21
20398.096719221
 31
0.0
  0
LINE
  5
3F8
330
22
100
AcDbEntity
  8
_0-4_ハッチ
  6
Continuous
 62
     5
100
AcDbLine
 10
28145.58980698877
 20
20498.09704914076
 30
0.0
 11
27845.58881722948
 21
20498.09704914076
 31
0.0
  0
LINE
  5
3F9
330
22
100
AcDbEntity
  8
_0-4_ハッチ
  6
Continuous
 62
     5
100
AcDbLine
 10
28145.58980698877
 20
20598.09737906052
 30
0.0
 11
27845.58881722948
 21
20598.09737906052
 31
0.0
  0
LINE
  5
3FA
330
22
100
AcDbEntity
  8
_0-4_ハッチ
  6
Continuous
 62
     5
100
AcDbLine
 10
28145.58980698877
 20
20698.09770898028
 30
0.0
 11
27845.58881722948
 21
20698.09770898028
 31
0.0
  0
LINE
  5
3FB
330
22
100
AcDbEntity
  8
_0-4_ハッチ
  6
Continuous
 62
     5
100
AcDbLine
 10
28145.58980698877
 20
20798.09803890005
 30
0.0
 11
27845.58881722948
 21
20798.09803890005
 31
0.0
  0
LINE
  5
3FC
330
22
100
AcDbEntity
  8
_0-4_ハッチ
  6
Continuous
 62
     5
100
AcDbLine
 10
28145.58980698877
 20
20898.09836881981
 30
0.0
 11
27845.58881722948
 21
20898.09836881981
 31
0.0
  0
LINE
  5
3FD
330
22
100
AcDbEntity
  8
_0-4_ハッチ
  6
Continuous
 62
     5
100
AcDbLine
 10
28145.58980698877
 20
20998.09869873957
 30
0.0
 11
27845.58881722948
 21
20998.09869873957
 31
0.0
  0
LINE
  5
3FE
330
22
100
AcDbEntity
  8
_0-4_ハッチ
  6
Continuous
 62
     5
100
AcDbLine
 10
28145.58980698877
 20
21098.09902865934
 30
0.0
 11
27845.58881722948
 21
21098.09902865934
 31
0.0
  0
LINE
  5
3FF
330
22
100
AcDbEntity
  8
_0-4_ハッチ
  6
Continuous
 62
     5
100
AcDbLine
 10
28145.58980698877
 20
21198.0993585791
 30
0.0
 11
27845.58881722948
 21
21198.0993585791
 31
0.0
  0
LINE
  5
400
330
22
100
AcDbEntity
  8
_0-4_ハッチ
  6
Continuous
 62
     5
100
AcDbLine
 10
28145.58980698877
 20
21298.09968849887
 30
0.0
 11
27845.58881722948
 21
21298.09968849887
 31
0.0
  0
LINE
  5
401
330
22
100
AcDbEntity
  8
_0-4_ハッチ
  6
Continuous
 62
     5
100
AcDbLine
 10
28145.58980698877
 20
21398.10001841863
 30
0.0
 11
27845.58881722948
 21
21398.10001841863
 31
0.0
  0
LINE
  5
402
330
22
100
AcDbEntity
  8
_0-4_ハッチ
  6
Continuous
 62
     5
100
AcDbLine
 10
28145.58980698877
 20
21498.10034833839
 30
0.0
 11
27845.58881722948
 21
21498.10034833839
 31
0.0
  0
LINE
  5
403
330
22
100
AcDbEntity
  8
_0-4_ハッチ
  6
Continuous
 62
     5
100
AcDbLine
 10
28145.58980698877
 20
21598.10067825816
 30
0.0
 11
27845.58881722948
 21
21598.10067825816
 31
0.0
  0
LINE
  5
404
330
22
100
AcDbEntity
  8
_0-4_ハッチ
  6
Continuous
 62
     5
100
AcDbLine
 10
28145.58980698877
 20
21698.10100817792
 30
0.0
 11
27845.58881722948
 21
21698.10100817792
 31
0.0
  0
LINE
  5
405
330
22
100
AcDbEntity
  8
_0-4_ハッチ
  6
Continuous
 62
     5
100
AcDbLine
 10
28145.58980698877
 20
21798.10133809768
 30
0.0
 11
27845.58881722948
 21
21798.10133809768
 31
0.0
  0
LINE
  5
406
330
22
100
AcDbEntity
  8
_0-4_ハッチ
  6
Continuous
 62
     5
100
AcDbLine
 10
28145.58980698877
 20
21898.10166801745
 30
0.0
 11
27845.58881722948
 21
21898.10166801745
 31
0.0
  0
LINE
  5
407
330
22
100
AcDbEntity
  8
_0-4_ハッチ
  6
Continuous
 62
     5
100
AcDbLine
 10
28145.58980698877
 20
21998.10199793721
 30
0.0
 11
27845.58881722948
 21
21998.10199793721
 31
0.0
  0
LINE
  5
408
330
22
100
AcDbEntity
  8
_0-4_ハッチ
  6
Continuous
 62
     5
100
AcDbLine
 10
28145.58980698877
 20
22098.10232785697
 30
0.0
 11
27845.58881722948
 21
22098.10232785697
 31
0.0
  0
LINE
  5
409
330
22
100
AcDbEntity
  8
_0-4_ハッチ
  6
Continuous
 62
     5
100
AcDbLine
 10
27995.58931210912
 20
19674.97734435296
 30
0.0
 11
27995.58931210912
 21
23514.04330851048
 31
0.0
  0
LINE
  5
40A
330
22
100
AcDbEntity
  8
_0-4_ハッチ
  6
Continuous
 62
     5
100
AcDbLine
 10
27895.58898218936
 20
19848.18274579932
 30
0.0
 11
27895.58898218936
 21
23514.04330851048
 31
0.0
  0
LINE
  5
40B
330
22
100
AcDbEntity
  8
_0-4_ハッチ
  6
Continuous
 62
     5
100
AcDbLine
 10
27795.5886522696
 20
20021.3881472457
 30
0.0
 11
27795.5886522696
 21
23514.04330851048
 31
0.0
  0
LINE
  5
40C
330
22
100
AcDbEntity
  8
_0-4_ハッチ
  6
Continuous
 62
     5
100
AcDbLine
 10
27845.58881722948
 20
20298.09515210212
 30
0.0
 11
27635.83160518345
 21
20298.09515210212
 31
0.0
  0
LINE
  5
40D
330
22
100
AcDbEntity
  8
_0-4_ハッチ
  6
Continuous
 62
     5
100
AcDbLine
 10
27845.58881722948
 20
20398.09548202188
 30
0.0
 11
27578.09647136799
 21
20398.09548202188
 31
0.0
  0
LINE
  5
40E
330
22
100
AcDbEntity
  8
_0-4_ハッチ
  6
Continuous
 62
     5
100
AcDbLine
 10
27845.58881722948
 20
20498.09581194165
 30
0.0
 11
27645.58815738995
 21
20498.09581194165
 31
0.0
  0
LINE
  5
40F
330
22
100
AcDbEntity
  8
_0-4_ハッチ
  6
Continuous
 62
     5
100
AcDbLine
 10
27845.58881722948
 20
20598.09614186141
 30
0.0
 11
27645.58815738995
 21
20598.09614186141
 31
0.0
  0
LINE
  5
410
330
22
100
AcDbEntity
  8
_0-4_ハッチ
  6
Continuous
 62
     5
100
AcDbLine
 10
27845.58881722948
 20
20698.09647178117
 30
0.0
 11
27645.58815738995
 21
20698.09647178117
 31
0.0
  0
LINE
  5
411
330
22
100
AcDbEntity
  8
_0-4_ハッチ
  6
Continuous
 62
     5
100
AcDbLine
 10
27845.58881722948
 20
20798.09680170093
 30
0.0
 11
27645.58815738995
 21
20798.09680170093
 31
0.0
  0
LINE
  5
412
330
22
100
AcDbEntity
  8
_0-4_ハッチ
  6
Continuous
 62
     5
100
AcDbLine
 10
27845.58881722948
 20
20898.0971316207
 30
0.0
 11
27645.58815738995
 21
20898.0971316207
 31
0.0
  0
LINE
  5
413
330
22
100
AcDbEntity
  8
_0-4_ハッチ
  6
Continuous
 62
     5
100
AcDbLine
 10
27845.58881722948
 20
20998.09746154047
 30
0.0
 11
27645.58815738995
 21
20998.09746154047
 31
0.0
  0
LINE
  5
414
330
22
100
AcDbEntity
  8
_0-4_ハッチ
  6
Continuous
 62
     5
100
AcDbLine
 10
27845.58881722948
 20
21098.09779146023
 30
0.0
 11
27645.58815738995
 21
21098.09779146023
 31
0.0
  0
LINE
  5
415
330
22
100
AcDbEntity
  8
_0-4_ハッチ
  6
Continuous
 62
     5
100
AcDbLine
 10
27845.58881722948
 20
21198.09812137999
 30
0.0
 11
27645.58815738995
 21
21198.09812137999
 31
0.0
  0
LINE
  5
416
330
22
100
AcDbEntity
  8
_0-4_ハッチ
  6
Continuous
 62
     5
100
AcDbLine
 10
27845.58881722948
 20
21298.09845129975
 30
0.0
 11
27645.58815738995
 21
21298.09845129975
 31
0.0
  0
LINE
  5
417
330
22
100
AcDbEntity
  8
_0-4_ハッチ
  6
Continuous
 62
     5
100
AcDbLine
 10
27845.58881722948
 20
21398.09878121952
 30
0.0
 11
27645.58815738995
 21
21398.09878121952
 31
0.0
  0
LINE
  5
418
330
22
100
AcDbEntity
  8
_0-4_ハッチ
  6
Continuous
 62
     5
100
AcDbLine
 10
27845.58881722948
 20
21498.09911113929
 30
0.0
 11
27645.58815738995
 21
21498.09911113929
 31
0.0
  0
LINE
  5
419
330
22
100
AcDbEntity
  8
_0-4_ハッチ
  6
Continuous
 62
     5
100
AcDbLine
 10
27845.58881722948
 20
21598.09944105904
 30
0.0
 11
27645.58815738995
 21
21598.09944105904
 31
0.0
  0
LINE
  5
41A
330
22
100
AcDbEntity
  8
_0-4_ハッチ
  6
Continuous
 62
     5
100
AcDbLine
 10
27845.58881722948
 20
21698.09977097881
 30
0.0
 11
27645.58815738995
 21
21698.09977097881
 31
0.0
  0
LINE
  5
41B
330
22
100
AcDbEntity
  8
_0-4_ハッチ
  6
Continuous
 62
     5
100
AcDbLine
 10
27845.58881722948
 20
21798.10010089857
 30
0.0
 11
27645.58815738995
 21
21798.10010089857
 31
0.0
  0
LINE
  5
41C
330
22
100
AcDbEntity
  8
_0-4_ハッチ
  6
Continuous
 62
     5
100
AcDbLine
 10
27845.58881722948
 20
21898.10043081833
 30
0.0
 11
27645.58815738995
 21
21898.10043081833
 31
0.0
  0
LINE
  5
41D
330
22
100
AcDbEntity
  8
_0-4_ハッチ
  6
Continuous
 62
     5
100
AcDbLine
 10
27845.58881722948
 20
21998.1007607381
 30
0.0
 11
27645.58815738995
 21
21998.1007607381
 31
0.0
  0
LINE
  5
41E
330
22
100
AcDbEntity
  8
_0-4_ハッチ
  6
Continuous
 62
     5
100
AcDbLine
 10
27845.58881722948
 20
22098.10109065786
 30
0.0
 11
27645.58815738995
 21
22098.10109065786
 31
0.0
  0
LINE
  5
41F
330
22
100
AcDbEntity
  8
_0-4_ハッチ
  6
Continuous
 62
     5
100
AcDbLine
 10
27845.58881722948
 20
22198.10018337851
 30
0.0
 11
27445.58749755042
 21
22198.10018337851
 31
0.0
  0
LINE
  5
420
330
22
100
AcDbEntity
  8
_0-4_ハッチ
  6
Continuous
 62
     5
100
AcDbLine
 10
27845.58881722948
 20
22298.10051329828
 30
0.0
 11
27445.58749755042
 21
22298.10051329828
 31
0.0
  0
LINE
  5
421
330
22
100
AcDbEntity
  8
_0-4_ハッチ
  6
Continuous
 62
     5
100
AcDbLine
 10
27845.58881722948
 20
22398.10084321804
 30
0.0
 11
27445.58749755042
 21
22398.10084321804
 31
0.0
  0
LINE
  5
422
330
22
100
AcDbEntity
  8
_0-4_ハッチ
  6
Continuous
 62
     5
100
AcDbLine
 10
27845.58881722948
 20
22498.1011731378
 30
0.0
 11
27445.58749755042
 21
22498.1011731378
 31
0.0
  0
LINE
  5
423
330
22
100
AcDbEntity
  8
_0-4_ハッチ
  6
Continuous
 62
     5
100
AcDbLine
 10
27845.58881722948
 20
22598.10150305756
 30
0.0
 11
27445.58749755042
 21
22598.10150305756
 31
0.0
  0
LINE
  5
424
330
22
100
AcDbEntity
  8
_0-4_ハッチ
  6
Continuous
 62
     5
100
AcDbLine
 10
27845.58881722948
 20
22698.10183297733
 30
0.0
 11
27445.58749755042
 21
22698.10183297733
 31
0.0
  0
LINE
  5
425
330
22
100
AcDbEntity
  8
_0-4_ハッチ
  6
Continuous
 62
     5
100
AcDbLine
 10
27845.58881722948
 20
22798.10216289709
 30
0.0
 11
27445.58749755042
 21
22798.10216289709
 31
0.0
  0
LINE
  5
426
330
22
100
AcDbEntity
  8
_0-4_ハッチ
  6
Continuous
 62
     5
100
AcDbLine
 10
27845.58881722948
 20
22898.10125561774
 30
0.0
 11
27045.58617787137
 21
22898.10125561774
 31
0.0
  0
LINE
  5
427
330
22
100
AcDbEntity
  8
_0-4_ハッチ
  6
Continuous
 62
     5
100
AcDbLine
 10
27845.58881722948
 20
22998.10158553751
 30
0.0
 11
27045.58617787137
 21
22998.10158553751
 31
0.0
  0
LINE
  5
428
330
22
100
AcDbEntity
  8
_0-4_ハッチ
  6
Continuous
 62
     5
100
AcDbLine
 10
27845.58881722948
 20
23098.10191545726
 30
0.0
 11
27045.58617787137
 21
23098.10191545726
 31
0.0
  0
LINE
  5
429
330
22
100
AcDbEntity
  8
_0-4_ハッチ
  6
Continuous
 62
     5
100
AcDbLine
 10
27845.58881722948
 20
23198.10224537703
 30
0.0
 11
27045.58617787137
 21
23198.10224537703
 31
0.0
  0
LINE
  5
42A
330
22
100
AcDbEntity
  8
_0-4_ハッチ
  6
Continuous
 62
     5
100
AcDbLine
 10
27845.58881722948
 20
23298.1025752968
 30
0.0
 11
27045.58617787137
 21
23298.1025752968
 31
0.0
  0
LINE
  5
42B
330
22
100
AcDbEntity
  8
_0-4_ハッチ
  6
Continuous
 62
     5
100
AcDbLine
 10
27695.58832234984
 20
20194.59478589118
 30
0.0
 11
27695.58832234984
 21
23514.04330851048
 31
0.0
  0
LINE
  5
42C
330
22
100
AcDbEntity
  8
_0-4_ハッチ
  6
Continuous
 62
     5
100
AcDbLine
 10
27595.58799243007
 20
20367.80018733755
 30
0.0
 11
27595.58799243007
 21
23514.04330851048
 31
0.0
  0
LINE
  5
42D
330
22
100
AcDbEntity
  8
_0-4_ハッチ
  6
Continuous
 62
     5
100
AcDbLine
 10
27645.58815738995
 20
20598.09490466229
 30
0.0
 11
27462.62620373708
 21
20598.09490466229
 31
0.0
  0
LINE
  5
42E
330
22
100
AcDbEntity
  8
_0-4_ハッチ
  6
Continuous
 62
     5
100
AcDbLine
 10
27645.58815738995
 20
20698.09523458205
 30
0.0
 11
27404.89106992162
 21
20698.09523458205
 31
0.0
  0
LINE
  5
42F
330
22
100
AcDbEntity
  8
_0-4_ハッチ
  6
Continuous
 62
     5
100
AcDbLine
 10
27645.58815738995
 20
20798.09556450182
 30
0.0
 11
27445.58749755042
 21
20798.09556450182
 31
0.0
  0
LINE
  5
430
330
22
100
AcDbEntity
  8
_0-4_ハッチ
  6
Continuous
 62
     5
100
AcDbLine
 10
27645.58815738995
 20
20898.09589442158
 30
0.0
 11
27445.58749755042
 21
20898.09589442158
 31
0.0
  0
LINE
  5
431
330
22
100
AcDbEntity
  8
_0-4_ハッチ
  6
Continuous
 62
     5
100
AcDbLine
 10
27645.58815738995
 20
20998.09622434135
 30
0.0
 11
27445.58749755042
 21
20998.09622434135
 31
0.0
  0
LINE
  5
432
330
22
100
AcDbEntity
  8
_0-4_ハッチ
  6
Continuous
 62
     5
100
AcDbLine
 10
27645.58815738995
 20
21098.09655426111
 30
0.0
 11
27445.58749755042
 21
21098.09655426111
 31
0.0
  0
LINE
  5
433
330
22
100
AcDbEntity
  8
_0-4_ハッチ
  6
Continuous
 62
     5
100
AcDbLine
 10
27645.58815738995
 20
21198.09688418087
 30
0.0
 11
27445.58749755042
 21
21198.09688418087
 31
0.0
  0
LINE
  5
434
330
22
100
AcDbEntity
  8
_0-4_ハッチ
  6
Continuous
 62
     5
100
AcDbLine
 10
27645.58815738995
 20
21298.09721410064
 30
0.0
 11
27445.58749755042
 21
21298.09721410064
 31
0.0
  0
LINE
  5
435
330
22
100
AcDbEntity
  8
_0-4_ハッチ
  6
Continuous
 62
     5
100
AcDbLine
 10
27645.58815738995
 20
21398.0975440204
 30
0.0
 11
27445.58749755042
 21
21398.0975440204
 31
0.0
  0
LINE
  5
436
330
22
100
AcDbEntity
  8
_0-4_ハッチ
  6
Continuous
 62
     5
100
AcDbLine
 10
27645.58815738995
 20
21498.09787394016
 30
0.0
 11
27445.58749755042
 21
21498.09787394016
 31
0.0
  0
LINE
  5
437
330
22
100
AcDbEntity
  8
_0-4_ハッチ
  6
Continuous
 62
     5
100
AcDbLine
 10
27645.58815738995
 20
21598.09820385993
 30
0.0
 11
27445.58749755042
 21
21598.09820385993
 31
0.0
  0
LINE
  5
438
330
22
100
AcDbEntity
  8
_0-4_ハッチ
  6
Continuous
 62
     5
100
AcDbLine
 10
27645.58815738995
 20
21698.09853377969
 30
0.0
 11
27445.58749755042
 21
21698.09853377969
 31
0.0
  0
LINE
  5
439
330
22
100
AcDbEntity
  8
_0-4_ハッチ
  6
Continuous
 62
     5
100
AcDbLine
 10
27645.58815738995
 20
21798.09886369945
 30
0.0
 11
27445.58749755042
 21
21798.09886369945
 31
0.0
  0
LINE
  5
43A
330
22
100
AcDbEntity
  8
_0-4_ハッチ
  6
Continuous
 62
     5
100
AcDbLine
 10
27645.58815738995
 20
21898.09919361922
 30
0.0
 11
27445.58749755042
 21
21898.09919361922
 31
0.0
  0
LINE
  5
43B
330
22
100
AcDbEntity
  8
_0-4_ハッチ
  6
Continuous
 62
     5
100
AcDbLine
 10
27645.58815738995
 20
21998.09952353898
 30
0.0
 11
27445.58749755042
 21
21998.09952353898
 31
0.0
  0
LINE
  5
43C
330
22
100
AcDbEntity
  8
_0-4_ハッチ
  6
Continuous
 62
     5
100
AcDbLine
 10
27645.58815738995
 20
22098.09985345875
 30
0.0
 11
27445.58749755042
 21
22098.09985345875
 31
0.0
  0
LINE
  5
43D
330
22
100
AcDbEntity
  8
_0-4_ハッチ
  6
Continuous
 62
     5
100
AcDbLine
 10
27495.5876625103
 20
20541.00558878392
 30
0.0
 11
27495.5876625103
 21
23514.04330851048
 31
0.0
  0
LINE
  5
43E
330
22
100
AcDbEntity
  8
_0-4_ハッチ
  6
Continuous
 62
     5
100
AcDbLine
 10
27395.58733259054
 20
20714.21099023028
 30
0.0
 11
27395.58733259054
 21
23514.04330851048
 31
0.0
  0
LINE
  5
43F
330
22
100
AcDbEntity
  8
_0-4_ハッチ
  6
Continuous
 62
     5
100
AcDbLine
 10
27445.58749755042
 20
20998.09498714224
 30
0.0
 11
27231.68814287348
 21
20998.09498714224
 31
0.0
  0
LINE
  5
440
330
22
100
AcDbEntity
  8
_0-4_ハッチ
  6
Continuous
 62
     5
100
AcDbLine
 10
27445.58749755042
 20
21098.095317062
 30
0.0
 11
27173.95300905803
 21
21098.095317062
 31
0.0
  0
LINE
  5
441
330
22
100
AcDbEntity
  8
_0-4_ハッチ
  6
Continuous
 62
     5
100
AcDbLine
 10
27445.58749755042
 20
21198.09564698176
 30
0.0
 11
27245.5868377109
 21
21198.09564698176
 31
0.0
  0
LINE
  5
442
330
22
100
AcDbEntity
  8
_0-4_ハッチ
  6
Continuous
 62
     5
100
AcDbLine
 10
27445.58749755042
 20
21298.09597690152
 30
0.0
 11
27245.5868377109
 21
21298.09597690152
 31
0.0
  0
LINE
  5
443
330
22
100
AcDbEntity
  8
_0-4_ハッチ
  6
Continuous
 62
     5
100
AcDbLine
 10
27445.58749755042
 20
21398.09630682129
 30
0.0
 11
27245.5868377109
 21
21398.09630682129
 31
0.0
  0
LINE
  5
444
330
22
100
AcDbEntity
  8
_0-4_ハッチ
  6
Continuous
 62
     5
100
AcDbLine
 10
27445.58749755042
 20
21498.09663674105
 30
0.0
 11
27245.5868377109
 21
21498.09663674105
 31
0.0
  0
LINE
  5
445
330
22
100
AcDbEntity
  8
_0-4_ハッチ
  6
Continuous
 62
     5
100
AcDbLine
 10
27445.58749755042
 20
21598.09696666081
 30
0.0
 11
27245.5868377109
 21
21598.09696666081
 31
0.0
  0
LINE
  5
446
330
22
100
AcDbEntity
  8
_0-4_ハッチ
  6
Continuous
 62
     5
100
AcDbLine
 10
27445.58749755042
 20
21698.09729658058
 30
0.0
 11
27245.5868377109
 21
21698.09729658058
 31
0.0
  0
LINE
  5
447
330
22
100
AcDbEntity
  8
_0-4_ハッチ
  6
Continuous
 62
     5
100
AcDbLine
 10
27445.58749755042
 20
21798.09762650034
 30
0.0
 11
27245.5868377109
 21
21798.09762650034
 31
0.0
  0
LINE
  5
448
330
22
100
AcDbEntity
  8
_0-4_ハッチ
  6
Continuous
 62
     5
100
AcDbLine
 10
27445.58749755042
 20
21898.09795642011
 30
0.0
 11
27245.5868377109
 21
21898.09795642011
 31
0.0
  0
LINE
  5
449
330
22
100
AcDbEntity
  8
_0-4_ハッチ
  6
Continuous
 62
     5
100
AcDbLine
 10
27445.58749755042
 20
21998.09828633987
 30
0.0
 11
27245.5868377109
 21
21998.09828633987
 31
0.0
  0
LINE
  5
44A
330
22
100
AcDbEntity
  8
_0-4_ハッチ
  6
Continuous
 62
     5
100
AcDbLine
 10
27445.58749755042
 20
22098.09861625963
 30
0.0
 11
27245.5868377109
 21
22098.09861625963
 31
0.0
  0
LINE
  5
44B
330
22
100
AcDbEntity
  8
_0-4_ハッチ
  6
Continuous
 62
     5
100
AcDbLine
 10
27445.58749755042
 20
22198.09770898029
 30
0.0
 11
27045.58617787137
 21
22198.09770898029
 31
0.0
  0
LINE
  5
44C
330
22
100
AcDbEntity
  8
_0-4_ハッチ
  6
Continuous
 62
     5
100
AcDbLine
 10
27445.58749755042
 20
22298.09803890005
 30
0.0
 11
27045.58617787137
 21
22298.09803890005
 31
0.0
  0
LINE
  5
44D
330
22
100
AcDbEntity
  8
_0-4_ハッチ
  6
Continuous
 62
     5
100
AcDbLine
 10
27445.58749755042
 20
22398.09836881981
 30
0.0
 11
27045.58617787137
 21
22398.09836881981
 31
0.0
  0
LINE
  5
44E
330
22
100
AcDbEntity
  8
_0-4_ハッチ
  6
Continuous
 62
     5
100
AcDbLine
 10
27445.58749755042
 20
22498.09869873957
 30
0.0
 11
27045.58617787137
 21
22498.09869873957
 31
0.0
  0
LINE
  5
44F
330
22
100
AcDbEntity
  8
_0-4_ハッチ
  6
Continuous
 62
     5
100
AcDbLine
 10
27445.58749755042
 20
22598.09902865934
 30
0.0
 11
27045.58617787137
 21
22598.09902865934
 31
0.0
  0
LINE
  5
450
330
22
100
AcDbEntity
  8
_0-4_ハッチ
  6
Continuous
 62
     5
100
AcDbLine
 10
27445.58749755042
 20
22698.0993585791
 30
0.0
 11
27045.58617787137
 21
22698.0993585791
 31
0.0
  0
LINE
  5
451
330
22
100
AcDbEntity
  8
_0-4_ハッチ
  6
Continuous
 62
     5
100
AcDbLine
 10
27445.58749755042
 20
22798.09968849887
 30
0.0
 11
27045.58617787137
 21
22798.09968849887
 31
0.0
  0
LINE
  5
452
330
22
100
AcDbEntity
  8
_0-4_ハッチ
  6
Continuous
 62
     5
100
AcDbLine
 10
27445.58749755042
 20
23398.10290521656
 30
0.0
 11
26545.58452827255
 21
23398.10290521656
 31
0.0
  0
LINE
  5
453
330
22
100
AcDbEntity
  8
_0-4_ハッチ
  6
Continuous
 62
     5
100
AcDbLine
 10
27295.58700267078
 20
20887.41762887577
 30
0.0
 11
27295.58700267078
 21
23514.04330851048
 31
0.0
  0
LINE
  5
454
330
22
100
AcDbEntity
  8
_0-4_ハッチ
  6
Continuous
 62
     5
100
AcDbLine
 10
27195.58667275101
 20
21060.62303032213
 30
0.0
 11
27195.58667275101
 21
23514.04330851048
 31
0.0
  0
LINE
  5
455
330
22
100
AcDbEntity
  8
_0-4_ハッチ
  6
Continuous
 62
     5
100
AcDbLine
 10
27245.5868377109
 20
21298.09473970242
 30
0.0
 11
27058.48274142711
 21
21298.09473970242
 31
0.0
  0
LINE
  5
456
330
22
100
AcDbEntity
  8
_0-4_ハッチ
  6
Continuous
 62
     5
100
AcDbLine
 10
27245.5868377109
 20
21398.09506962218
 30
0.0
 11
27000.74760761165
 21
21398.09506962218
 31
0.0
  0
LINE
  5
457
330
22
100
AcDbEntity
  8
_0-4_ハッチ
  6
Continuous
 62
     5
100
AcDbLine
 10
27245.5868377109
 20
21498.09539954194
 30
0.0
 11
27045.58617787137
 21
21498.09539954194
 31
0.0
  0
LINE
  5
458
330
22
100
AcDbEntity
  8
_0-4_ハッチ
  6
Continuous
 62
     5
100
AcDbLine
 10
27245.5868377109
 20
21598.09572946171
 30
0.0
 11
27045.58617787137
 21
21598.09572946171
 31
0.0
  0
LINE
  5
459
330
22
100
AcDbEntity
  8
_0-4_ハッチ
  6
Continuous
 62
     5
100
AcDbLine
 10
27245.5868377109
 20
21698.09605938147
 30
0.0
 11
27045.58617787137
 21
21698.09605938147
 31
0.0
  0
LINE
  5
45A
330
22
100
AcDbEntity
  8
_0-4_ハッチ
  6
Continuous
 62
     5
100
AcDbLine
 10
27245.5868377109
 20
21798.09638930123
 30
0.0
 11
27045.58617787137
 21
21798.09638930123
 31
0.0
  0
LINE
  5
45B
330
22
100
AcDbEntity
  8
_0-4_ハッチ
  6
Continuous
 62
     5
100
AcDbLine
 10
27245.5868377109
 20
21898.096719221
 30
0.0
 11
27045.58617787137
 21
21898.096719221
 31
0.0
  0
LINE
  5
45C
330
22
100
AcDbEntity
  8
_0-4_ハッチ
  6
Continuous
 62
     5
100
AcDbLine
 10
27245.5868377109
 20
21998.09704914076
 30
0.0
 11
27045.58617787137
 21
21998.09704914076
 31
0.0
  0
LINE
  5
45D
330
22
100
AcDbEntity
  8
_0-4_ハッチ
  6
Continuous
 62
     5
100
AcDbLine
 10
27245.5868377109
 20
22098.09737906052
 30
0.0
 11
27045.58617787137
 21
22098.09737906052
 31
0.0
  0
LINE
  5
45E
330
22
100
AcDbEntity
  8
_0-4_ハッチ
  6
Continuous
 62
     5
100
AcDbLine
 10
27095.58634283125
 20
21233.82843176849
 30
0.0
 11
27095.58634283125
 21
23514.04330851048
 31
0.0
  0
LINE
  5
45F
330
22
100
AcDbEntity
  8
_0-4_ハッチ
  6
Continuous
 62
     5
100
AcDbLine
 10
26995.58601291148
 20
21407.03507041398
 30
0.0
 11
26995.58601291148
 21
23514.04330851048
 31
0.0
  0
LINE
  5
460
330
22
100
AcDbEntity
  8
_0-4_ハッチ
  6
Continuous
 62
     5
100
AcDbLine
 10
27045.58617787137
 20
21698.09482218236
 30
0.0
 11
26827.54220616529
 21
21698.09482218236
 31
0.0
  0
LINE
  5
461
330
22
100
AcDbEntity
  8
_0-4_ハッチ
  6
Continuous
 62
     5
100
AcDbLine
 10
27045.58617787137
 20
21898.09548202188
 30
0.0
 11
26712.07193853438
 21
21898.09548202188
 31
0.0
  0
LINE
  5
462
330
22
100
AcDbEntity
  8
_0-4_ハッチ
  6
Continuous
 62
     5
100
AcDbLine
 10
27045.58617787137
 20
21998.09581194165
 30
0.0
 11
26745.58518811208
 21
21998.09581194165
 31
0.0
  0
LINE
  5
463
330
22
100
AcDbEntity
  8
_0-4_ハッチ
  6
Continuous
 62
     5
100
AcDbLine
 10
27045.58617787137
 20
22098.0961418614
 30
0.0
 11
26745.58518811208
 21
22098.0961418614
 31
0.0
  0
LINE
  5
464
330
22
100
AcDbEntity
  8
_0-4_ハッチ
  6
Continuous
 62
     5
100
AcDbLine
 10
27045.58617787137
 20
22198.09523458206
 30
0.0
 11
26538.866537088
 21
22198.09523458206
 31
0.0
  0
LINE
  5
465
330
22
100
AcDbEntity
  8
_0-4_ハッチ
  6
Continuous
 62
     5
100
AcDbLine
 10
27045.58617787137
 20
22298.09556450183
 30
0.0
 11
26481.13140327255
 21
22298.09556450183
 31
0.0
  0
LINE
  5
466
330
22
100
AcDbEntity
  8
_0-4_ハッチ
  6
Continuous
 62
     5
100
AcDbLine
 10
27045.58617787137
 20
22398.09589442158
 30
0.0
 11
26545.58452827255
 21
22398.09589442158
 31
0.0
  0
LINE
  5
467
330
22
100
AcDbEntity
  8
_0-4_ハッチ
  6
Continuous
 62
     5
100
AcDbLine
 10
27045.58617787137
 20
22498.09622434135
 30
0.0
 11
26545.58452827255
 21
22498.09622434135
 31
0.0
  0
LINE
  5
468
330
22
100
AcDbEntity
  8
_0-4_ハッチ
  6
Continuous
 62
     5
100
AcDbLine
 10
27045.58617787137
 20
22598.09655426111
 30
0.0
 11
26545.58452827255
 21
22598.09655426111
 31
0.0
  0
LINE
  5
469
330
22
100
AcDbEntity
  8
_0-4_ハッチ
  6
Continuous
 62
     5
100
AcDbLine
 10
27045.58617787137
 20
22698.09688418088
 30
0.0
 11
26545.58452827255
 21
22698.09688418088
 31
0.0
  0
LINE
  5
46A
330
22
100
AcDbEntity
  8
_0-4_ハッチ
  6
Continuous
 62
     5
100
AcDbLine
 10
27045.58617787137
 20
22798.09721410064
 30
0.0
 11
26545.58452827255
 21
22798.09721410064
 31
0.0
  0
LINE
  5
46B
330
22
100
AcDbEntity
  8
_0-4_ハッチ
  6
Continuous
 62
     5
100
AcDbLine
 10
27045.58617787137
 20
22898.09630682129
 30
0.0
 11
26134.72307477804
 21
22898.09630682129
 31
0.0
  0
LINE
  5
46C
330
22
100
AcDbEntity
  8
_0-4_ハッチ
  6
Continuous
 62
     5
100
AcDbLine
 10
27045.58617787137
 20
22998.09663674105
 30
0.0
 11
26076.98794096259
 21
22998.09663674105
 31
0.0
  0
LINE
  5
46D
330
22
100
AcDbEntity
  8
_0-4_ハッチ
  6
Continuous
 62
     5
100
AcDbLine
 10
27045.58617787137
 20
23098.09696666081
 30
0.0
 11
26019.25280714713
 21
23098.09696666081
 31
0.0
  0
LINE
  5
46E
330
22
100
AcDbEntity
  8
_0-4_ハッチ
  6
Continuous
 62
     5
100
AcDbLine
 10
27045.58617787137
 20
23198.09729658058
 30
0.0
 11
26045.58287867374
 21
23198.09729658058
 31
0.0
  0
LINE
  5
46F
330
22
100
AcDbEntity
  8
_0-4_ハッチ
  6
Continuous
 62
     5
100
AcDbLine
 10
27045.58617787137
 20
23298.09762650034
 30
0.0
 11
26045.58287867374
 21
23298.09762650034
 31
0.0
  0
LINE
  5
470
330
22
100
AcDbEntity
  8
_0-4_ハッチ
  6
Continuous
 62
     5
100
AcDbLine
 10
26895.58568299172
 20
21580.24047186036
 30
0.0
 11
26895.58568299172
 21
23514.04330851048
 31
0.0
  0
LINE
  5
471
330
22
100
AcDbEntity
  8
_0-4_ハッチ
  6
Continuous
 62
     5
100
AcDbLine
 10
27045.58617787137
 20
21798.09515210212
 30
0.0
 11
26769.80707234984
 21
21798.09515210212
 31
0.0
  0
LINE
  5
472
330
22
100
AcDbEntity
  8
_0-4_ハッチ
  6
Continuous
 62
     5
100
AcDbLine
 10
26795.58535307196
 20
21753.44587330672
 30
0.0
 11
26795.58535307196
 21
23514.04330851048
 31
0.0
  0
LINE
  5
473
330
22
100
AcDbEntity
  8
_0-4_ハッチ
  6
Continuous
 62
     5
100
AcDbLine
 10
26695.5850231522
 20
21926.6525119522
 30
0.0
 11
26695.5850231522
 21
23514.04330851048
 31
0.0
  0
LINE
  5
474
330
22
100
AcDbEntity
  8
_0-4_ハッチ
  6
Continuous
 62
     5
100
AcDbLine
 10
26595.58469323243
 20
22099.85667619945
 30
0.0
 11
26595.58469323243
 21
23514.04330851048
 31
0.0
  0
LINE
  5
475
330
22
100
AcDbEntity
  8
_0-4_ハッチ
  6
Continuous
 62
     5
100
AcDbLine
 10
26495.58436331266
 20
22273.06455204405
 30
0.0
 11
26495.58436331266
 21
23514.04330851048
 31
0.0
  0
LINE
  5
476
330
22
100
AcDbEntity
  8
_0-4_ハッチ
  6
Continuous
 62
     5
100
AcDbLine
 10
26545.58452827255
 20
22498.09374994312
 30
0.0
 11
26365.66361003986
 21
22498.09374994312
 31
0.0
  0
LINE
  5
477
330
22
100
AcDbEntity
  8
_0-4_ハッチ
  6
Continuous
 62
     5
100
AcDbLine
 10
26545.58452827255
 20
22598.09407986289
 30
0.0
 11
26307.92847622441
 21
22598.09407986289
 31
0.0
  0
LINE
  5
478
330
22
100
AcDbEntity
  8
_0-4_ハッチ
  6
Continuous
 62
     5
100
AcDbLine
 10
26545.58452827255
 20
22698.09440978265
 30
0.0
 11
26250.19334240895
 21
22698.09440978265
 31
0.0
  0
LINE
  5
479
330
22
100
AcDbEntity
  8
_0-4_ハッチ
  6
Continuous
 62
     5
100
AcDbLine
 10
26545.58452827255
 20
22798.09473970241
 30
0.0
 11
26192.45573419528
 21
22798.09473970241
 31
0.0
  0
LINE
  5
47A
330
22
100
AcDbEntity
  8
_0-4_ハッチ
  6
Continuous
 62
     5
100
AcDbLine
 10
26545.58452827255
 20
23398.09795642011
 30
0.0
 11
25846.04740570076
 21
23398.09795642011
 31
0.0
  0
LINE
  5
47B
330
22
100
AcDbEntity
  8
_0-4_ハッチ
  6
Continuous
 62
     5
100
AcDbLine
 10
26395.58403339291
 20
22446.26747909221
 30
0.0
 11
26395.58403339291
 21
23514.04330851048
 31
0.0
  0
LINE
  5
47C
330
22
100
AcDbEntity
  8
_0-4_ハッチ
  6
Continuous
 62
     5
100
AcDbLine
 10
26295.58370347314
 20
22619.47535493679
 30
0.0
 11
26295.58370347314
 21
23514.04330851048
 31
0.0
  0
LINE
  5
47D
330
22
100
AcDbEntity
  8
_0-4_ハッチ
  6
Continuous
 62
     5
100
AcDbLine
 10
26195.58337355339
 20
22792.68075638315
 30
0.0
 11
26195.58337355339
 21
23514.04330851048
 31
0.0
  0
LINE
  5
47E
330
22
100
AcDbEntity
  8
_0-4_ハッチ
  6
Continuous
 62
     5
100
AcDbLine
 10
26095.58304363361
 20
22965.88492063041
 30
0.0
 11
26095.58304363361
 21
23514.04330851048
 31
0.0
  0
LINE
  5
47F
330
22
100
AcDbEntity
  8
_0-4_ハッチ
  6
Continuous
 62
     5
100
AcDbLine
 10
25995.58271371385
 20
23139.09279647501
 30
0.0
 11
25995.58271371385
 21
23514.04330851048
 31
0.0
  0
LINE
  5
480
330
22
100
AcDbEntity
  8
_0-2_メッセン
  6
Continuous
 62
     6
100
AcDbLine
 10
28149.64782007999
 20
19764.03959691314
 30
0.0
 11
28149.64782007999
 21
19408.13947682234
 31
0.0
  0
LINE
  5
481
330
22
100
AcDbEntity
  8
_0-4_ハッチ
  6
Continuous
 62
     5
100
AcDbLine
 10
30145.59640538404
 20
16098.09490466229
 30
0.0
 11
30060.70227663615
 21
16098.09490466229
 31
0.0
  0
LINE
  5
482
330
22
100
AcDbEntity
  8
_0-4_ハッチ
  6
Continuous
 62
     5
100
AcDbLine
 10
30145.59640538404
 20
16198.09523458206
 30
0.0
 11
30002.9671428207
 21
16198.09523458206
 31
0.0
  0
LINE
  5
483
330
22
100
AcDbEntity
  8
_0-4_ハッチ
  6
Continuous
 62
     5
100
AcDbLine
 10
30045.59607546429
 20
16298.0943273027
 30
0.0
 11
29945.23200900523
 21
16298.0943273027
 31
0.0
  0
LINE
  5
484
330
22
100
AcDbEntity
  8
_0-4_ハッチ
  6
Continuous
 62
     5
100
AcDbLine
 10
30045.59607546429
 20
16398.09465722247
 30
0.0
 11
29887.49687518979
 21
16398.09465722247
 31
0.0
  0
LINE
  5
485
330
22
100
AcDbEntity
  8
_0-4_ハッチ
  6
Continuous
 62
     5
100
AcDbLine
 10
29845.59541562475
 20
16698.09440978265
 30
0.0
 11
29714.29394814165
 21
16698.09440978265
 31
0.0
  0
LINE
  5
486
330
22
100
AcDbEntity
  8
_0-4_ハッチ
  6
Continuous
 62
     5
100
AcDbLine
 10
29645.59475578522
 20
16998.09416234282
 30
0.0
 11
29541.08854669528
 21
16998.09416234282
 31
0.0
  0
LINE
  5
487
330
22
100
AcDbEntity
  8
_0-4_ハッチ
  6
Continuous
 62
     5
100
AcDbLine
 10
29345.59376602593
 20
17498.09457474253
 30
0.0
 11
29252.41287761799
 21
17498.09457474253
 31
0.0
  0
LINE
  5
488
330
22
100
AcDbEntity
  8
_0-4_ハッチ
  6
Continuous
 62
     5
100
AcDbLine
 10
29345.59376602593
 20
17598.09490466229
 30
0.0
 11
29194.67774380254
 21
17598.09490466229
 31
0.0
  0
LINE
  5
489
330
22
100
AcDbEntity
  8
_0-4_ハッチ
  6
Continuous
 62
     5
100
AcDbLine
 10
29145.59310618641
 20
17898.09465722247
 30
0.0
 11
29021.47234235617
 21
17898.09465722247
 31
0.0
  0
LINE
  5
48A
330
22
100
AcDbEntity
  8
_0-4_ハッチ
  6
Continuous
 62
     5
100
AcDbLine
 10
28945.59244634688
 20
18198.09440978265
 30
0.0
 11
28848.2669409098
 21
18198.09440978265
 31
0.0
  0
LINE
  5
48B
330
22
100
AcDbEntity
  8
_0-4_ハッチ
  6
Continuous
 62
     5
100
AcDbLine
 10
28945.59244634688
 20
18298.09473970241
 30
0.0
 11
28790.53180709435
 21
18298.09473970241
 31
0.0
  0
LINE
  5
48C
330
22
100
AcDbEntity
  8
_0-4_ハッチ
  6
Continuous
 62
     5
100
AcDbLine
 10
28745.59178650735
 20
18598.09449226259
 30
0.0
 11
28617.3288800462
 21
18598.09449226259
 31
0.0
  0
LINE
  5
48D
330
22
100
AcDbEntity
  8
_0-4_ハッチ
  6
Continuous
 62
     5
100
AcDbLine
 10
28545.59112666782
 20
18898.09424482276
 30
0.0
 11
28444.12347859984
 21
18898.09424482276
 31
0.0
  0
LINE
  5
48E
330
22
100
AcDbEntity
  8
_0-4_ハッチ
  6
Continuous
 62
     5
100
AcDbLine
 10
28545.59112666782
 20
18998.09457474253
 30
0.0
 11
28386.38834478438
 21
18998.09457474253
 31
0.0
  0
LINE
  5
48F
330
22
100
AcDbEntity
  8
_0-4_ハッチ
  6
Continuous
 62
     5
100
AcDbLine
 10
28245.59013690853
 20
19398.09465722247
 30
0.0
 11
28155.44780952255
 21
19398.09465722247
 31
0.0
  0
LINE
  5
490
330
22
100
AcDbEntity
  8
_0-4_ハッチ
  6
Continuous
 62
     5
100
AcDbLine
 10
28245.59013690853
 20
19498.09498714223
 30
0.0
 11
28097.71267570709
 21
19498.09498714223
 31
0.0
  0
LINE
  5
491
330
22
100
AcDbEntity
  8
_0-4_ハッチ
  6
Continuous
 62
     5
100
AcDbLine
 10
28145.58980698877
 20
19598.09407986289
 30
0.0
 11
28039.97754189165
 21
19598.09407986289
 31
0.0
  0
LINE
  5
492
330
22
100
AcDbEntity
  8
_0-4_ハッチ
  6
Continuous
 62
     5
100
AcDbLine
 10
28145.58980698877
 20
19698.09440978265
 30
0.0
 11
27982.24240807618
 21
19698.09440978265
 31
0.0
  0
LINE
  5
493
330
22
100
AcDbEntity
  8
_0-4_ハッチ
  6
Continuous
 62
     5
100
AcDbLine
 10
27845.58881722948
 20
20098.09449226259
 30
0.0
 11
27751.30187281436
 21
20098.09449226259
 31
0.0
  0
LINE
  5
494
330
22
100
AcDbEntity
  8
_0-4_ハッチ
  6
Continuous
 62
     5
100
AcDbLine
 10
27845.58881722948
 20
20198.09482218235
 30
0.0
 11
27693.56673899891
 21
20198.09482218235
 31
0.0
  0
LINE
  5
495
330
22
100
AcDbEntity
  8
_0-4_ハッチ
  6
Continuous
 62
     5
100
AcDbLine
 10
27645.58815738995
 20
20498.09457474253
 30
0.0
 11
27520.36133755253
 21
20498.09457474253
 31
0.0
  0
LINE
  5
496
330
22
100
AcDbEntity
  8
_0-4_ハッチ
  6
Continuous
 62
     5
100
AcDbLine
 10
27445.58749755042
 20
20798.09432730271
 30
0.0
 11
27347.15841050439
 21
20798.09432730271
 31
0.0
  0
LINE
  5
497
330
22
100
AcDbEntity
  8
_0-4_ハッチ
  6
Continuous
 62
     5
100
AcDbLine
 10
27445.58749755042
 20
20898.09465722248
 30
0.0
 11
27289.42327668894
 21
20898.09465722248
 31
0.0
  0
LINE
  5
498
330
22
100
AcDbEntity
  8
_0-4_ハッチ
  6
Continuous
 62
     5
100
AcDbLine
 10
27245.5868377109
 20
21198.09440978265
 30
0.0
 11
27116.21787524257
 21
21198.09440978265
 31
0.0
  0
LINE
  5
499
330
22
100
AcDbEntity
  8
_0-4_ハッチ
  6
Continuous
 62
     5
100
AcDbLine
 10
27045.58617787137
 20
21498.09416234283
 30
0.0
 11
26943.0124737962
 21
21498.09416234283
 31
0.0
  0
LINE
  5
49A
330
22
100
AcDbEntity
  8
_0-4_ハッチ
  6
Continuous
 62
     5
100
AcDbLine
 10
27045.58617787137
 20
21598.09449226259
 30
0.0
 11
26885.27733998074
 21
21598.09449226259
 31
0.0
  0
LINE
  5
49B
330
22
100
AcDbEntity
  8
_0-4_ハッチ
  6
Continuous
 62
     5
100
AcDbLine
 10
26745.58518811208
 20
21998.09457474253
 30
0.0
 11
26654.33680471892
 21
21998.09457474253
 31
0.0
  0
LINE
  5
49C
330
22
100
AcDbEntity
  8
_0-4_ハッチ
  6
Continuous
 62
     5
100
AcDbLine
 10
26745.58518811208
 20
22098.09490466229
 30
0.0
 11
26596.60167090347
 21
22098.09490466229
 31
0.0
  0
LINE
  5
49D
330
22
100
AcDbEntity
  8
_0-4_ハッチ
  6
Continuous
 62
     5
100
AcDbLine
 10
26545.58452827255
 20
22398.09342002336
 30
0.0
 11
26423.39874385533
 21
22398.09342002336
 31
0.0
  0
LINE
  5
49E
330
22
100
AcDbEntity
  8
_0-4_ハッチ
  6
Continuous
 62
     5
100
AcDbLine
 10
26045.58287867374
 20
23198.09234778412
 30
0.0
 11
25961.51767333167
 21
23198.09234778412
 31
0.0
  0
LINE
  5
49F
330
22
100
AcDbEntity
  8
_0-4_ハッチ
  6
Continuous
 62
     5
100
AcDbLine
 10
26045.58287867374
 20
23298.09267770389
 30
0.0
 11
25903.78253951623
 21
23298.09267770389
 31
0.0
  0
LINE
  5
4A0
330
22
100
AcDbEntity
  8
_0-4_ハッチ
  6
Continuous
 62
     5
100
AcDbLine
 10
25895.58238379409
 20
23312.29572352315
 30
0.0
 11
25895.58238379409
 21
23514.04330851048
 31
0.0
  0
LINE
  5
4A1
330
22
100
AcDbEntity
  8
_0-4_ハッチ
  6
Continuous
 62
     5
100
AcDbLine
 10
29645.59475578522
 20
17098.09449226259
 30
0.0
 11
29483.35341287981
 21
17098.09449226259
 31
0.0
  0
LINE
  5
4A2
330
22
100
AcDbEntity
  8
_0-4_ハッチ
  6
Continuous
 62
     5
100
AcDbLine
 10
7149.647820079987
 20
19749.03979486499
 30
0.0
 11
9346.465579001016
 21
15944.03887108966
 31
0.0
  0
LINE
  5
4A3
330
22
100
AcDbEntity
  8
_0-4_ハッチ
  6
Continuous
 62
     5
100
AcDbLine
 10
7149.647820079987
 20
15998.09581194164
 30
0.0
 11
9315.255994172042
 21
15998.09581194164
 31
0.0
  0
LINE
  5
4A4
330
22
100
AcDbEntity
  8
_0-4_ハッチ
  6
Continuous
 62
     5
100
AcDbLine
 10
7595.593766025931
 20
15944.03887108966
 30
0.0
 11
7595.593766025931
 21
18976.63783052272
 31
0.0
  0
LINE
  5
4A5
330
22
100
AcDbEntity
  8
_0-4_ハッチ
  6
Continuous
 62
     5
100
AcDbLine
 10
8295.593601066052
 20
15948.09564698176
 30
0.0
 11
8295.593601066052
 21
17764.2049691946
 31
0.0
  0
LINE
  5
4A6
330
22
100
AcDbEntity
  8
_0-4_ハッチ
  6
Continuous
 62
     5
100
AcDbLine
 10
8395.591456587585
 20
15948.09564698176
 30
0.0
 11
8395.591456587585
 21
17591.00080494734
 31
0.0
  0
LINE
  5
4A7
330
22
100
AcDbEntity
  8
_0-4_ハッチ
  6
Continuous
 62
     5
100
AcDbLine
 10
8495.59178650735
 20
15948.09564698176
 30
0.0
 11
8495.59178650735
 21
17417.79540350098
 31
0.0
  0
LINE
  5
4A8
330
22
100
AcDbEntity
  8
_0-4_ハッチ
  6
Continuous
 62
     5
100
AcDbLine
 10
8595.592116427114
 20
15948.09564698176
 30
0.0
 11
8595.592116427114
 21
17244.59123925372
 31
0.0
  0
LINE
  5
4A9
330
22
100
AcDbEntity
  8
_0-4_ハッチ
  6
Continuous
 62
     5
100
AcDbLine
 10
8695.589971948649
 20
15948.09564698176
 30
0.0
 11
8695.589971948649
 21
17071.38707500647
 31
0.0
  0
LINE
  5
4AA
330
22
100
AcDbEntity
  8
_0-4_ハッチ
  6
Continuous
 62
     5
100
AcDbLine
 10
8795.590301868415
 20
15948.09564698176
 30
0.0
 11
8795.590301868415
 21
16898.1816735601
 31
0.0
  0
LINE
  5
4AB
330
22
100
AcDbEntity
  8
_0-4_ハッチ
  6
Continuous
 62
     5
100
AcDbLine
 10
8895.590631788177
 20
15948.09564698176
 30
0.0
 11
8895.590631788177
 21
16724.97750931284
 31
0.0
  0
LINE
  5
4AC
330
22
100
AcDbEntity
  8
_0-4_ハッチ
  6
Continuous
 62
     5
100
AcDbLine
 10
7295.595250664867
 20
15944.03887108966
 30
0.0
 11
7295.595250664867
 21
19496.2515604636
 31
0.0
  0
LINE
  5
4AD
330
22
100
AcDbEntity
  8
_0-4_ハッチ
  6
Continuous
 62
     5
100
AcDbLine
 10
7149.647820079987
 20
16098.09614186141
 30
0.0
 11
9257.520860356589
 21
16098.09614186141
 31
0.0
  0
LINE
  5
4AE
330
22
100
AcDbEntity
  8
_0-4_ハッチ
  6
Continuous
 62
     5
100
AcDbLine
 10
7395.59558058463
 20
15944.03887108966
 30
0.0
 11
7395.59558058463
 21
19323.04739621635
 31
0.0
  0
LINE
  5
4AF
330
22
100
AcDbEntity
  8
_0-4_ハッチ
  6
Continuous
 62
     5
100
AcDbLine
 10
7495.595910504395
 20
15944.03887108966
 30
0.0
 11
7495.595910504395
 21
19149.84199476998
 31
0.0
  0
LINE
  5
4B0
330
22
100
AcDbEntity
  8
_0-4_ハッチ
  6
Continuous
 62
     5
100
AcDbLine
 10
7695.594095945695
 20
15944.03887108966
 30
0.0
 11
7695.594095945695
 21
18803.43242907636
 31
0.0
  0
LINE
  5
4B1
330
22
100
AcDbEntity
  8
_0-4_ハッチ
  6
Continuous
 62
     5
100
AcDbLine
 10
7795.594425865463
 20
15944.03887108966
 30
0.0
 11
7795.594425865463
 21
18630.2282648291
 31
0.0
  0
LINE
  5
4B2
330
22
100
AcDbEntity
  8
_0-4_ハッチ
  6
Continuous
 62
     5
100
AcDbLine
 10
7895.592281386995
 20
15944.03887108966
 30
0.0
 11
7895.592281386995
 21
18457.02410058185
 31
0.0
  0
LINE
  5
4B3
330
22
100
AcDbEntity
  8
_0-4_ハッチ
  6
Continuous
 62
     5
100
AcDbLine
 10
7995.592611306759
 20
15944.03887108966
 30
0.0
 11
7995.592611306759
 21
18283.81869913548
 31
0.0
  0
LINE
  5
4B4
330
22
100
AcDbEntity
  8
_0-4_ハッチ
  6
Continuous
 62
     5
100
AcDbLine
 10
8095.592941226522
 20
15944.03887108966
 30
0.0
 11
8095.592941226522
 21
18110.61453488822
 31
0.0
  0
LINE
  5
4B5
330
22
100
AcDbEntity
  8
_0-4_ハッチ
  6
Continuous
 62
     5
100
AcDbLine
 10
8195.593271146284
 20
15944.03887108966
 30
0.0
 11
8195.593271146284
 21
17937.41037064096
 31
0.0
  0
LINE
  5
4B6
330
22
100
AcDbEntity
  8
_0-4_ハッチ
  6
Continuous
 62
     5
100
AcDbLine
 10
8995.590961707941
 20
15944.03887108966
 30
0.0
 11
8995.590961707941
 21
16551.77210786647
 31
0.0
  0
LINE
  5
4B7
330
22
100
AcDbEntity
  8
_0-4_ハッチ
  6
Continuous
 62
     5
100
AcDbLine
 10
7149.647820079987
 20
16198.09647178117
 30
0.0
 11
9199.785726541136
 21
16198.09647178117
 31
0.0
  0
LINE
  5
4B8
330
22
100
AcDbEntity
  8
_0-4_ハッチ
  6
Continuous
 62
     5
100
AcDbLine
 10
9095.591291627707
 20
15944.03887108966
 30
0.0
 11
9095.591291627707
 21
16378.56794361922
 31
0.0
  0
LINE
  5
4B9
330
22
100
AcDbEntity
  8
_0-4_ハッチ
  6
Continuous
 62
     5
100
AcDbLine
 10
7149.647820079987
 20
16398.0971316207
 30
0.0
 11
9084.31545891022
 21
16398.0971316207
 31
0.0
  0
LINE
  5
4BA
330
22
100
AcDbEntity
  8
_0-4_ハッチ
  6
Continuous
 62
     5
100
AcDbLine
 10
7149.647820079987
 20
16498.09746154046
 30
0.0
 11
9026.580325094766
 21
16498.09746154046
 31
0.0
  0
LINE
  5
4BB
330
22
100
AcDbEntity
  8
_0-4_ハッチ
  6
Continuous
 62
     5
100
AcDbLine
 10
7149.647820079987
 20
16598.09779146022
 30
0.0
 11
8968.845191279308
 21
16598.09779146022
 31
0.0
  0
LINE
  5
4BC
330
22
100
AcDbEntity
  8
_0-4_ハッチ
  6
Continuous
 62
     5
100
AcDbLine
 10
7149.647820079987
 20
16698.09812137999
 30
0.0
 11
8911.110057463853
 21
16698.09812137999
 31
0.0
  0
LINE
  5
4BD
330
22
100
AcDbEntity
  8
_0-4_ハッチ
  6
Continuous
 62
     5
100
AcDbLine
 10
7149.647820079987
 20
16798.09845129975
 30
0.0
 11
8853.374923648397
 21
16798.09845129975
 31
0.0
  0
LINE
  5
4BE
330
22
100
AcDbEntity
  8
_0-4_ハッチ
  6
Continuous
 62
     5
100
AcDbLine
 10
7149.647820079987
 20
16898.09878121951
 30
0.0
 11
8795.639789832941
 21
16898.09878121951
 31
0.0
  0
LINE
  5
4BF
330
22
100
AcDbEntity
  8
_0-4_ハッチ
  6
Continuous
 62
     5
100
AcDbLine
 10
7149.647820079987
 20
16998.09911113928
 30
0.0
 11
8737.904656017484
 21
16998.09911113928
 31
0.0
  0
LINE
  5
4C0
330
22
100
AcDbEntity
  8
_0-4_ハッチ
  6
Continuous
 62
     5
100
AcDbLine
 10
7149.647820079987
 20
17098.09944105904
 30
0.0
 11
8680.169522202028
 21
17098.09944105904
 31
0.0
  0
LINE
  5
4C1
330
22
100
AcDbEntity
  8
_0-4_ハッチ
  6
Continuous
 62
     5
100
AcDbLine
 10
7149.647820079987
 20
17198.0997709788
 30
0.0
 11
8622.431913988346
 21
17198.0997709788
 31
0.0
  0
LINE
  5
4C2
330
22
100
AcDbEntity
  8
_0-4_ハッチ
  6
Continuous
 62
     5
100
AcDbLine
 10
7149.647820079987
 20
17298.10010089857
 30
0.0
 11
8564.699254571117
 21
17298.10010089857
 31
0.0
  0
LINE
  5
4C3
330
22
100
AcDbEntity
  8
_0-4_ハッチ
  6
Continuous
 62
     5
100
AcDbLine
 10
7149.647820079987
 20
17398.10043081833
 30
0.0
 11
8506.961646357433
 21
17398.10043081833
 31
0.0
  0
LINE
  5
4C4
330
22
100
AcDbEntity
  8
_0-4_ハッチ
  6
Continuous
 62
     5
100
AcDbLine
 10
7149.647820079987
 20
17498.1007607381
 30
0.0
 11
8449.228986940203
 21
17498.1007607381
 31
0.0
  0
LINE
  5
4C5
330
22
100
AcDbEntity
  8
_0-4_ハッチ
  6
Continuous
 62
     5
100
AcDbLine
 10
7149.647820079987
 20
17598.10109065786
 30
0.0
 11
8391.491378726522
 21
17598.10109065786
 31
0.0
  0
LINE
  5
4C6
330
22
100
AcDbEntity
  8
_0-4_ハッチ
  6
Continuous
 62
     5
100
AcDbLine
 10
7149.647820079987
 20
17698.10142057762
 30
0.0
 11
8333.758719309292
 21
17698.10142057762
 31
0.0
  0
LINE
  5
4C7
330
22
100
AcDbEntity
  8
_0-4_ハッチ
  6
Continuous
 62
     5
100
AcDbLine
 10
7149.647820079987
 20
17798.10175049738
 30
0.0
 11
8276.021111095609
 21
17798.10175049738
 31
0.0
  0
LINE
  5
4C8
330
22
100
AcDbEntity
  8
_0-4_ハッチ
  6
Continuous
 62
     5
100
AcDbLine
 10
7149.647820079987
 20
17898.10208041715
 30
0.0
 11
8218.288451678381
 21
17898.10208041715
 31
0.0
  0
LINE
  5
4C9
330
22
100
AcDbEntity
  8
_0-4_ハッチ
  6
Continuous
 62
     5
100
AcDbLine
 10
7149.647820079987
 20
17998.10241033692
 30
0.0
 11
8160.550843464697
 21
17998.10241033692
 31
0.0
  0
LINE
  5
4CA
330
22
100
AcDbEntity
  8
_0-4_ハッチ
  6
Continuous
 62
     5
100
AcDbLine
 10
7149.647820079987
 20
18098.10274025668
 30
0.0
 11
8102.81570964924
 21
18098.10274025668
 31
0.0
  0
LINE
  5
4CB
330
22
100
AcDbEntity
  8
_0-4_ハッチ
  6
Continuous
 62
     5
100
AcDbLine
 10
7149.647820079987
 20
18198.10307017644
 30
0.0
 11
8045.080575833784
 21
18198.10307017644
 31
0.0
  0
LINE
  5
4CC
330
22
100
AcDbEntity
  8
_0-4_ハッチ
  6
Continuous
 62
     5
100
AcDbLine
 10
7149.647820079987
 20
18298.1034000962
 30
0.0
 11
7987.345442018329
 21
18298.1034000962
 31
0.0
  0
LINE
  5
4CD
330
22
100
AcDbEntity
  8
_0-4_ハッチ
  6
Continuous
 62
     5
100
AcDbLine
 10
7149.647820079987
 20
18398.10373001596
 30
0.0
 11
7929.610308202874
 21
18398.10373001596
 31
0.0
  0
LINE
  5
4CE
330
22
100
AcDbEntity
  8
_0-4_ハッチ
  6
Continuous
 62
     5
100
AcDbLine
 10
7149.647820079987
 20
18498.10405993573
 30
0.0
 11
7871.875174387418
 21
18498.10405993573
 31
0.0
  0
LINE
  5
4CF
330
22
100
AcDbEntity
  8
_0-4_ハッチ
  6
Continuous
 62
     5
100
AcDbLine
 10
7149.647820079987
 20
18598.10438985549
 30
0.0
 11
7814.140040571962
 21
18598.10438985549
 31
0.0
  0
LINE
  5
4D0
330
22
100
AcDbEntity
  8
_0-4_ハッチ
  6
Continuous
 62
     5
100
AcDbLine
 10
7149.647820079987
 20
18698.10471977526
 30
0.0
 11
7756.404906756507
 21
18698.10471977526
 31
0.0
  0
LINE
  5
4D1
330
22
100
AcDbEntity
  8
_0-4_ハッチ
  6
Continuous
 62
     5
100
AcDbLine
 10
7149.647820079987
 20
18798.10504969502
 30
0.0
 11
7698.669772941049
 21
18798.10504969502
 31
0.0
  0
LINE
  5
4D2
330
22
100
AcDbEntity
  8
_0-4_ハッチ
  6
Continuous
 62
     5
100
AcDbLine
 10
7149.647820079987
 20
18898.10537961478
 30
0.0
 11
7640.934639125593
 21
18898.10537961478
 31
0.0
  0
LINE
  5
4D3
330
22
100
AcDbEntity
  8
_0-4_ハッチ
  6
Continuous
 62
     5
100
AcDbLine
 10
7149.647820079987
 20
18998.10570953455
 30
0.0
 11
7583.199505310135
 21
18998.10570953455
 31
0.0
  0
LINE
  5
4D4
330
22
100
AcDbEntity
  8
_0-4_ハッチ
  6
Continuous
 62
     5
100
AcDbLine
 10
7149.647820079987
 20
19098.10603945431
 30
0.0
 11
7525.464371494681
 21
19098.10603945431
 31
0.0
  0
LINE
  5
4D5
330
22
100
AcDbEntity
  8
_0-4_ハッチ
  6
Continuous
 62
     5
100
AcDbLine
 10
7149.647820079987
 20
19198.10636937408
 30
0.0
 11
7467.729237679225
 21
19198.10636937408
 31
0.0
  0
LINE
  5
4D6
330
22
100
AcDbEntity
  8
_0-4_ハッチ
  6
Continuous
 62
     5
100
AcDbLine
 10
7149.647820079987
 20
19398.1070292136
 30
0.0
 11
7352.258970048314
 21
19398.1070292136
 31
0.0
  0
LINE
  5
4D7
330
22
100
AcDbEntity
  8
_0-4_ハッチ
  6
Continuous
 62
     5
100
AcDbLine
 10
7149.647820079987
 20
19298.10669929384
 30
0.0
 11
7409.994103863771
 21
19298.10669929384
 31
0.0
  0
LINE
  5
4D8
330
22
100
AcDbEntity
  8
_0-4_ハッチ
  6
Continuous
 62
     5
100
AcDbLine
 10
9195.58914714924
 20
15944.03887108966
 30
0.0
 11
9195.58914714924
 21
16205.36377937196
 31
0.0
  0
LINE
  5
4D9
330
22
100
AcDbEntity
  8
_0-4_ハッチ
  6
Continuous
 62
     5
100
AcDbLine
 10
7149.647820079987
 20
19598.10768905313
 30
0.0
 11
7236.788702417398
 21
19598.10768905313
 31
0.0
  0
LINE
  5
4DA
330
22
100
AcDbEntity
  8
_0-4_ハッチ
  6
Continuous
 62
     5
100
AcDbLine
 10
7149.647820079987
 20
19498.10735913337
 30
0.0
 11
7294.523836232858
 21
19498.10735913337
 31
0.0
  0
LINE
  5
4DB
330
22
100
AcDbEntity
  8
_0-4_ハッチ
  6
Continuous
 62
     5
100
AcDbLine
 10
9295.589477069006
 20
15944.03887108966
 30
0.0
 11
9295.589477069006
 21
16032.1583779256
 31
0.0
  0
LINE
  5
4DC
330
22
100
AcDbEntity
  8
_0-4_ハッチ
  6
Continuous
 62
     5
100
AcDbLine
 10
7195.594920745103
 20
19669.45572471086
 30
0.0
 11
7195.594920745103
 21
15944.03887108966
 31
0.0
  0
LINE
  5
4DD
330
22
100
AcDbEntity
  8
_0-1_ＧＬ
  6
Continuous
 62
     3
100
AcDbLine
 10
7011.848582854478
 20
15844.03854116989
 30
0.0
 11
4149.647820079986
 21
15844.03854116989
 31
0.0
  0
LINE
  5
4DE
330
22
100
AcDbEntity
  8
_0-1_ＧＬ
  6
Continuous
 62
     3
100
AcDbLine
 10
5160.88241282703
 20
16036.70013587006
 30
0.0
 11
4938.414217092233
 21
16036.70013587006
 31
0.0
  0
LINE
  5
4DF
330
22
100
AcDbEntity
  8
_0-1_ＧＬ
  6
Continuous
 62
     3
100
AcDbLine
 10
5049.648314959632
 20
15844.03854116989
 30
0.0
 11
5160.88241282703
 21
16036.70013587006
 31
0.0
  0
LINE
  5
4E0
330
22
100
AcDbEntity
  8
_0-1_ＧＬ
  6
Continuous
 62
     3
100
AcDbLine
 10
5049.648314959632
 20
15844.03854116989
 30
0.0
 11
4938.414217092233
 21
16036.70013587006
 31
0.0
  0
LINE
  5
4E1
330
22
100
AcDbEntity
  8
_0-4_ハッチ
  6
Continuous
 62
     5
100
AcDbLine
 10
30149.64699528057
 20
15944.03887108966
 30
0.0
 11
25779.10503608505
 21
23514.04330851048
 31
0.0
  0
LINE
  5
4E2
330
22
100
AcDbEntity
  8
_0-4_ハッチ
  6
Continuous
 62
     5
100
AcDbLine
 10
25788.3122718853
 20
23498.09828633987
 30
0.0
 11
30149.64699528057
 21
23498.09828633987
 31
0.0
  0
LINE
  5
4E3
330
22
100
AcDbEntity
  8
_0-3_寸法
  6
Continuous
 62
     4
100
AcDbLine
 10
6649.648644879395
 20
19779.03939896128
 30
0.0
 11
3649.648644879394
 21
19779.03939896128
 31
0.0
  0
CIRCLE
  5
4E4
330
22
100
AcDbEntity
  8
_0-0_パイプ
  6
Continuous
 62
     7
100
AcDbCircle
 10
7149.647820079987
 20
23619.04192284747
 30
0.0
 40
10.00000012887491
  0
CIRCLE
  5
4E5
330
22
100
AcDbEntity
  8
_0-0_パイプ
  6
Continuous
 62
     7
100
AcDbCircle
 10
7149.118298859545
 20
23567.59918372163
 30
0.0
 40
10.00000012887491
  0
CIRCLE
  5
4E6
330
22
100
AcDbEntity
  8
_0-0_パイプ
  6
Continuous
 62
     7
100
AcDbCircle
 10
7274.426773838431
 20
23619.25966989139
 30
0.0
 40
10.00000012887491
  0
CIRCLE
  5
4E7
330
22
100
AcDbEntity
  8
_0-0_パイプ
  6
Continuous
 62
     7
100
AcDbCircle
 10
7274.426773838431
 20
23569.2966209049
 30
0.0
 40
10.00000012887491
  0
CIRCLE
  5
4E8
330
22
100
AcDbEntity
  8
_0-0_パイプ
  6
Continuous
 62
     7
100
AcDbCircle
 10
7020.226895248905
 20
23619.25966989139
 30
0.0
 40
10.00000012887491
  0
CIRCLE
  5
4E9
330
22
100
AcDbEntity
  8
_0-0_パイプ
  6
Continuous
 62
     7
100
AcDbCircle
 10
7020.226895248905
 20
23567.54474696065
 30
0.0
 40
10.00000012887491
  0
CIRCLE
  5
4EA
330
22
100
AcDbEntity
  8
_0-0_パイプ
  6
Continuous
 62
     7
100
AcDbCircle
 10
7149.647820079987
 20
23513.68204636944
 30
0.0
 40
10.00000012887491
  0
CIRCLE
  5
4EB
330
22
100
AcDbEntity
  8
_0-0_パイプ
  6
Continuous
 62
     7
100
AcDbCircle
 10
6980.154015973145
 20
19874.98295298894
 30
0.0
 40
15.00000019331236
  0
CIRCLE
  5
4EC
330
22
100
AcDbEntity
  8
_0-0_パイプ
  6
Continuous
 62
     7
100
AcDbCircle
 10
7319.059969045358
 20
19874.98295298894
 30
0.0
 40
15.00000019331236
  0
CIRCLE
  5
4ED
330
22
100
AcDbEntity
  8
_0-0_パイプ
  6
Continuous
 62
     7
100
AcDbCircle
 10
7149.645345681759
 20
19874.0414444638
 30
0.0
 40
15.00000019331236
  0
CIRCLE
  5
4EE
330
22
100
AcDbEntity
  8
_0-0_パイプ
  6
Continuous
 62
     7
100
AcDbCircle
 10
7149.645345681759
 20
19779.03939896128
 30
0.0
 40
15.00000019331236
  0
CIRCLE
  5
4EF
330
22
100
AcDbEntity
  8
_0-0_パイプ
  6
Continuous
 62
     7
100
AcDbCircle
 10
6944.109457009884
 20
16041.42252488505
 30
0.0
 40
15.00000019331236
  0
CIRCLE
  5
4F0
330
22
100
AcDbEntity
  8
_0-0_パイプ
  6
Continuous
 62
     7
100
AcDbCircle
 10
7356.547102174582
 20
16039.98118791821
 30
0.0
 40
15.00000019331236
  0
CIRCLE
  5
4F1
330
22
100
AcDbEntity
  8
_0-0_パイプ
  6
Continuous
 62
     7
100
AcDbCircle
 10
7149.647820079987
 20
16039.03967939308
 30
0.0
 40
15.00000019331236
  0
CIRCLE
  5
4F2
330
22
100
AcDbEntity
  8
_0-0_パイプ
  6
Continuous
 62
     7
100
AcDbCircle
 10
7149.647820079987
 20
15944.03763389054
 30
0.0
 40
15.00000019331236
  0
CIRCLE
  5
4F3
330
22
100
AcDbEntity
  8
_0-0_パイプ
  6
Continuous
 62
     7
100
AcDbCircle
 10
7449.648809839274
 20
23619.04192284747
 30
0.0
 40
15.00000019331236
  0
ARC
  5
4F4
330
22
100
AcDbEntity
  8
_0-2_メッセン
  6
Continuous
 62
     6
100
AcDbCircle
 10
7185.214820185561
 20
23484.79592147501
 30
0.0
 40
60.5918797286781
100
AcDbArc
 50
180.7089691162109
 51
234.0557556152344
  0
ARC
  5
4F5
330
22
100
AcDbEntity
  8
_0-2_メッセン
  6
Continuous
 62
     6
100
AcDbCircle
 10
7114.080819974411
 20
23484.79592147501
 30
0.0
 40
60.5918797286781
100
AcDbArc
 50
305.9442443847656
 51
359.2910308837891
  0
CIRCLE
  5
4F6
330
22
100
AcDbEntity
  8
_0-0_パイプ
  6
Continuous
 62
     7
100
AcDbCircle
 10
14149.64864487939
 20
23619.04192284747
 30
0.0
 40
10.00000012887491
  0
CIRCLE
  5
4F7
330
22
100
AcDbEntity
  8
_0-0_パイプ
  6
Continuous
 62
     7
100
AcDbCircle
 10
14149.11912365895
 20
23567.59918372163
 30
0.0
 40
10.00000012887491
  0
CIRCLE
  5
4F8
330
22
100
AcDbEntity
  8
_0-0_パイプ
  6
Continuous
 62
     7
100
AcDbCircle
 10
14274.42759863784
 20
23619.25966989139
 30
0.0
 40
10.00000012887491
  0
CIRCLE
  5
4F9
330
22
100
AcDbEntity
  8
_0-0_パイプ
  6
Continuous
 62
     7
100
AcDbCircle
 10
14274.42759863784
 20
23569.2966209049
 30
0.0
 40
10.00000012887491
  0
CIRCLE
  5
4FA
330
22
100
AcDbEntity
  8
_0-0_パイプ
  6
Continuous
 62
     7
100
AcDbCircle
 10
14020.22524565008
 20
23619.25966989139
 30
0.0
 40
10.00000012887491
  0
CIRCLE
  5
4FB
330
22
100
AcDbEntity
  8
_0-0_パイプ
  6
Continuous
 62
     7
100
AcDbCircle
 10
14020.22524565008
 20
23567.54474696065
 30
0.0
 40
10.00000012887491
  0
CIRCLE
  5
4FC
330
22
100
AcDbEntity
  8
_0-0_パイプ
  6
Continuous
 62
     7
100
AcDbCircle
 10
14149.64864487939
 20
23513.68204636944
 30
0.0
 40
10.00000012887491
  0
CIRCLE
  5
4FD
330
22
100
AcDbEntity
  8
_0-0_パイプ
  6
Continuous
 62
     7
100
AcDbCircle
 10
13849.6476551201
 20
23619.04192284747
 30
0.0
 40
15.00000019331236
  0
ARC
  5
4FE
330
22
100
AcDbEntity
  8
_0-2_メッセン
  6
Continuous
 62
     6
100
AcDbCircle
 10
14185.21564498497
 20
23484.79592147501
 30
0.0
 40
60.5918797286781
100
AcDbArc
 50
180.7089691162109
 51
234.0557556152344
  0
ARC
  5
4FF
330
22
100
AcDbEntity
  8
_0-2_メッセン
  6
Continuous
 62
     6
100
AcDbCircle
 10
14114.08164477382
 20
23484.79592147501
 30
0.0
 40
60.5918797286781
100
AcDbArc
 50
305.9442443847656
 51
359.2910308837891
  0
CIRCLE
  5
500
330
22
100
AcDbEntity
  8
_0-0_パイプ
  6
Continuous
 62
     7
100
AcDbCircle
 10
21149.12242285659
 20
23567.59918372163
 30
0.0
 40
10.00000012887491
  0
CIRCLE
  5
501
330
22
100
AcDbEntity
  8
_0-0_パイプ
  6
Continuous
 62
     7
100
AcDbCircle
 10
21274.43089783548
 20
23569.2966209049
 30
0.0
 40
10.00000012887491
  0
CIRCLE
  5
502
330
22
100
AcDbEntity
  8
_0-0_パイプ
  6
Continuous
 62
     7
100
AcDbCircle
 10
21020.22607044949
 20
23567.54474696065
 30
0.0
 40
10.00000012887491
  0
CIRCLE
  5
503
330
22
100
AcDbEntity
  8
_0-0_パイプ
  6
Continuous
 62
     7
100
AcDbCircle
 10
21149.65194407703
 20
23513.68204636944
 30
0.0
 40
10.00000012887491
  0
ARC
  5
504
330
22
100
AcDbEntity
  8
_0-2_メッセン
  6
Continuous
 62
     6
100
AcDbCircle
 10
21185.21894418261
 20
23484.79592147501
 30
0.0
 40
60.5918797286781
100
AcDbArc
 50
180.7089691162109
 51
234.0557556152344
  0
ARC
  5
505
330
22
100
AcDbEntity
  8
_0-2_メッセン
  6
Continuous
 62
     6
100
AcDbCircle
 10
21114.08246957323
 20
23484.79592147501
 30
0.0
 40
60.5918797286781
100
AcDbArc
 50
305.9442443847656
 51
359.2910308837891
  0
CIRCLE
  5
506
330
22
100
AcDbEntity
  8
_0-0_パイプ
  6
Continuous
 62
     7
100
AcDbCircle
 10
28149.12077325777
 20
23567.59918372163
 30
0.0
 40
10.00000012887491
  0
CIRCLE
  5
507
330
22
100
AcDbEntity
  8
_0-0_パイプ
  6
Continuous
 62
     7
100
AcDbCircle
 10
28274.42924823666
 20
23569.2966209049
 30
0.0
 40
10.00000012887491
  0
CIRCLE
  5
508
330
22
100
AcDbEntity
  8
_0-0_パイプ
  6
Continuous
 62
     7
100
AcDbCircle
 10
28020.22936964713
 20
23567.54474696065
 30
0.0
 40
10.00000012887491
  0
CIRCLE
  5
509
330
22
100
AcDbEntity
  8
_0-0_パイプ
  6
Continuous
 62
     7
100
AcDbCircle
 10
28149.65029447821
 20
23513.68204636944
 30
0.0
 40
10.00000012887491
  0
ARC
  5
50A
330
22
100
AcDbEntity
  8
_0-2_メッセン
  6
Continuous
 62
     6
100
AcDbCircle
 10
28185.21729458378
 20
23484.79592147501
 30
0.0
 40
60.5918797286781
100
AcDbArc
 50
180.7089691162109
 51
234.0557556152344
  0
ARC
  5
50B
330
22
100
AcDbEntity
  8
_0-2_メッセン
  6
Continuous
 62
     6
100
AcDbCircle
 10
28114.08329437264
 20
23484.79592147501
 30
0.0
 40
60.5918797286781
100
AcDbArc
 50
305.9442443847656
 51
359.2910308837891
  0
CIRCLE
  5
50C
330
22
100
AcDbEntity
  8
_0-0_パイプ
  6
Continuous
 62
     7
100
AcDbCircle
 10
13980.15484077255
 20
19874.98295298894
 30
0.0
 40
15.00000019331236
  0
CIRCLE
  5
50D
330
22
100
AcDbEntity
  8
_0-0_パイプ
  6
Continuous
 62
     7
100
AcDbCircle
 10
14319.06079384477
 20
19874.98295298894
 30
0.0
 40
15.00000019331236
  0
CIRCLE
  5
50E
330
22
100
AcDbEntity
  8
_0-0_パイプ
  6
Continuous
 62
     7
100
AcDbCircle
 10
14149.64617048116
 20
19874.0414444638
 30
0.0
 40
15.00000019331236
  0
CIRCLE
  5
50F
330
22
100
AcDbEntity
  8
_0-0_パイプ
  6
Continuous
 62
     7
100
AcDbCircle
 10
14149.64617048116
 20
19779.03939896128
 30
0.0
 40
15.00000019331236
  0
CIRCLE
  5
510
330
22
100
AcDbEntity
  8
_0-0_パイプ
  6
Continuous
 62
     7
100
AcDbCircle
 10
20980.15319117374
 20
19874.98295298894
 30
0.0
 40
15.00000019331236
  0
CIRCLE
  5
511
330
22
100
AcDbEntity
  8
_0-0_パイプ
  6
Continuous
 62
     7
100
AcDbCircle
 10
21319.06161864417
 20
19874.98295298894
 30
0.0
 40
15.00000019331236
  0
CIRCLE
  5
512
330
22
100
AcDbEntity
  8
_0-0_パイプ
  6
Continuous
 62
     7
100
AcDbCircle
 10
21149.64699528058
 20
19874.0414444638
 30
0.0
 40
15.00000019331236
  0
CIRCLE
  5
513
330
22
100
AcDbEntity
  8
_0-0_パイプ
  6
Continuous
 62
     7
100
AcDbCircle
 10
21149.64699528058
 20
19779.03939896128
 30
0.0
 40
15.00000019331236
  0
CIRCLE
  5
514
330
22
100
AcDbEntity
  8
_0-0_パイプ
  6
Continuous
 62
     7
100
AcDbCircle
 10
27980.15401597314
 20
19874.98295298894
 30
0.0
 40
15.00000019331236
  0
CIRCLE
  5
515
330
22
100
AcDbEntity
  8
_0-0_パイプ
  6
Continuous
 62
     7
100
AcDbCircle
 10
28319.05996904536
 20
19874.98295298894
 30
0.0
 40
15.00000019331236
  0
CIRCLE
  5
516
330
22
100
AcDbEntity
  8
_0-0_パイプ
  6
Continuous
 62
     7
100
AcDbCircle
 10
28149.64534568176
 20
19874.0414444638
 30
0.0
 40
15.00000019331236
  0
CIRCLE
  5
517
330
22
100
AcDbEntity
  8
_0-0_パイプ
  6
Continuous
 62
     7
100
AcDbCircle
 10
28149.64534568176
 20
19779.03939896128
 30
0.0
 40
15.00000019331236
  0
CIRCLE
  5
518
330
22
100
AcDbEntity
  8
_0-0_パイプ
  6
Continuous
 62
     7
100
AcDbCircle
 10
13944.11028180929
 20
16041.42252488505
 30
0.0
 40
15.00000019331236
  0
CIRCLE
  5
519
330
22
100
AcDbEntity
  8
_0-0_パイプ
  6
Continuous
 62
     7
100
AcDbCircle
 10
14356.54545257576
 20
16039.98118791821
 30
0.0
 40
15.00000019331236
  0
CIRCLE
  5
51A
330
22
100
AcDbEntity
  8
_0-0_パイプ
  6
Continuous
 62
     7
100
AcDbCircle
 10
14149.64864487939
 20
16039.03967939308
 30
0.0
 40
15.00000019331236
  0
CIRCLE
  5
51B
330
22
100
AcDbEntity
  8
_0-0_パイプ
  6
Continuous
 62
     7
100
AcDbCircle
 10
14149.64864487939
 20
15944.03763389054
 30
0.0
 40
15.00000019331236
  0
CIRCLE
  5
51C
330
22
100
AcDbEntity
  8
_0-0_パイプ
  6
Continuous
 62
     7
100
AcDbCircle
 10
20944.1111066087
 20
16041.42252488505
 30
0.0
 40
15.00000019331236
  0
CIRCLE
  5
51D
330
22
100
AcDbEntity
  8
_0-0_パイプ
  6
Continuous
 62
     7
100
AcDbCircle
 10
21356.54627737517
 20
16039.98118791821
 30
0.0
 40
15.00000019331236
  0
CIRCLE
  5
51E
330
22
100
AcDbEntity
  8
_0-0_パイプ
  6
Continuous
 62
     7
100
AcDbCircle
 10
21149.64946967881
 20
16039.03967939308
 30
0.0
 40
15.00000019331236
  0
CIRCLE
  5
51F
330
22
100
AcDbEntity
  8
_0-0_パイプ
  6
Continuous
 62
     7
100
AcDbCircle
 10
21149.64946967881
 20
15944.03763389054
 30
0.0
 40
15.00000019331236
  0
CIRCLE
  5
520
330
22
100
AcDbEntity
  8
_0-0_パイプ
  6
Continuous
 62
     7
100
AcDbCircle
 10
27944.11193140811
 20
16041.42252488505
 30
0.0
 40
15.00000019331236
  0
CIRCLE
  5
521
330
22
100
AcDbEntity
  8
_0-0_パイプ
  6
Continuous
 62
     7
100
AcDbCircle
 10
28356.54462777635
 20
16039.98118791821
 30
0.0
 40
15.00000019331236
  0
CIRCLE
  5
522
330
22
100
AcDbEntity
  8
_0-0_パイプ
  6
Continuous
 62
     7
100
AcDbCircle
 10
28149.64782007999
 20
16039.03967939308
 30
0.0
 40
15.00000019331236
  0
CIRCLE
  5
523
330
22
100
AcDbEntity
  8
_0-0_パイプ
  6
Continuous
 62
     7
100
AcDbCircle
 10
28149.64782007999
 20
15944.03763389054
 30
0.0
 40
15.00000019331236
  0
ARC
  5
524
330
22
100
AcDbEntity
  8
_0-2_メッセン
  6
Continuous
 62
     6
100
AcDbCircle
 10
7168.750174387418
 20
16258.13774474358
 30
0.0
 40
71.69146473343308
100
AcDbArc
 50
195.4501953125
 51
254.5482482910156
  0
ARC
  5
525
330
22
100
AcDbEntity
  8
_0-2_メッセン
  6
Continuous
 62
     6
100
AcDbCircle
 10
7130.54794017078
 20
16258.13774474358
 30
0.0
 40
71.69146473343308
100
AcDbArc
 50
285.4517517089844
 51
344.5498046875
  0
ARC
  5
526
330
22
100
AcDbEntity
  8
_0-2_メッセン
  6
Continuous
 62
     6
100
AcDbCircle
 10
7168.750174387418
 20
16419.9386447647
 30
0.0
 40
71.69146473343308
100
AcDbArc
 50
105.4517517089844
 51
164.5498046875
  0
ARC
  5
527
330
22
100
AcDbEntity
  8
_0-2_メッセン
  6
Continuous
 62
     6
100
AcDbCircle
 10
7130.54794017078
 20
16419.9386447647
 30
0.0
 40
71.69146473343308
100
AcDbArc
 50
15.45019531250002
 51
74.54824829101565
  0
ARC
  5
528
330
22
100
AcDbEntity
  8
_0-2_メッセン
  6
Continuous
 62
     6
100
AcDbCircle
 10
7602.98726792627
 20
16294.96545074548
 30
0.0
 40
67.60552283879874
100
AcDbArc
 50
61.95037841796875
 51
125.01220703125
  0
ARC
  5
529
330
22
100
AcDbEntity
  8
_0-2_メッセン
  6
Continuous
 62
     6
100
AcDbCircle
 10
7579.408727227364
 20
16315.84194858121
 30
0.0
 40
67.60552283879874
100
AcDbArc
 50
331.9450225830078
 51
35.01220703125
  0
ARC
  5
52A
330
22
100
AcDbEntity
  8
_0-2_メッセン
  6
Continuous
 62
     6
100
AcDbCircle
 10
7491.290457590543
 20
16168.79835958206
 30
0.0
 40
67.60552283879874
100
AcDbArc
 50
151.9485473632812
 51
215.01220703125
  0
ARC
  5
52B
330
22
100
AcDbEntity
  8
_0-2_メッセン
  6
Continuous
 62
     6
100
AcDbCircle
 10
7467.711916891642
 20
16189.67362021867
 30
0.0
 40
67.60552283879874
100
AcDbArc
 50
241.9503784179687
 51
305.0140991210938
  0
ARC
  5
52C
330
22
100
AcDbEntity
  8
_0-2_メッセン
  6
Continuous
 62
     6
100
AcDbCircle
 10
7499.839503462587
 20
15956.96141582678
 30
0.0
 40
64.236040050919
100
AcDbArc
 50
191.6055603027343
 51
258.3944396972656
  0
ARC
  5
52D
330
22
100
AcDbEntity
  8
_0-2_メッセン
  6
Continuous
 62
     6
100
AcDbCircle
 10
7499.839503462587
 20
15931.11632635254
 30
0.0
 40
64.236040050919
100
AcDbArc
 50
101.6061096191406
 51
168.3944396972656
  0
ARC
  5
52E
330
22
100
AcDbEntity
  8
_0-2_メッセン
  6
Continuous
 62
     6
100
AcDbCircle
 10
7673.992599429647
 20
15931.11632635254
 30
0.0
 40
64.236040050919
100
AcDbArc
 50
11.60556030273439
 51
78.39389038085939
  0
ARC
  5
52F
330
22
100
AcDbEntity
  8
_0-2_メッセン
  6
Continuous
 62
     6
100
AcDbCircle
 10
7499.839503462587
 20
15956.96141582678
 30
0.0
 40
64.236040050919
100
AcDbArc
 50
191.6055603027343
 51
258.3938903808594
  0
ARC
  5
530
330
22
100
AcDbEntity
  8
_0-2_メッセン
  6
Continuous
 62
     6
100
AcDbCircle
 10
7673.992599429647
 20
15956.96141582678
 30
0.0
 40
64.236040050919
100
AcDbArc
 50
281.6061096191406
 51
348.3944396972656
  0
CIRCLE
  5
531
330
22
100
AcDbEntity
  8
_0-2_メッセン
  6
Continuous
 62
     6
100
AcDbCircle
 10
7149.647820079987
 20
16589.03778235443
 30
0.0
 40
50.00000064437454
  0
CIRCLE
  5
532
330
22
100
AcDbEntity
  8
_0-2_メッセン
  6
Continuous
 62
     6
100
AcDbCircle
 10
7701.067464822384
 20
16429.50466830777
 30
0.0
 40
50.00000064437454
  0
CIRCLE
  5
533
330
22
100
AcDbEntity
  8
_0-2_メッセン
  6
Continuous
 62
     6
100
AcDbCircle
 10
7836.914401847299
 20
15944.03887108966
 30
0.0
 40
50.00000064437454
  0
ARC
  5
534
330
22
100
AcDbEntity
  8
_0-2_メッセン
  6
Continuous
 62
     6
100
AcDbCircle
 10
14130.54876497018
 20
16258.13774474358
 30
0.0
 40
71.69146473343308
100
AcDbArc
 50
285.4517517089844
 51
344.5498046875
  0
ARC
  5
535
330
22
100
AcDbEntity
  8
_0-2_メッセン
  6
Continuous
 62
     6
100
AcDbCircle
 10
14168.7485247886
 20
16258.13774474358
 30
0.0
 40
71.69146473343308
100
AcDbArc
 50
195.4501953125
 51
254.5482482910156
  0
ARC
  5
536
330
22
100
AcDbEntity
  8
_0-2_メッセン
  6
Continuous
 62
     6
100
AcDbCircle
 10
14130.54876497018
 20
16419.9386447647
 30
0.0
 40
71.69146473343308
100
AcDbArc
 50
15.45019531250002
 51
74.54824829101565
  0
ARC
  5
537
330
22
100
AcDbEntity
  8
_0-2_メッセン
  6
Continuous
 62
     6
100
AcDbCircle
 10
14168.7485247886
 20
16419.9386447647
 30
0.0
 40
71.69146473343308
100
AcDbArc
 50
105.4517517089844
 51
164.5498046875
  0
ARC
  5
538
330
22
100
AcDbEntity
  8
_0-2_メッセン
  6
Continuous
 62
     6
100
AcDbCircle
 10
13696.30919703311
 20
16294.96545074548
 30
0.0
 40
67.60552283879874
100
AcDbArc
 50
54.98779296875002
 51
118.0496215820312
  0
ARC
  5
539
330
22
100
AcDbEntity
  8
_0-2_メッセン
  6
Continuous
 62
     6
100
AcDbCircle
 10
13719.88773773201
 20
16315.84194858121
 30
0.0
 40
67.60552283879874
100
AcDbArc
 50
144.98779296875
 51
208.0549774169921
  0
ARC
  5
53A
330
22
100
AcDbEntity
  8
_0-2_メッセン
  6
Continuous
 62
     6
100
AcDbCircle
 10
13808.00600736883
 20
16168.79835958206
 30
0.0
 40
67.60552283879874
100
AcDbArc
 50
324.98779296875
 51
28.05145263671875
  0
CIRCLE
  5
53B
330
22
100
AcDbEntity
  8
_0-2_メッセン
  6
Continuous
 62
     6
100
AcDbCircle
 10
14149.64864487939
 20
16589.03778235443
 30
0.0
 40
50.00000064437454
  0
CIRCLE
  5
53C
330
22
100
AcDbEntity
  8
_0-2_メッセン
  6
Continuous
 62
     6
100
AcDbCircle
 10
13598.22900013699
 20
16429.50466830777
 30
0.0
 40
50.00000064437454
  0
ARC
  5
53D
330
22
100
AcDbEntity
  8
_0-2_メッセン
  6
Continuous
 62
     6
100
AcDbCircle
 10
14602.98809272568
 20
16294.96545074548
 30
0.0
 40
67.60552283879874
100
AcDbArc
 50
61.95024108886721
 51
125.0120697021485
  0
ARC
  5
53E
330
22
100
AcDbEntity
  8
_0-2_メッセン
  6
Continuous
 62
     6
100
AcDbCircle
 10
14579.40955202677
 20
16315.84194858121
 30
0.0
 40
67.60552283879874
100
AcDbArc
 50
331.9450225830078
 51
35.01220703125
  0
ARC
  5
53F
330
22
100
AcDbEntity
  8
_0-2_メッセン
  6
Continuous
 62
     6
100
AcDbCircle
 10
14491.29128238995
 20
16168.79835958206
 30
0.0
 40
67.60552283879874
100
AcDbArc
 50
151.9485473632812
 51
215.01220703125
  0
CIRCLE
  5
540
330
22
100
AcDbEntity
  8
_0-2_メッセン
  6
Continuous
 62
     6
100
AcDbCircle
 10
14701.06828962179
 20
16429.50466830777
 30
0.0
 40
50.00000064437454
  0
ARC
  5
541
330
22
100
AcDbEntity
  8
_0-2_メッセン
  6
Continuous
 62
     6
100
AcDbCircle
 10
13831.58702246596
 20
16189.67362021867
 30
0.0
 40
67.60552283879874
100
AcDbArc
 50
234.9859619140625
 51
298.0496215820313
  0
ARC
  5
542
330
22
100
AcDbEntity
  8
_0-2_メッセン
  6
Continuous
 62
     6
100
AcDbCircle
 10
14467.71026729282
 20
16189.67362021867
 30
0.0
 40
67.60552283879874
100
AcDbArc
 50
241.9503784179687
 51
305.0140380859375
  0
ARC
  5
543
330
22
100
AcDbEntity
  8
_0-2_メッセン
  6
Continuous
 62
     6
100
AcDbCircle
 10
21130.5495897696
 20
16258.13774474358
 30
0.0
 40
71.69146473343308
100
AcDbArc
 50
285.4517517089844
 51
344.5498046875
  0
ARC
  5
544
330
22
100
AcDbEntity
  8
_0-2_メッセン
  6
Continuous
 62
     6
100
AcDbCircle
 10
21168.74934958801
 20
16258.13774474358
 30
0.0
 40
71.69146473343308
100
AcDbArc
 50
195.4501953125
 51
254.5482482910156
  0
ARC
  5
545
330
22
100
AcDbEntity
  8
_0-2_メッセン
  6
Continuous
 62
     6
100
AcDbCircle
 10
21130.5495897696
 20
16419.9386447647
 30
0.0
 40
71.69146473343308
100
AcDbArc
 50
15.45019531250002
 51
74.54824829101565
  0
ARC
  5
546
330
22
100
AcDbEntity
  8
_0-2_メッセン
  6
Continuous
 62
     6
100
AcDbCircle
 10
21168.74934958801
 20
16419.9386447647
 30
0.0
 40
71.69146473343308
100
AcDbArc
 50
105.4517517089844
 51
164.5498046875
  0
ARC
  5
547
330
22
100
AcDbEntity
  8
_0-2_メッセン
  6
Continuous
 62
     6
100
AcDbCircle
 10
20696.31002183252
 20
16294.96545074548
 30
0.0
 40
67.60552283879874
100
AcDbArc
 50
54.98779296875002
 51
118.0496215820312
  0
ARC
  5
548
330
22
100
AcDbEntity
  8
_0-2_メッセン
  6
Continuous
 62
     6
100
AcDbCircle
 10
20719.88856253142
 20
16315.84194858121
 30
0.0
 40
67.60552283879874
100
AcDbArc
 50
144.98779296875
 51
208.0549774169921
  0
ARC
  5
549
330
22
100
AcDbEntity
  8
_0-2_メッセン
  6
Continuous
 62
     6
100
AcDbCircle
 10
20808.00683216824
 20
16168.79835958206
 30
0.0
 40
67.60552283879874
100
AcDbArc
 50
324.98779296875
 51
28.05145263671875
  0
CIRCLE
  5
54A
330
22
100
AcDbEntity
  8
_0-2_メッセン
  6
Continuous
 62
     6
100
AcDbCircle
 10
21149.64946967881
 20
16589.03778235443
 30
0.0
 40
50.00000064437454
  0
CIRCLE
  5
54B
330
22
100
AcDbEntity
  8
_0-2_メッセン
  6
Continuous
 62
     6
100
AcDbCircle
 10
20598.22982493641
 20
16429.50466830777
 30
0.0
 40
50.00000064437454
  0
ARC
  5
54C
330
22
100
AcDbEntity
  8
_0-2_メッセン
  6
Continuous
 62
     6
100
AcDbCircle
 10
21602.98891752509
 20
16294.96545074548
 30
0.0
 40
67.60552283879874
100
AcDbArc
 50
61.95024108886721
 51
125.0120697021485
  0
ARC
  5
54D
330
22
100
AcDbEntity
  8
_0-2_メッセン
  6
Continuous
 62
     6
100
AcDbCircle
 10
21579.41037682618
 20
16315.84194858121
 30
0.0
 40
67.60552283879874
100
AcDbArc
 50
331.9450225830078
 51
35.01220703125
  0
ARC
  5
54E
330
22
100
AcDbEntity
  8
_0-2_メッセン
  6
Continuous
 62
     6
100
AcDbCircle
 10
21491.29210718936
 20
16168.79835958206
 30
0.0
 40
67.60552283879874
100
AcDbArc
 50
151.9485473632812
 51
215.01220703125
  0
CIRCLE
  5
54F
330
22
100
AcDbEntity
  8
_0-2_メッセン
  6
Continuous
 62
     6
100
AcDbCircle
 10
21701.0691144212
 20
16429.50466830777
 30
0.0
 40
50.00000064437454
  0
ARC
  5
550
330
22
100
AcDbEntity
  8
_0-2_メッセン
  6
Continuous
 62
     6
100
AcDbCircle
 10
20831.58784726537
 20
16189.67362021867
 30
0.0
 40
67.60552283879874
100
AcDbArc
 50
234.9859619140625
 51
298.0496215820313
  0
ARC
  5
551
330
22
100
AcDbEntity
  8
_0-2_メッセン
  6
Continuous
 62
     6
100
AcDbCircle
 10
21467.71109209223
 20
16189.67362021867
 30
0.0
 40
67.60552283879874
100
AcDbArc
 50
241.9503784179687
 51
305.0140380859375
  0
ARC
  5
552
330
22
100
AcDbEntity
  8
_0-2_メッセン
  6
Continuous
 62
     6
100
AcDbCircle
 10
28130.54794017078
 20
16258.13774474358
 30
0.0
 40
71.69146473343308
100
AcDbArc
 50
285.4517517089844
 51
344.5498046875
  0
ARC
  5
553
330
22
100
AcDbEntity
  8
_0-2_メッセン
  6
Continuous
 62
     6
100
AcDbCircle
 10
28168.75017438741
 20
16258.13774474358
 30
0.0
 40
71.69146473343308
100
AcDbArc
 50
195.4501953125
 51
254.5482482910156
  0
ARC
  5
554
330
22
100
AcDbEntity
  8
_0-2_メッセン
  6
Continuous
 62
     6
100
AcDbCircle
 10
28130.54794017078
 20
16419.9386447647
 30
0.0
 40
71.69146473343308
100
AcDbArc
 50
15.45019531250002
 51
74.54824829101565
  0
ARC
  5
555
330
22
100
AcDbEntity
  8
_0-2_メッセン
  6
Continuous
 62
     6
100
AcDbCircle
 10
28168.75017438741
 20
16419.9386447647
 30
0.0
 40
71.69146473343308
100
AcDbArc
 50
105.4517517089844
 51
164.5498046875
  0
ARC
  5
556
330
22
100
AcDbEntity
  8
_0-2_メッセン
  6
Continuous
 62
     6
100
AcDbCircle
 10
27696.31084663193
 20
16294.96545074548
 30
0.0
 40
67.60552283879874
100
AcDbArc
 50
54.98779296875002
 51
118.0496215820312
  0
ARC
  5
557
330
22
100
AcDbEntity
  8
_0-2_メッセン
  6
Continuous
 62
     6
100
AcDbCircle
 10
27719.88938733083
 20
16315.84194858121
 30
0.0
 40
67.60552283879874
100
AcDbArc
 50
144.98779296875
 51
208.0549774169921
  0
ARC
  5
558
330
22
100
AcDbEntity
  8
_0-2_メッセン
  6
Continuous
 62
     6
100
AcDbCircle
 10
27808.00765696765
 20
16168.79835958206
 30
0.0
 40
67.60552283879874
100
AcDbArc
 50
324.98779296875
 51
28.05145263671875
  0
CIRCLE
  5
559
330
22
100
AcDbEntity
  8
_0-2_メッセン
  6
Continuous
 62
     6
100
AcDbCircle
 10
28149.65029447821
 20
16589.03778235443
 30
0.0
 40
50.00000064437454
  0
CIRCLE
  5
55A
330
22
100
AcDbEntity
  8
_0-2_メッセン
  6
Continuous
 62
     6
100
AcDbCircle
 10
27598.23064973581
 20
16429.50466830777
 30
0.0
 40
50.00000064437454
  0
ARC
  5
55B
330
22
100
AcDbEntity
  8
_0-2_メッセン
  6
Continuous
 62
     6
100
AcDbCircle
 10
28602.98974232449
 20
16294.96545074548
 30
0.0
 40
67.60552283879874
100
AcDbArc
 50
61.95024108886721
 51
125.0120697021485
  0
ARC
  5
55C
330
22
100
AcDbEntity
  8
_0-2_メッセン
  6
Continuous
 62
     6
100
AcDbCircle
 10
28579.4112016256
 20
16315.84194858121
 30
0.0
 40
67.60552283879874
100
AcDbArc
 50
331.9450225830078
 51
35.01220703125
  0
ARC
  5
55D
330
22
100
AcDbEntity
  8
_0-2_メッセン
  6
Continuous
 62
     6
100
AcDbCircle
 10
28491.29293198877
 20
16168.79835958206
 30
0.0
 40
67.60552283879874
100
AcDbArc
 50
151.9485473632812
 51
215.01220703125
  0
CIRCLE
  5
55E
330
22
100
AcDbEntity
  8
_0-2_メッセン
  6
Continuous
 62
     6
100
AcDbCircle
 10
28701.06993922061
 20
16429.50466830777
 30
0.0
 40
50.00000064437454
  0
ARC
  5
55F
330
22
100
AcDbEntity
  8
_0-2_メッセン
  6
Continuous
 62
     6
100
AcDbCircle
 10
27831.58867206479
 20
16189.67362021867
 30
0.0
 40
67.60552283879874
100
AcDbArc
 50
234.9859619140625
 51
298.0496215820313
  0
ARC
  5
560
330
22
100
AcDbEntity
  8
_0-2_メッセン
  6
Continuous
 62
     6
100
AcDbCircle
 10
28467.71191689165
 20
16189.67362021867
 30
0.0
 40
67.60552283879874
100
AcDbArc
 50
241.9503784179687
 51
305.0140380859375
  0
CIRCLE
  5
561
330
22
100
AcDbEntity
  8
_0-3_寸法
  6
Continuous
 62
     4
100
AcDbCircle
 10
6649.648644879395
 20
24144.03994332889
 30
0.0
 40
300.0000038662473
  0
CIRCLE
  5
562
330
22
100
AcDbEntity
  8
_0-3_寸法
  6
Continuous
 62
     4
100
AcDbCircle
 10
6661.436678029733
 20
20078.80779528729
 30
0.0
 40
300.0000038662473
  0
CIRCLE
  5
563
330
22
100
AcDbEntity
  8
_0-3_寸法
  6
Continuous
 62
     4
100
AcDbCircle
 10
6628.241388624117
 20
16308.4323630924
 30
0.0
 40
300.0000038662473
  0
TEXT
  5
564
330
22
100
AcDbEntity
  8
_0-3_寸法
 62
     4
100
AcDbText
 10
3599.648479919514
 20
15406.61318551639
 30
0.0
 40
250.0
  1
400
 50
90.0
100
AcDbText
  0
TEXT
  5
565
330
22
100
AcDbEntity
  8
_0-3_寸法
 62
     4
100
AcDbText
 10
3599.648479919514
 20
14331.53891232963
 30
0.0
 40
250.0
  1
1,600
 50
90.0
100
AcDbText
  0
TEXT
  5
566
330
22
100
AcDbEntity
  8
_0-3_寸法
 62
     4
100
AcDbText
 10
3099.649304718921
 20
19531.53874736975
 30
0.0
 40
250.0
  1
8,000
 50
90.0
100
AcDbText
  0
TEXT
  5
567
330
22
100
AcDbEntity
  8
_0-3_寸法
 62
     4
100
AcDbText
 10
3099.649304718921
 20
14531.53833497004
 30
0.0
 40
250.0
  1
2,000
 50
90.0
100
AcDbText
  0
TEXT
  5
568
330
22
100
AcDbEntity
  8
_0-3_寸法
 62
     4
100
AcDbText
 10
2599.647655120103
 20
18469.03854116989
 30
0.0
 40
250.0
  1
10,000
 50
90.0
100
AcDbText
  0
TEXT
  5
569
330
22
100
AcDbEntity
  8
_0-6_仕上
 62
     7
100
AcDbText
 10
8288.056336628761
 20
24371.35795958734
 30
0.0
 40
300.0
  1
ｼﾞｮｲﾝﾄﾋﾞｰﾑ
100
AcDbText
  0
TEXT
  5
56A
330
22
100
AcDbEntity
  8
_0-6_仕上
 62
     7
100
AcDbText
 10
8288.798800436564
 20
14699.16541181495
 30
0.0
 40
300.0
  1
ﾈｶｾ
100
AcDbText
  0
TEXT
  5
56B
330
22
100
AcDbEntity
  8
_0-3_寸法
 62
     4
100
AcDbText
 10
3599.648479919514
 20
17549.03851642592
 30
0.0
 40
250.0
  1
3,900
 50
90.0
100
AcDbText
  0
TEXT
  5
56C
330
22
100
AcDbEntity
  8
_0-1_ＧＬ
 62
     4
100
AcDbText
 10
4834.385463760041
 20
16100.1709247742
 30
0.0
 40
250.0
  1
ＧＬ
100
AcDbText
  0
TEXT
  5
56D
330
22
100
AcDbEntity
  8
_0-3_寸法
 62
     4
100
AcDbText
 10
3599.648479919514
 20
23491.54113104004
 30
0.0
 40
250.0
  1
200
 50
90.0
100
AcDbText
  0
TEXT
  5
56E
330
22
100
AcDbEntity
  8
_0-3_寸法
 62
     4
100
AcDbText
 10
3599.648479919514
 20
21334.04011653677
 30
0.0
 40
250.0
  1
3,850
 50
90.0
100
AcDbText
  0
TEXT
  5
56F
330
22
100
AcDbEntity
  8
_0-3_寸法
 62
     4
100
AcDbText
 10
3599.648479919514
 20
15869.3031780602
 30
0.0
 40
250.0
  1
50
 50
90.0
100
AcDbText
  0
TEXT
  5
570
330
22
100
AcDbEntity
  8
_0-3_寸法
 62
     7
100
AcDbText
 10
6499.648644879394
 20
23994.03944844925
 30
0.0
 40
300.0
  1
Ａ
100
AcDbText
  0
TEXT
  5
571
330
22
100
AcDbEntity
  8
_0-3_寸法
 62
     7
100
AcDbText
 10
6511.436678029733
 20
19928.80730040765
 30
0.0
 40
300.0
  1
Ｂ
100
AcDbText
  0
TEXT
  5
572
330
22
100
AcDbEntity
  8
_0-3_寸法
 62
     7
100
AcDbText
 10
6478.241388624117
 20
16158.43186821276
 30
0.0
 40
300.0
  1
Ｃ
100
AcDbText
  0
POINT
  5
573
330
22
100
AcDbEntity
  8
_0-3_寸法
 62
     4
100
AcDbPoint
 10
3649.648644879394
 20
23844.0389535696
 30
0.0
  0
POINT
  5
574
330
22
100
AcDbEntity
  8
_0-3_寸法
 62
     4
100
AcDbPoint
 10
3649.648644879394
 20
23514.04330851048
 30
0.0
  0
POINT
  5
575
330
22
100
AcDbEntity
  8
_0-3_寸法
 62
     4
100
AcDbPoint
 10
3649.648644879394
 20
19779.03939896128
 30
0.0
  0
POINT
  5
576
330
22
100
AcDbEntity
  8
_0-3_寸法
 62
     4
100
AcDbPoint
 10
3649.648644879394
 20
15944.03887108966
 30
0.0
  0
POINT
  5
577
330
22
100
AcDbEntity
  8
_0-3_寸法
 62
     4
100
AcDbPoint
 10
3649.648644879394
 20
15844.03854116989
 30
0.0
  0
POINT
  5
578
330
22
100
AcDbEntity
  8
_0-3_寸法
 62
     4
100
AcDbPoint
 10
3649.648644879394
 20
15444.03969588906
 30
0.0
  0
POINT
  5
579
330
22
100
AcDbEntity
  8
_0-3_寸法
 62
     4
100
AcDbPoint
 10
3649.648644879394
 20
13844.0393659693
 30
0.0
  0
POINT
  5
57A
330
22
100
AcDbEntity
  8
_0-3_寸法
 62
     4
100
AcDbPoint
 10
3149.649469678803
 20
23844.0389535696
 30
0.0
  0
POINT
  5
57B
330
22
100
AcDbEntity
  8
_0-3_寸法
 62
     4
100
AcDbPoint
 10
3149.649469678803
 20
15844.03854116989
 30
0.0
  0
POINT
  5
57C
330
22
100
AcDbEntity
  8
_0-3_寸法
 62
     4
100
AcDbPoint
 10
3149.649469678803
 20
13844.0393659693
 30
0.0
  0
POINT
  5
57D
330
22
100
AcDbEntity
  8
_0-3_寸法
 62
     4
100
AcDbPoint
 10
2649.647820079986
 20
23844.0389535696
 30
0.0
  0
POINT
  5
57E
330
22
100
AcDbEntity
  8
_0-3_寸法
 62
     4
100
AcDbPoint
 10
2649.647820079986
 20
13844.0393659693
 30
0.0
  0
POINT
  5
57F
330
22
100
AcDbEntity
  8
_0-3_寸法
 62
     4
100
AcDbPoint
 10
7149.647820079987
 20
11344.03915976945
 30
0.0
  0
POINT
  5
580
330
22
100
AcDbEntity
  8
_0-3_寸法
 62
     4
100
AcDbPoint
 10
14149.64864487939
 20
11344.03915976945
 30
0.0
  0
POINT
  5
581
330
22
100
AcDbEntity
  8
_0-3_寸法
 62
     4
100
AcDbPoint
 10
21149.64946967881
 20
11344.03915976945
 30
0.0
  0
POINT
  5
582
330
22
100
AcDbEntity
  8
_0-3_寸法
 62
     4
100
AcDbPoint
 10
28149.65029447821
 20
11344.03915976945
 30
0.0
  0
TEXT
  5
583
330
22
100
AcDbEntity
  8
_0-6_仕上
 62
     7
100
AcDbText
 10
6849.829769036398
 20
20728.26070583945
 30
0.0
 40
300.0
  1
10-19-700
 50
90.0
100
AcDbText
  0
TEXT
  5
584
330
22
100
AcDbEntity
  8
_0-6_仕上
 62
     7
100
AcDbText
 10
6464.992497144145
 20
20858.43341105217
 30
0.0
 40
300.0
  1
PC　POLE
 50
90.0
100
AcDbText
  0
TEXT
  5
585
330
22
100
AcDbEntity
  8
_0-3_寸法
 62
     4
100
AcDbText
 10
10081.40371079736
 20
11005.68066730482
 30
0.0
 40
250.0
  1
(11,000)
100
AcDbText
  0
TEXT
  5
586
330
22
100
AcDbEntity
  8
_0-3_寸法
 62
     4
100
AcDbText
 10
10337.14761388013
 20
11394.03994332889
 30
0.0
 40
250.0
  1
8,500
100
AcDbText
  0
TEXT
  5
587
330
22
100
AcDbEntity
  8
_0-3_寸法
 62
     4
100
AcDbText
 10
17344.19672658677
 20
11005.68066730482
 30
0.0
 40
250.0
  1
(11,000)
100
AcDbText
  0
TEXT
  5
588
330
22
100
AcDbEntity
  8
_0-3_寸法
 62
     4
100
AcDbText
 10
17599.94062966954
 20
11394.03994332889
 30
0.0
 40
250.0
  1
8,500
100
AcDbText
  0
TEXT
  5
589
330
22
100
AcDbEntity
  8
_0-3_寸法
 62
     4
100
AcDbText
 10
24252.37556558581
 20
11005.68066730482
 30
0.0
 40
250.0
  1
(11,000)
100
AcDbText
  0
TEXT
  5
58A
330
22
100
AcDbEntity
  8
_0-3_寸法
 62
     4
100
AcDbText
 10
24508.11946866858
 20
11394.03994332889
 30
0.0
 40
250.0
  1
8,500
100
AcDbText
  0
TEXT
  5
58B
330
22
100
AcDbEntity
  8
_0-6_仕上
 62
     7
100
AcDbText
 10
9364.150350564569
 20
22572.58798294565
 30
0.0
 40
300.0
  1
ﾌﾞﾚｰｽﾜｲﾔｰ　55m㎡
100
AcDbText
  0
TEXT
  5
58C
330
22
100
AcDbEntity
  8
_0-6_仕上
 62
     7
100
AcDbText
 10
16907.6857377584
 20
24114.07992960423
 30
0.0
 40
300.0
  1
横ﾜｲﾔｰ 38m㎡
100
AcDbText
  0
TEXT
  5
58D
330
22
100
AcDbEntity
  8
_0-6_仕上
 62
     7
100
AcDbText
 10
16907.6857377584
 20
20352.1520929541
 30
0.0
 40
300.0
  1
横ﾜｲﾔｰ 38m㎡
100
AcDbText
  0
TEXT
  5
58E
330
22
100
AcDbEntity
  8
_0-6_仕上
 62
     7
100
AcDbText
 10
16907.6857377584
 20
16529.66335971402
 30
0.0
 40
300.0
  1
横ﾜｲﾔｰ 38m㎡
100
AcDbText
  0
TEXT
  5
58F
330
22
100
AcDbEntity
  8
_0-6_仕上
 62
     7
100
AcDbText
 10
14816.01381986883
 20
21424.46720591863
 30
0.0
 40
300.0
  1
縦ﾜｲﾔｰ 38m㎡
100
AcDbText
  0
TEXT
  5
590
330
22
100
AcDbEntity
  8
_0-5_枠
 62
     7
100
AcDbText
 10
3614.083698005515
 20
8615.737659456463
 30
0.0
 40
400.0
  1
設計条件
100
AcDbText
  0
TEXT
  5
591
330
22
100
AcDbEntity
  8
_0-5_枠
 62
     7
100
AcDbText
 10
4614.083698005515
 20
7165.737659456462
 30
0.0
 40
300.0
  1
基準風速・・・３４ｍ／ｓｅｃ
100
AcDbText
  0
TEXT
  5
592
330
22
100
AcDbEntity
  8
_0-5_枠
 62
     7
100
AcDbText
 10
4614.083698005515
 20
6665.737659456462
 30
0.0
 40
300.0
  1
地表面粗度区分・・・Ⅲ
100
AcDbText
  0
TEXT
  5
593
330
22
100
AcDbEntity
  8
_0-5_枠
 62
     7
100
AcDbText
 10
4614.083698005515
 20
6165.737659456462
 30
0.0
 40
300.0
  1
基礎　普通土質（Ｂ）を選定
100
AcDbText
  0
TEXT
  5
594
330
22
100
AcDbEntity
  8
_0-5_枠
 62
     7
100
AcDbText
 10
4114.083698005515
 20
8165.737659456462
 30
0.0
 40
300.0
  1
・設計荷重　建築基準法・同施工令
100
AcDbText
  0
TEXT
  5
595
330
22
100
AcDbEntity
  8
_0-5_枠
 62
     7
100
AcDbText
 10
4353.541576528152
 20
7665.737659456462
 30
0.0
 40
300.0
  1
（平成１２年６月）に基づく風圧力による。
100
AcDbText
  0
LINE
  5
596
330
22
100
AcDbEntity
  8
_0-6_仕上
  6
Continuous
 62
     4
100
AcDbLine
 10
28898.63331680718
 20
23313.3052779995
 30
0.0
 11
30363.6200757505
 21
25850.74233990273
 31
0.0
  0
LINE
  5
597
330
22
100
AcDbEntity
  8
_0-6_仕上
  6
Continuous
 62
     4
100
AcDbLine
 10
31050.84211834974
 20
26257.64723063331
 30
0.0
 11
31233.24733240168
 21
26257.64723063331
 31
0.0
  0
LINE
  5
598
330
22
100
AcDbEntity
  8
_0-6_仕上
  6
Continuous
 62
     4
100
AcDbLine
 10
31050.84211834974
 20
25850.74233990273
 30
0.0
 11
30363.6200757505
 21
25850.74233990273
 31
0.0
  0
TEXT
  5
599
330
22
100
AcDbEntity
  8
_0-6_仕上
 62
     7
100
AcDbText
 10
31306.47673551084
 20
26368.00044273213
 30
0.0
 40
300.0
  1
NET
100
AcDbText
  0
LINE
  5
59A
330
22
100
AcDbEntity
  8
_0-6_仕上
  6
Continuous
 62
     4
100
AcDbLine
 10
31050.84211834974
 20
26257.64723063331
 30
0.0
 11
31050.84211834974
 21
24980.02402295376
 31
0.0
  0
LINE
  5
59B
330
22
100
AcDbEntity
  8
_0-6_仕上
  6
Continuous
 62
     4
100
AcDbLine
 10
31050.84211834974
 20
24980.02402295376
 30
0.0
 11
31233.24733240168
 21
24980.02402295376
 31
0.0
  0
TEXT
  5
59C
330
22
100
AcDbEntity
  8
_0-6_仕上
 62
     7
100
AcDbText
 10
31289.37146801189
 20
25920.9014272127
 30
0.0
 40
300.0
  1
ｸﾚﾓﾅ250D/80本×37.5㎜目
100
AcDbText
  0
TEXT
  5
59D
330
22
100
AcDbEntity
  8
_0-6_仕上
 62
     7
100
AcDbText
 10
31071.55112475876
 20
25457.24046793218
 30
0.0
 40
300.0
  1
（KRP-40 1800D/18本×40㎜目 ｴｺﾛﾈｯﾄ）
100
AcDbText
  0
TEXT
  5
59E
330
22
100
AcDbEntity
  8
_0-6_仕上
 62
     7
100
AcDbText
 10
31071.55112475876
 20
25017.72000014835
 30
0.0
 40
300.0
  1
（KSP-24 37.5㎜目 ｽｰﾊﾟｰﾎﾟﾘｴﾁﾚﾝ）
100
AcDbText
  0
TEXT
  5
59F
330
22
100
AcDbEntity
  8
_0-6_仕上
 62
     7
100
AcDbText
 10
14807.89795864629
 20
22455.81370744945
 30
0.0
 40
300.0
  1
ﾎﾟﾘﾛｰﾌﾟ6φ押え
100
AcDbText
  0
TEXT
  5
5A0
330
22
100
AcDbEntity
  8
_0-6_仕上
 62
     7
100
AcDbText
 10
22523.82797671262
 20
24266.81958332045
 30
0.0
 40
300.0
  1
ポリロープ4φにてかがりどめ
100
AcDbText
  0
LINE
  5
5A1
330
22
100
AcDbEntity
  8
_0-6_仕上
  6
Continuous
 62
     4
100
AcDbLine
 10
22037.81051240993
 20
23524.30711235339
 30
0.0
 11
22437.81059488988
 21
24217.12871813886
 31
0.0
  0
LINE
  5
5A2
330
22
100
AcDbEntity
  8
_0-6_仕上
  6
Continuous
 62
     4
100
AcDbLine
 10
22037.81051240993
 20
23524.30711235339
 30
0.0
 11
22037.81051240993
 21
23624.30744227315
 31
0.0
  0
LINE
  5
5A3
330
22
100
AcDbEntity
  8
_0-6_仕上
  6
Continuous
 62
     4
100
AcDbLine
 10
22437.81059488988
 20
24217.12871813886
 30
0.0
 11
27260.51695139566
 21
24217.12871813886
 31
0.0
  0
ENDSEC
  0
SECTION
  2
OBJECTS
  0
DICTIONARY
  5
C
330
0
100
AcDbDictionary
281
     1
  3
ACAD_COLOR
350
1B
  3
ACAD_GROUP
350
D
  3
ACAD_LAYOUT
350
19
  3
ACAD_MATERIAL
350
1A
  3
ACAD_MLINESTYLE
350
16
  3
ACAD_PLOTSETTINGS
350
18
  3
ACAD_PLOTSTYLENAME
350
E
  3
ACAD_TABLESTYLE
350
1C
  3
ACDBHEADERROUNDTRIPXREC
350
894
  3
AcDbVariableDictionary
350
88F
  3
ADE_QUERY_LIBRARY
350
88D
  3
AEC_VARS
350
5CB
  3
ASE_INDEX_DICTIONARY
350
889
  3
Autodesk_MAP
350
5CD
  3
Root
350
5A6
1001
ADE
1000
ADE02C004
1000
[Query]
1000
CaseSensitiveMatch=0
1000
SaveCurrQueryInSession=1
1000
MkSelSetWithQryObj=0
1000
ShowBlockAsInsPt=0
1000
CreateAssociativeHatchObjects=0
1000
ReferenceBoundaryForAreaLocation=1
1000
ShowImageAsBoundary=1
1000
DefaultJoinOperator=2
1000
ColorForAdd=red
1000
ColorForRemove=red
1000
BlockLocnForQuery=1
1000
TextLocnForQuery=1
1000
IncludeAllObjectsInGroups=0
1000
AlwaysUseLibraryDefinitions=0
1000
PreviewDefinitionsFrom=2
1000
[Save Back]
1000
RedefineBlockDefinitions=1
1000
RedefineLayerDefinitions=1
1000
RedefineTextStyleDefinitions=1
1000
RemoveUnusedGroups=1
1000
EraseSavedBackObjects=1
1000
RemoveLockAfterSave=1
1000
CreateHistoryFileOfChanges=0
1000
CreateBackupFileOfSourceDwg=1
1000
DontAddObjectsToSaveSet=0
1000
MarkObjectsForEditingWithoutPrompting=0
1000
[Coordinate Transformation]
1000
RestoreLastActiveDwgsOnStartup=1
1000
ActivateDwgsOnAttach=1
1000
AdjustSizesAndScalesForChangesInUnits=1
1000
AdjustRotationsForMapDistortions=1
1000
AdjustSizesAndScalesForMapDistortions=1
1000
AdjustElevations=1
1000
AdjustZeroRotationObjects=1
1000
ReconnectDbOnWSOpen=1
1000
NoOfSQLConditionsInHistory=10
  0
DICTIONARY
  5
1B
102
{ACAD_REACTORS
330
C
102
}
330
C
100
AcDbDictionary
281
     1
  0
DICTIONARY
  5
D
102
{ACAD_REACTORS
330
C
102
}
330
C
100
AcDbDictionary
281
     1
  0
DICTIONARY
  5
19
102
{ACAD_REACTORS
330
C
102
}
330
C
100
AcDbDictionary
281
     1
  3
Model
350
25
  3
レイアウト1
350
21
  0
DICTIONARY
  5
1A
102
{ACAD_REACTORS
330
C
102
}
330
C
100
AcDbDictionary
281
     1
  0
DICTIONARY
  5
16
102
{ACAD_REACTORS
330
C
102
}
330
C
100
AcDbDictionary
281
     1
  3
Standard
350
17
  0
DICTIONARY
  5
18
102
{ACAD_REACTORS
330
C
102
}
330
C
100
AcDbDictionary
281
     1
  0
ACDBDICTIONARYWDFLT
  5
E
102
{ACAD_REACTORS
330
C
102
}
330
C
100
AcDbDictionary
281
     1
  3
Normal
350
F
100
AcDbDictionaryWithDefault
340
F
  0
DICTIONARY
  5
1C
102
{ACAD_REACTORS
330
C
102
}
330
C
100
AcDbDictionary
281
     1
  3
Legend
350
5D1
  3
Standard
350
1D
  0
DICTIONARY
  5
894
102
{ACAD_REACTORS
330
C
102
}
330
C
100
AcDbDictionary
281
     1
  0
DICTIONARY
  5
88F
102
{ACAD_REACTORS
330
C
102
}
330
C
100
AcDbDictionary
281
     1
  3
CTABLESTYLE
350
890
  3
DIMASSOC
350
891
  3
PROJECTNAME
350
892
  0
DICTIONARY
  5
88D
102
{ACAD_REACTORS
330
C
102
}
330
C
100
AcDbDictionary
281
     1
  3
_CurrQry
350
88E
  0
DICTIONARY
  5
5CB
102
{ACAD_REACTORS
330
C
102
}
330
C
100
AcDbDictionary
281
     1
  3
AEC_VARS_DWG_SETUP
350
5CC
  0
DICTIONARY
  5
889
102
{ACAD_REACTORS
330
C
102
}
330
C
100
AcDbDictionary
281
     1
  3
ASEBlockHierarchyIndexRecord
350
88B
1001
DCO15
1040
1621943306.453
  0
DICTIONARY
  5
5CD
102
{ACAD_REACTORS
330
C
102
}
330
C
100
AcDbDictionary
281
     1
  3
MAP_DISPLAY_MANAGEMENT_DICTIONARY
350
5CE
  3
MAP_DISPLAY_STYLELIBRARY_DICTIONARY
350
5CF
  0
LAYOUT
  5
25
102
{ACAD_XDICTIONARY
360
897
102
}
102
{ACAD_REACTORS
330
19
102
}
330
19
100
AcDbPlotSettings
  1

  2
DCColor a450_newosk
  4

  6

 40
0.0
 41
0.0
 42
0.0
 43
0.0
 44
0.0
 45
0.0
 46
0.0
 47
0.0
 48
0.0
 49
0.0
140
0.0
141
0.0
142
1.0
143
1.0
 70
  1712
 72
     0
 73
     0
 74
     0
  7

 75
     0
147
1.0
148
0.0
149
0.0
100
AcDbLayout
  1
Model
 70
     1
 71
     0
 10
0.0
 20
0.0
 11
12.0
 21
9.0
 12
0.0
 22
0.0
 32
0.0
 14
0.0
 24
0.0
 34
0.0
 15
0.0
 25
0.0
 35
0.0
146
0.0
 13
0.0
 23
0.0
 33
0.0
 16
1.0
 26
0.0
 36
0.0
 17
0.0
 27
1.0
 37
0.0
 76
     0
330
22
  0
LAYOUT
  5
21
102
{ACAD_XDICTIONARY
360
895
102
}
102
{ACAD_REACTORS
330
19
102
}
330
19
100
AcDbPlotSettings
  1

  2
DCColor a450_newosk
  4

  6

 40
0.0
 41
0.0
 42
0.0
 43
0.0
 44
0.0
 45
0.0
 46
0.0
 47
0.0
 48
0.0
 49
0.0
140
0.0
141
0.0
142
1.0
143
1.0
 70
   688
 72
     0
 73
     0
 74
     5
  7

 75
    16
147
1.0
148
0.0
149
0.0
100
AcDbLayout
  1
レイアウト1
 70
     1
 71
     1
 10
0.0
 20
0.0
 11
12.0
 21
9.0
 12
0.0
 22
0.0
 32
0.0
 14
1.000000000000000E+20
 24
1.000000000000000E+20
 34
1.000000000000000E+20
 15
-1.000000000000000E+20
 25
-1.000000000000000E+20
 35
-1.000000000000000E+20
146
0.0
 13
0.0
 23
0.0
 33
0.0
 16
1.0
 26
0.0
 36
0.0
 17
0.0
 27
1.0
 37
0.0
 76
     0
330
1E
  0
MLINESTYLE
  5
17
102
{ACAD_REACTORS
330
16
102
}
330
16
100
AcDbMlineStyle
  2
STANDARD
 70
     0
  3

 62
   256
 51
90.0
 52
90.0
 71
     2
 49
0.5
 62
   256
  6
BYLAYER
 49
-0.5
 62
   256
  6
BYLAYER
  0
ACDBPLACEHOLDER
  5
F
102
{ACAD_REACTORS
330
E
102
}
330
E
  0
TABLESTYLE
  5
5D1
102
{ACAD_REACTORS
330
1C
102
}
330
1C
100
AcDbTableStyle
  3

 70
     0
 71
     1
 40
0.06
 41
0.06
280
     0
281
     0
  7
STANDARD
140
0.4
170
     4
 62
     0
 63
     7
283
     0
274
    -2
284
     0
 64
     0
275
    -2
285
     0
 65
     0
276
    -2
286
     1
 66
     0
277
    -2
287
     1
 67
     0
278
    -2
288
     0
 68
     0
279
    -2
289
     1
 69
     0
  7
STANDARD
140
0.5
170
     5
 62
     0
 63
     7
283
     0
274
    -2
284
     1
 64
     0
275
    -2
285
     0
 65
     0
276
    -2
286
     1
 66
     0
277
    -2
287
     1
 67
     0
278
    -2
288
     0
 68
     0
279
    -2
289
     1
 69
     0
  7
STANDARD
140
0.4
170
     4
 62
     0
 63
     7
283
     0
274
    -2
284
     1
 64
     0
275
    -2
285
     0
 65
     0
276
    -2
286
     1
 66
     0
277
    -2
287
     1
 67
     0
278
    -2
288
     0
 68
     0
279
    -2
289
     1
 69
     0
  0
TABLESTYLE
  5
1D
102
{ACAD_REACTORS
330
1C
102
}
330
1C
100
AcDbTableStyle
  3
Standard
 70
     0
 71
     0
 40
0.06
 41
0.06
280
     0
281
     0
  7
STANDARD
140
0.18
170
     2
 62
     0
 63
     7
283
     0
274
    -2
284
     1
 64
     0
275
    -2
285
     1
 65
     0
276
    -2
286
     1
 66
     0
277
    -2
287
     1
 67
     0
278
    -2
288
     1
 68
     0
279
    -2
289
     1
 69
     0
  7
STANDARD
140
0.25
170
     5
 62
     0
 63
     7
283
     0
274
    -2
284
     1
 64
     0
275
    -2
285
     1
 65
     0
276
    -2
286
     1
 66
     0
277
    -2
287
     1
 67
     0
278
    -2
288
     1
 68
     0
279
    -2
289
     1
 69
     0
  7
STANDARD
140
0.18
170
     5
 62
     0
 63
     7
283
     0
274
    -2
284
     1
 64
     0
275
    -2
285
     1
 65
     0
276
    -2
286
     1
 66
     0
277
    -2
287
     1
 67
     0
278
    -2
288
     1
 68
     0
279
    -2
289
     1
 69
     0
  0
DICTIONARYVAR
  5
890
102
{ACAD_REACTORS
330
88F
102
}
330
88F
100
DictionaryVariables
280
     0
  1
STANDARD
  0
DICTIONARYVAR
  5
891
102
{ACAD_REACTORS
330
88F
102
}
330
88F
100
DictionaryVariables
280
     0
  1
1
  0
DICTIONARYVAR
  5
892
102
{ACAD_REACTORS
330
88F
102
}
330
88F
100
DictionaryVariables
280
     0
  1

  0
XRECORD
  5
88E
102
{ACAD_REACTORS
330
88D
102
}
330
88D
100
AcDbXrecord
280
     1
1000
ADE02C001
1070
     1
1070
     0
1002
{
1002
}
1002
{
1002
}
1002
{
1002
}
1000

  0
XRECORD
  5
88B
102
{ACAD_REACTORS
330
889
102
}
330
889
100
AcDbXrecord
280
     1
  0
DMMAPMANAGER
  5
5CE
102
{ACAD_REACTORS
330
5CD
102
}
330
5CD
100
AcDbDictionary
281
     1
  3
DisplayMap1
350
5D0
100
AcDbDictionaryWithDefault
340
5D0
100
AcMapDMMapManager
 70
     1
340
5D0
  0
DMSTYLELIBRARY
  5
5CF
102
{ACAD_REACTORS
330
5CD
102
}
330
5CD
100
AcMapDMStyleLibrary
 70
     1
 70
     1
360
5D5
  0
DICTIONARY
  5
897
330
25
100
AcDbDictionary
280
     1
281
     1
  3
ACAD_XREC_ROUNDTRIP
360
898
  0
DICTIONARY
  5
895
330
21
100
AcDbDictionary
280
     1
281
     1
  3
ACAD_XREC_ROUNDTRIP
360
896
  0
DMMAP
  5
5D0
102
{ACAD_REACTORS
330
5CE
330
5D2
102
}
330
5CE
100
AcMapDMMap
 70
     1
  1
既定値
 70
     1
330
0
100
AcMapDMMap
 70
     1
 90
        1
360
5D2
 90
        1
 40
1.797693134862314E+99
 70
     1
100
AcMapDMMap
 70
     2
 70
     0
 40
1.797693134862314E+99
290
     0
290
     1
 40
1.0
 40
3.0
  1
Legend
 90
        1
 40
1.797693134862314E+99
  1

 70
     0
 40
100.0
 70
     1
 90
        0
 90
        1
360
5D3
  0
DMSTYLECATEGORY
  5
5D5
102
{ACAD_REACTORS
330
5CF
102
}
330
5CF
100
AcMapDMStyleCategory
 70
     1
  1
スタイルを表示
 70
     0
  0
XRECORD
  5
898
102
{ACAD_REACTORS
330
897
102
}
330
897
100
AcDbXrecord
280
     1
102
SHADEPLOT
 70
     0
102
SHADEPLOTRESLEVEL
 70
     2
102
SHADEPLOTCUSTOMDPI
 70
   300
  0
XRECORD
  5
896
102
{ACAD_REACTORS
330
895
102
}
330
895
100
AcDbXrecord
280
     1
102
SHADEPLOT
 70
     0
102
SHADEPLOTRESLEVEL
 70
     2
102
SHADEPLOTCUSTOMDPI
 70
   300
  0
DMBASEELEMENT
  5
5D2
102
{ACAD_REACTORS
330
5D0
102
}
330
5D0
100
AcMapDMBaseElement
 70
     1
  1
マップ ベース
 70
     1
330
5D0
100
AcMapDMBaseElement
 70
     1
  1

 70
     2
  1

 70
     1
 40
1.797693134862314E+99
 70
     1
 70
     1
 70
     1
 70
     1
360
5D4
100
AcMapDMBaseElement
 70
     1
  0
DMDEFAULTSTYLE
  5
5D3
102
{ACAD_REACTORS
330
5D0
102
}
330
5D0
100
AcMapDMDefaultStyle
 70
     1
 90
        1
  1
既定値
100
AcMapDMDefaultStyle
 70
     1
280
   100
 90
     0
  0
DMSTYLEREFERENCE
  5
5D4
330
5D2
100
AcMapDMStyleReference
 70
     1
 70
     0
340
5D3
330
5D0
  0
ENDSEC
  0
EOF
